   0
SECTION
   2
HEADER
   9
$LIMMIN
  10
0.0
  20
0.0
   9
$LIMMAX
  10
 630.000
  20
 923.000
   9
$EXTMIN
  10
0.0
  20
0.0
   9
$EXTMAX
  10
 630.000
  20
 923.000
   9
$LTSCALE
  40
 18.4600
   0
ENDSEC
   0
SECTION
   2
TABLES
  0
TABLE
  2
LTYPE
 70
    25
  0
LTYPE
  2
CONTINUOUS
 70
    64
  3
Solid line
 72
    65
 73
     0
 40
0.0
  0
LTYPE
  2
BORDER
 70
    64
  3
__ __ . __ __ . __ __ . __ __ . __ __ . __ __ .
 72
    65
 73
     6
 40
1.75
 49
0.5
 49
-0.25
 49
0.5
 49
-0.25
 49
0.0
 49
-0.25
  0
LTYPE
  2
BORDER2
 70
    64
  3
__.__.__.__.__.__.__.__.__.__.__.__.__.__.__.__
 72
    65
 73
     6
 40
0.875
 49
0.25
 49
-0.125
 49
0.25
 49
-0.125
 49
0.0
 49
-0.125
  0
LTYPE
  2
BORDERX2
 70
    64
  3
____  ____  .  ____  ____  .  ____  ____  .  __
 72
    65
 73
     6
 40
3.5
 49
1.0
 49
-0.5
 49
1.0
 49
-0.5
 49
0.0
 49
-0.5
  0
LTYPE
  2
CENTER
 70
    64
  3
____ _ ____ _ ____ _ ____ _ ____ _ ____ _ ____ 
 72
    65
 73
     4
 40
2.0
 49
1.25
 49
-0.25
 49
0.25
 49
-0.25
  0
LTYPE
  2
CENTER2
 70
    64
  3
___ _ ___ _ ___ _ ___ _ ___ _ ___ _ ___ _ ___ _
 72
    65
 73
     4
 40
1.125
 49
0.75
 49
-0.125
 49
0.125
 49
-0.125
  0
LTYPE
  2
CENTERX2
 70
    64
  3
________  __  ________  __  ________  __  _____
 72
    65
 73
     4
 40
4.0
 49
2.5
 49
-0.5
 49
0.5
 49
-0.5
  0
LTYPE
  2
DASHDOT
 70
    64
  3
__ . __ . __ . __ . __ . __ . __ . __ . __ . __
 72
    65
 73
     4
 40
1.0
 49
0.5
 49
-0.25
 49
0.0
 49
-0.25
  0
LTYPE
  2
DASHDOT2
 70
    64
  3
_._._._._._._._._._._._._._._._._._._._._._._._
 72
    65
 73
     4
 40
0.5
 49
0.25
 49
-0.125
 49
0.0
 49
-0.125
  0
LTYPE
  2
DASHDOTX2
 70
    64
  3
____  .  ____  .  ____  .  ____  .  ____  .  __
 72
    65
 73
     4
 40
2.0
 49
1.0
 49
-0.5
 49
0.0
 49
-0.5
  0
LTYPE
  2
DASHED
 70
    64
  3
__ __ __ __ __ __ __ __ __ __ __ __ __ __ __ __
 72
    65
 73
     2
 40
0.75
 49
0.5
 49
-0.25
  0
LTYPE
  2
DASHED2
 70
    64
  3
_ _ _ _ _ _ _ _ _ _ _ _ _ _ _ _ _ _ _ _ _ _ _ _
 72
    65
 73
     2
 40
0.375
 49
0.25
 49
-0.125
  0
LTYPE
  2
DASHEDX2
 70
    64
  3
____  ____  ____  ____  ____  ____  ____  ____ 
 72
    65
 73
     2
 40
1.5
 49
1.0
 49
-0.5
  0
LTYPE
  2
DIVIDE
 70
    64
  3
____ . . ____ . . ____ . . ____ . . ____ . . __
 72
    65
 73
     6
 40
1.25
 49
0.5
 49
-0.25
 49
0.0
 49
-0.25
 49
0.0
 49
-0.25
  0
LTYPE
  2
DIVIDE2
 70
    64
  3
__..__..__..__..__..__..__..__..__..__..__..__.
 72
    65
 73
     6
 40
0.625
 49
0.25
 49
-0.125
 49
0.0
 49
-0.125
 49
0.0
 49
-0.125
  0
LTYPE
  2
DIVIDEX2
 70
    64
  3
________  .  .  ________  .  .  ________  .  . 
 72
    65
 73
     6
 40
2.5
 49
1.0
 49
-0.5
 49
0.0
 49
-0.5
 49
0.0
 49
-0.5
  0
LTYPE
  2
DOT
 70
    64
  3
. . . . . . . . . . . . . . . . . . . . . . . .
 72
    65
 73
     2
 40
0.25
 49
0.0
 49
-0.25
  0
LTYPE
  2
DOT2
 70
    64
  3
...............................................
 72
    65
 73
     2
 40
0.125
 49
0.0
 49
-0.125
  0
LTYPE
  2
DOTX2
 70
    64
  3
.  .  .  .  .  .  .  .  .  .  .  .  .  .  .  . 
 72
    65
 73
     2
 40
0.5
 49
0.0
 49
-0.5
  0
LTYPE
  2
HIDDEN
 70
    64
  3
__ __ __ __ __ __ __ __ __ __ __ __ __ __ __ __
 72
    65
 73
     2
 40
0.375
 49
0.25
 49
-0.125
  0
LTYPE
  2
HIDDEN2
 70
    64
  3
_ _ _ _ _ _ _ _ _ _ _ _ _ _ _ _ _ _ _ _ _ _ _ _
 72
    65
 73
     2
 40
0.1875
 49
0.125
 49
-0.0625
  0
LTYPE
  2
HIDDENX2
 70
    64
  3
____ ____ ____ ____ ____ ____ ____ ____ ____ __
 72
    65
 73
     2
 40
0.75
 49
0.5
 49
-0.25
  0
LTYPE
  2
PHANTOM
 70
    64
  3
______  __  __  ______  __  __  ______  __  __ 
 72
    65
 73
     6
 40
2.5
 49
1.25
 49
-0.25
 49
0.25
 49
-0.25
 49
0.25
 49
-0.25
  0
LTYPE
  2
PHANTOM2
 70
    64
  3
___ _ _ ___ _ _ ___ _ _ ___ _ _ ___ _ _ ___ _ _
 72
    65
 73
     6
 40
1.25
 49
0.625
 49
-0.125
 49
0.125
 49
-0.125
 49
0.125
 49
-0.125
  0
LTYPE
  2
PHANTOMX2
 70
    64
  3
____________    ____    ____    ____________   
 72
    65
 73
     6
 40
5.0
 49
2.5
 49
-0.5
 49
0.5
 49
-0.5
 49
0.5
 49
-0.5
  0
ENDTAB
  0
TABLE
  2
STYLE
 70
     2
  0
STYLE
  2
STANDARD
 70
0
 40
0.0
 41
1.0
 50
0.0
 71
0
 42
0.2
  3
TXT
  4
BIGFONT
  0
STYLE
  2
STANDARD1
 70
     4
 40
0.0
 41
1.0
 50
0.0
 71
     0
 42
0.2
  3
TXT
  4
BIGFONT
  0
ENDTAB
   0
TABLE
   2
LAYER
  70
4
   0
LAYER
   2
0
  70
0
  62
7
   6
CONTINUOUS
   0
LAYER
   2
LEVEL001
  70
0
  62
7
   6
CONTINUOUS
   0
LAYER
   2
LEVEL003
  70
0
  62
7
   6
CONTINUOUS
   0
LAYER
   2
LEVEL004
  70
0
  62
7
   6
CONTINUOUS
   0
ENDTAB
   0
ENDSEC
   0
SECTION
   2
ENTITIES
   0
LINE
   8
LEVEL001
   6
CONTINUOUS
  62
7
  10
 240.000
  20
 324.500
  30
0.0
  11
 238.000
  21
 322.500
  31
0.0
   0
LINE
   8
LEVEL001
   6
CONTINUOUS
  62
7
  10
 60.0000
  20
 324.500
  30
0.0
  11
 62.0000
  21
 322.500
  31
0.0
   0
LINE
   8
LEVEL001
   6
CONTINUOUS
  62
7
  10
 238.000
  20
 322.500
  30
0.0
  11
 62.0000
  21
 322.500
  31
0.0
   0
LINE
   8
LEVEL001
   6
CONTINUOUS
  62
3
  10
 250.000
  20
 397.143
  30
0.0
  11
 246.384
  21
 396.174
  31
0.0
   0
LINE
   8
LEVEL001
   6
CONTINUOUS
  62
3
  10
 250.000
  20
 379.856
  30
0.0
  11
 246.384
  21
 380.825
  31
0.0
   0
LINE
   8
LEVEL001
   6
CONTINUOUS
  62
3
  10
 246.384
  20
 396.174
  30
0.0
  11
 246.384
  21
 380.825
  31
0.0
   0
ARC
   8
LEVEL001
   6
CONTINUOUS
  62
7
  10
 267.599
  20
 404.687
  30
0.0
  40
 17.6000
  50
 180.608
  51
 203.256
   0
ARC
   8
LEVEL001
   6
CONTINUOUS
  62
7
  10
 267.599
  20
 372.313
  30
0.0
  40
 17.6000
  50
 156.744
  51
 179.392
   0
ARC
   8
LEVEL001
   6
CONTINUOUS
  62
7
  10
 280.571
  20
 388.500
  30
0.0
  40
 30.5710
  50
 162.412
  51
 197.588
   0
LINE
   8
LEVEL001
   6
CONTINUOUS
  62
7
  10
 251.429
  20
 406.975
  30
0.0
  11
 250.000
  21
 404.500
  31
0.0
   0
LINE
   8
LEVEL001
   6
CONTINUOUS
  62
7
  10
 250.000
  20
 404.500
  30
0.0
  11
 250.000
  21
 372.500
  31
0.0
   0
LINE
   8
LEVEL001
   6
CONTINUOUS
  62
7
  10
 250.000
  20
 372.500
  30
0.0
  11
 251.429
  21
 370.025
  31
0.0
   0
LINE
   8
LEVEL001
   6
CONTINUOUS
  62
7
  10
 251.429
  20
 370.025
  30
0.0
  11
 278.571
  21
 370.025
  31
0.0
   0
LINE
   8
LEVEL001
   6
CONTINUOUS
  62
7
  10
 278.571
  20
 370.025
  30
0.0
  11
 280.000
  21
 372.500
  31
0.0
   0
LINE
   8
LEVEL001
   6
CONTINUOUS
  62
7
  10
 280.000
  20
 372.500
  30
0.0
  11
 280.000
  21
 404.500
  31
0.0
   0
LINE
   8
LEVEL001
   6
CONTINUOUS
  62
7
  10
 280.000
  20
 404.500
  30
0.0
  11
 278.571
  21
 406.975
  31
0.0
   0
LINE
   8
LEVEL001
   6
CONTINUOUS
  62
7
  10
 278.571
  20
 406.975
  30
0.0
  11
 251.429
  21
 406.975
  31
0.0
   0
ARC
   8
LEVEL001
   6
CONTINUOUS
  62
7
  10
 262.401
  20
 372.313
  30
0.0
  40
 17.6000
  50
 0.608593
  51
 23.2565
   0
ARC
   8
LEVEL001
   6
CONTINUOUS
  62
7
  10
 262.401
  20
 404.687
  30
0.0
  40
 17.6000
  50
 336.744
  51
 359.391
   0
ARC
   8
LEVEL001
   6
CONTINUOUS
  62
7
  10
 249.429
  20
 388.500
  30
0.0
  40
 30.5710
  50
 342.412
  51
 17.5880
   0
LINE
   8
LEVEL001
   6
CONTINUOUS
  62
7
  10
 251.429
  20
 397.738
  30
0.0
  11
 278.571
  21
 397.738
  31
0.0
   0
LINE
   8
LEVEL001
   6
CONTINUOUS
  62
7
  10
 251.429
  20
 379.262
  30
0.0
  11
 278.571
  21
 379.262
  31
0.0
   0
LINE
   8
LEVEL001
   6
CONTINUOUS
  62
3
  10
 286.091
  20
 378.994
  30
0.0
  11
 286.091
  21
 398.006
  31
0.0
   0
LINE
   8
LEVEL001
   6
CONTINUOUS
  62
3
  10
 291.000
  20
 399.321
  30
0.0
  11
 286.091
  21
 398.006
  31
0.0
   0
LINE
   8
LEVEL001
   6
CONTINUOUS
  62
3
  10
 291.000
  20
 377.679
  30
0.0
  11
 286.091
  21
 378.994
  31
0.0
   0
LINE
   8
LEVEL001
   6
CONTINUOUS
  62
7
  10
 291.000
  20
 399.321
  30
0.0
  11
 291.000
  21
 377.679
  31
0.0
   0
LINE
   8
LEVEL001
   6
CONTINUOUS
  62
7
  10
 293.042
  20
 400.500
  30
0.0
  11
 309.200
  21
 400.500
  31
0.0
   0
LINE
   8
LEVEL001
   6
CONTINUOUS
  62
7
  10
 291.000
  20
 377.679
  30
0.0
  11
 293.042
  21
 376.500
  31
0.0
   0
LINE
   8
LEVEL001
   6
CONTINUOUS
  62
7
  10
 293.042
  20
 376.500
  30
0.0
  11
 309.200
  21
 376.500
  31
0.0
   0
LINE
   8
LEVEL001
   6
CONTINUOUS
  62
7
  10
 291.000
  20
 399.321
  30
0.0
  11
 293.042
  21
 400.500
  31
0.0
   0
ARC
   8
LEVEL001
   6
CONTINUOUS
  62
7
  10
 311.200
  20
 404.500
  30
0.0
  40
 2.00000
  50
 90.0002
  51
 180.000
   0
LINE
   8
LEVEL001
   6
CONTINUOUS
  62
7
  10
 311.200
  20
 406.500
  30
0.0
  11
 317.200
  21
 406.500
  31
0.0
   0
ARC
   8
LEVEL001
   6
CONTINUOUS
  62
7
  10
 333.200
  20
 405.500
  30
0.0
  40
 1.00000
  50
0.0
  51
 90.0004
   0
LINE
   8
LEVEL001
   6
CONTINUOUS
  62
7
  10
 327.200
  20
 406.500
  30
0.0
  11
 333.200
  21
 406.500
  31
0.0
   0
ARC
   8
LEVEL001
   6
CONTINUOUS
  62
7
  10
 311.200
  20
 372.500
  30
0.0
  40
 2.00000
  50
 180.000
  51
 270.000
   0
LINE
   8
LEVEL001
   6
CONTINUOUS
  62
7
  10
 311.200
  20
 370.500
  30
0.0
  11
 317.200
  21
 370.500
  31
0.0
   0
ARC
   8
LEVEL001
   6
CONTINUOUS
  62
7
  10
 333.200
  20
 371.500
  30
0.0
  40
 1.00000
  50
 270.000
  51
0.0
   0
LINE
   8
LEVEL001
   6
CONTINUOUS
  62
7
  10
 327.200
  20
 370.500
  30
0.0
  11
 333.200
  21
 370.500
  31
0.0
   0
LINE
   8
LEVEL001
   6
CONTINUOUS
  62
7
  10
 309.200
  20
 372.500
  30
0.0
  11
 309.200
  21
 404.500
  31
0.0
   0
LINE
   8
LEVEL001
   6
CONTINUOUS
  62
7
  10
 334.200
  20
 405.500
  30
0.0
  11
 334.200
  21
 371.500
  31
0.0
   0
LINE
   8
LEVEL001
   6
CONTINUOUS
  62
7
  10
 293.042
  20
 400.500
  30
0.0
  11
 293.042
  21
 394.309
  31
0.0
   0
LINE
   8
LEVEL001
   6
CONTINUOUS
  62
7
  10
 293.042
  20
 382.691
  30
0.0
  11
 293.042
  21
 376.500
  31
0.0
   0
LINE
   8
LEVEL001
   6
CONTINUOUS
  62
7
  10
 293.042
  20
 382.691
  30
0.0
  11
 302.000
  21
 394.309
  31
0.0
   0
LINE
   8
LEVEL001
   6
CONTINUOUS
  62
7
  10
 293.042
  20
 394.309
  30
0.0
  11
 302.000
  21
 382.691
  31
0.0
   0
LINE
   8
LEVEL001
   6
DASHDOT
  62
1
  10
 334.200
  20
 406.500
  30
0.0
  11
 342.200
  21
 406.500
  31
0.0
   0
LINE
   8
LEVEL001
   6
DASHDOT
  62
1
  10
 334.200
  20
 370.500
  30
0.0
  11
 342.200
  21
 370.500
  31
0.0
   0
LINE
   8
LEVEL001
   6
DASHDOT
  62
1
  10
 342.200
  20
 406.500
  30
0.0
  11
 342.200
  21
 370.500
  31
0.0
   0
LINE
   8
LEVEL001
   6
DASHDOT
  62
1
  10
 334.200
  20
 405.500
  30
0.0
  11
 334.200
  21
 406.500
  31
0.0
   0
LINE
   8
LEVEL001
   6
DASHDOT
  62
1
  10
 334.200
  20
 371.500
  30
0.0
  11
 334.200
  21
 370.500
  31
0.0
   0
LINE
   8
LEVEL001
   6
CONTINUOUS
  62
3
  10
 317.200
  20
 372.000
  30
0.0
  11
 327.200
  21
 372.000
  31
0.0
   0
LINE
   8
LEVEL001
   6
CONTINUOUS
  62
3
  10
 317.200
  20
 374.000
  30
0.0
  11
 327.200
  21
 374.000
  31
0.0
   0
LINE
   8
LEVEL001
   6
CONTINUOUS
  62
3
  10
 317.200
  20
 376.000
  30
0.0
  11
 327.200
  21
 376.000
  31
0.0
   0
LINE
   8
LEVEL001
   6
CONTINUOUS
  62
3
  10
 317.200
  20
 378.000
  30
0.0
  11
 327.200
  21
 378.000
  31
0.0
   0
LINE
   8
LEVEL001
   6
CONTINUOUS
  62
3
  10
 317.200
  20
 380.000
  30
0.0
  11
 327.200
  21
 380.000
  31
0.0
   0
LINE
   8
LEVEL001
   6
CONTINUOUS
  62
3
  10
 317.200
  20
 382.000
  30
0.0
  11
 327.200
  21
 382.000
  31
0.0
   0
LINE
   8
LEVEL001
   6
CONTINUOUS
  62
3
  10
 317.200
  20
 384.000
  30
0.0
  11
 327.200
  21
 384.000
  31
0.0
   0
LINE
   8
LEVEL001
   6
CONTINUOUS
  62
3
  10
 317.200
  20
 386.000
  30
0.0
  11
 327.200
  21
 386.000
  31
0.0
   0
LINE
   8
LEVEL001
   6
CONTINUOUS
  62
3
  10
 317.200
  20
 388.000
  30
0.0
  11
 327.200
  21
 388.000
  31
0.0
   0
LINE
   8
LEVEL001
   6
CONTINUOUS
  62
3
  10
 317.200
  20
 390.000
  30
0.0
  11
 327.200
  21
 390.000
  31
0.0
   0
LINE
   8
LEVEL001
   6
CONTINUOUS
  62
3
  10
 317.200
  20
 392.000
  30
0.0
  11
 327.200
  21
 392.000
  31
0.0
   0
LINE
   8
LEVEL001
   6
CONTINUOUS
  62
3
  10
 317.200
  20
 394.000
  30
0.0
  11
 327.200
  21
 394.000
  31
0.0
   0
LINE
   8
LEVEL001
   6
CONTINUOUS
  62
3
  10
 317.200
  20
 396.000
  30
0.0
  11
 327.200
  21
 396.000
  31
0.0
   0
LINE
   8
LEVEL001
   6
CONTINUOUS
  62
3
  10
 317.200
  20
 398.000
  30
0.0
  11
 327.200
  21
 398.000
  31
0.0
   0
LINE
   8
LEVEL001
   6
CONTINUOUS
  62
3
  10
 317.200
  20
 400.000
  30
0.0
  11
 327.200
  21
 400.000
  31
0.0
   0
LINE
   8
LEVEL001
   6
CONTINUOUS
  62
3
  10
 317.200
  20
 402.000
  30
0.0
  11
 327.200
  21
 402.000
  31
0.0
   0
LINE
   8
LEVEL001
   6
CONTINUOUS
  62
3
  10
 317.200
  20
 404.000
  30
0.0
  11
 327.200
  21
 404.000
  31
0.0
   0
LINE
   8
LEVEL001
   6
CONTINUOUS
  62
3
  10
 317.200
  20
 406.000
  30
0.0
  11
 327.200
  21
 406.000
  31
0.0
   0
LINE
   8
LEVEL001
   6
CONTINUOUS
  62
7
  10
 291.000
  20
 399.321
  30
0.0
  11
 280.000
  21
 398.977
  31
0.0
   0
LINE
   8
LEVEL001
   6
CONTINUOUS
  62
7
  10
 291.000
  20
 377.679
  30
0.0
  11
 280.000
  21
 378.022
  31
0.0
   0
LINE
   8
LEVEL001
   6
CONTINUOUS
  62
3
  10
 286.091
  20
 398.006
  30
0.0
  11
 280.000
  21
 397.815
  31
0.0
   0
LINE
   8
LEVEL001
   6
CONTINUOUS
  62
3
  10
 286.091
  20
 378.994
  30
0.0
  11
 280.000
  21
 379.184
  31
0.0
   0
LINE
   8
LEVEL003
   6
CONTINUOUS
  62
3
  10
 239.500
  20
 322.500
  30
0.0
  11
 355.500
  21
 322.500
  31
0.0
   0
LINE
   8
LEVEL003
   6
CONTINUOUS
  62
3
  10
 346.500
  20
 388.500
  30
0.0
  11
 355.500
  21
 388.500
  31
0.0
   0
LINE
   8
LEVEL003
   6
CONTINUOUS
  62
3
  10
 352.500
  20
 322.500
  30
0.0
  11
 352.500
  21
 388.500
  31
0.0
   0
LINE
   8
LEVEL003
   6
CONTINUOUS
  62
3
  10
 352.500
  20
 322.500
  30
0.0
  11
 353.293
  21
 327.000
  31
0.0
   0
LINE
   8
LEVEL003
   6
CONTINUOUS
  62
3
  10
 352.500
  20
 322.500
  30
0.0
  11
 351.707
  21
 327.000
  31
0.0
   0
LINE
   8
LEVEL003
   6
CONTINUOUS
  62
3
  10
 352.500
  20
 388.500
  30
0.0
  11
 351.707
  21
 384.000
  31
0.0
   0
LINE
   8
LEVEL003
   6
CONTINUOUS
  62
3
  10
 352.500
  20
 388.500
  30
0.0
  11
 353.293
  21
 384.000
  31
0.0
   0
TEXT
   8
LEVEL003
  62
3
  10
 351.300
  20
 352.500
  30
0.0
  40
 6.00000
   1
66
  50
 90.0000
  41
 0.500000
   7
STANDARD
  72
1
  11
 351.300
  21
 355.500
  31
0.0
   0
LINE
   8
LEVEL003
   6
CONTINUOUS
  62
3
  10
 239.500
  20
 322.500
  30
0.0
  11
 370.500
  21
 322.500
  31
0.0
   0
LINE
   8
LEVEL003
   6
CONTINUOUS
  62
3
  10
 367.500
  20
 322.500
  30
0.0
  11
 368.293
  21
 327.000
  31
0.0
   0
LINE
   8
LEVEL003
   6
CONTINUOUS
  62
3
  10
 367.500
  20
 322.500
  30
0.0
  11
 366.707
  21
 327.000
  31
0.0
   0
LINE
   8
LEVEL003
   6
CONTINUOUS
  62
3
  10
 60.0000
  20
 323.000
  30
0.0
  11
 60.0000
  21
 267.000
  31
0.0
   0
LINE
   8
LEVEL003
   6
CONTINUOUS
  62
3
  10
 240.000
  20
 323.000
  30
0.0
  11
 240.000
  21
 267.000
  31
0.0
   0
LINE
   8
LEVEL003
   6
CONTINUOUS
  62
3
  10
 60.0000
  20
 270.000
  30
0.0
  11
 240.000
  21
 270.000
  31
0.0
   0
LINE
   8
LEVEL003
   6
CONTINUOUS
  62
3
  10
 60.0000
  20
 270.000
  30
0.0
  11
 64.5000
  21
 269.207
  31
0.0
   0
LINE
   8
LEVEL003
   6
CONTINUOUS
  62
3
  10
 60.0000
  20
 270.000
  30
0.0
  11
 64.5000
  21
 270.793
  31
0.0
   0
LINE
   8
LEVEL003
   6
CONTINUOUS
  62
3
  10
 240.000
  20
 270.000
  30
0.0
  11
 235.500
  21
 270.793
  31
0.0
   0
LINE
   8
LEVEL003
   6
CONTINUOUS
  62
3
  10
 240.000
  20
 270.000
  30
0.0
  11
 235.500
  21
 269.207
  31
0.0
   0
TEXT
   8
LEVEL003
  62
3
  10
 142.500
  20
 271.200
  30
0.0
  40
 6.00000
   1
%%c180
   7
STANDARD
  72
1
  11
 150.000
  21
 271.200
  31
0.0
   0
LINE
   8
LEVEL003
   6
CONTINUOUS
  62
3
  10
 95.0000
  20
 318.000
  30
0.0
  11
 95.0000
  21
 282.000
  31
0.0
   0
LINE
   8
LEVEL003
   6
CONTINUOUS
  62
3
  10
 205.000
  20
 318.000
  30
0.0
  11
 205.000
  21
 282.000
  31
0.0
   0
LINE
   8
LEVEL003
   6
CONTINUOUS
  62
3
  10
 95.0000
  20
 285.000
  30
0.0
  11
 205.000
  21
 285.000
  31
0.0
   0
LINE
   8
LEVEL003
   6
CONTINUOUS
  62
3
  10
 95.0000
  20
 285.000
  30
0.0
  11
 99.5000
  21
 284.207
  31
0.0
   0
LINE
   8
LEVEL003
   6
CONTINUOUS
  62
3
  10
 95.0000
  20
 285.000
  30
0.0
  11
 99.5000
  21
 285.793
  31
0.0
   0
LINE
   8
LEVEL003
   6
CONTINUOUS
  62
3
  10
 205.000
  20
 285.000
  30
0.0
  11
 200.500
  21
 285.793
  31
0.0
   0
LINE
   8
LEVEL003
   6
CONTINUOUS
  62
3
  10
 205.000
  20
 285.000
  30
0.0
  11
 200.500
  21
 284.207
  31
0.0
   0
TEXT
   8
LEVEL003
  62
3
  10
 138.000
  20
 286.200
  30
0.0
  40
 6.00000
   1
PCD.110
  41
 0.500000
   7
STANDARD
  72
1
  11
 148.500
  21
 286.200
  31
0.0
   0
TEXT
   8
LEVEL003
  62
3
  10
 255.000
  20
 352.500
  30
0.0
  40
 6.00000
   1
ＮＰＴ３／８
   7
STANDARD
   0
LINE
   8
LEVEL003
   6
CONTINUOUS
  62
3
  10
 243.006
  20
 380.075
  30
0.0
  11
 255.000
  21
 352.500
  31
0.0
   0
LINE
   8
LEVEL003
   6
CONTINUOUS
  62
3
  10
 243.006
  20
 380.075
  30
0.0
  11
 244.073
  21
 375.632
  31
0.0
   0
LINE
   8
LEVEL003
   6
CONTINUOUS
  62
3
  10
 243.006
  20
 380.075
  30
0.0
  11
 245.529
  21
 376.265
  31
0.0
   0
LINE
   8
LEVEL003
   6
CONTINUOUS
  62
3
  10
 283.511
  20
 377.913
  30
0.0
  11
 300.000
  21
 352.500
  31
0.0
   0
LINE
   8
LEVEL003
   6
CONTINUOUS
  62
3
  10
 283.511
  20
 377.913
  30
0.0
  11
 285.295
  21
 373.706
  31
0.0
   0
LINE
   8
LEVEL003
   6
CONTINUOUS
  62
3
  10
 283.511
  20
 377.913
  30
0.0
  11
 286.626
  21
 374.570
  31
0.0
   0
LINE
   8
LEVEL003
   6
CONTINUOUS
  62
3
  10
 60.5000
  20
 322.500
  30
0.0
  11
 19.5000
  21
 322.500
  31
0.0
   0
LINE
   8
LEVEL003
   6
CONTINUOUS
  62
3
  10
 22.5000
  20
 322.500
  30
0.0
  11
 23.2935
  21
 327.000
  31
0.0
   0
LINE
   8
LEVEL003
   6
CONTINUOUS
  62
3
  10
 22.5000
  20
 322.500
  30
0.0
  11
 21.7065
  21
 327.000
  31
0.0
   0
TEXT
   8
LEVEL003
  62
3
  10
 300.000
  20
 352.500
  30
0.0
  40
 6.00000
   1
Ｒ　１／２
   7
STANDARD
   0
LINE
   8
LEVEL001
   6
CONTINUOUS
  62
7
  10
 291.000
  20
 391.117
  30
0.0
  11
 293.042
  21
 394.309
  31
0.0
   0
LINE
   8
LEVEL001
   6
CONTINUOUS
  62
7
  10
 293.042
  20
 394.309
  30
0.0
  11
 302.000
  21
 394.309
  31
0.0
   0
LINE
   8
LEVEL001
   6
CONTINUOUS
  62
7
  10
 302.000
  20
 394.309
  30
0.0
  11
 302.000
  21
 382.691
  31
0.0
   0
LINE
   8
LEVEL001
   6
CONTINUOUS
  62
7
  10
 302.000
  20
 382.691
  30
0.0
  11
 293.042
  21
 382.691
  31
0.0
   0
LINE
   8
LEVEL001
   6
CONTINUOUS
  62
7
  10
 293.042
  20
 382.691
  30
0.0
  11
 291.000
  21
 385.883
  31
0.0
   0
LINE
   8
LEVEL001
   6
CONTINUOUS
  62
7
  10
 317.200
  20
 370.000
  30
0.0
  11
 317.200
  21
 407.000
  31
0.0
   0
LINE
   8
LEVEL001
   6
CONTINUOUS
  62
7
  10
 317.200
  20
 407.000
  30
0.0
  11
 327.200
  21
 407.000
  31
0.0
   0
LINE
   8
LEVEL001
   6
CONTINUOUS
  62
7
  10
 327.200
  20
 407.000
  30
0.0
  11
 327.200
  21
 370.000
  31
0.0
   0
LINE
   8
LEVEL001
   6
CONTINUOUS
  62
7
  10
 327.200
  20
 370.000
  30
0.0
  11
 317.200
  21
 370.000
  31
0.0
   0
CIRCLE
   8
LEVEL001
   6
CONTINUOUS
  62
7
  10
 150.000
  20
 127.500
  30
0.0
  40
 90.0000
   0
CIRCLE
   8
LEVEL001
   6
CONTINUOUS
  62
7
  10
 150.000
  20
 127.500
  30
0.0
  40
 88.0000
   0
CIRCLE
   8
LEVEL001
   6
DASHDOT
  62
1
  10
 150.000
  20
 127.500
  30
0.0
  40
 55.0000
   0
CIRCLE
   8
LEVEL001
   6
CONTINUOUS
  62
7
  10
 150.000
  20
 127.500
  30
0.0
  40
 71.0000
   0
CIRCLE
   8
LEVEL001
   6
CONTINUOUS
  62
7
  10
 150.000
  20
 127.500
  30
0.0
  40
 4.25000
   0
CIRCLE
   8
LEVEL001
   6
CONTINUOUS
  62
3
  10
 150.000
  20
 127.500
  30
0.0
  40
 5.00000
   0
CIRCLE
   8
LEVEL001
   6
CONTINUOUS
  62
3
  10
 150.000
  20
 127.500
  30
0.0
  40
 72.5000
   0
LINE
   8
LEVEL001
   6
CONTINUOUS
  62
3
  10
 250.000
  20
 136.143
  30
0.0
  11
 246.384
  21
 135.174
  31
0.0
   0
LINE
   8
LEVEL001
   6
CONTINUOUS
  62
3
  10
 250.000
  20
 118.857
  30
0.0
  11
 246.384
  21
 119.826
  31
0.0
   0
LINE
   8
LEVEL001
   6
CONTINUOUS
  62
3
  10
 246.384
  20
 135.174
  30
0.0
  11
 246.384
  21
 119.826
  31
0.0
   0
ARC
   8
LEVEL001
   6
CONTINUOUS
  62
7
  10
 273.107
  20
 135.500
  30
0.0
  40
 23.1068
  50
 159.744
  51
 200.256
   0
ARC
   8
LEVEL001
   6
CONTINUOUS
  62
7
  10
 273.107
  20
 119.500
  30
0.0
  40
 23.1068
  50
 159.744
  51
 200.256
   0
LINE
   8
LEVEL001
   6
CONTINUOUS
  62
7
  10
 250.000
  20
 111.500
  30
0.0
  11
 250.000
  21
 143.500
  31
0.0
   0
LINE
   8
LEVEL001
   6
CONTINUOUS
  62
7
  10
 250.000
  20
 143.500
  30
0.0
  11
 280.000
  21
 143.500
  31
0.0
   0
LINE
   8
LEVEL001
   6
CONTINUOUS
  62
7
  10
 280.000
  20
 143.500
  30
0.0
  11
 280.000
  21
 111.500
  31
0.0
   0
LINE
   8
LEVEL001
   6
CONTINUOUS
  62
7
  10
 280.000
  20
 111.500
  30
0.0
  11
 250.000
  21
 111.500
  31
0.0
   0
ARC
   8
LEVEL001
   6
CONTINUOUS
  62
7
  10
 256.893
  20
 119.500
  30
0.0
  40
 23.1068
  50
 339.744
  51
 20.2562
   0
ARC
   8
LEVEL001
   6
CONTINUOUS
  62
7
  10
 256.893
  20
 135.500
  30
0.0
  40
 23.1068
  50
 339.744
  51
 20.2562
   0
LINE
   8
LEVEL001
   6
CONTINUOUS
  62
7
  10
 251.429
  20
 127.500
  30
0.0
  11
 278.571
  21
 127.500
  31
0.0
   0
LINE
   8
LEVEL001
   6
CONTINUOUS
  62
7
  10
 250.000
  20
 136.143
  30
0.0
  11
 240.000
  21
 135.831
  31
0.0
   0
LINE
   8
LEVEL001
   6
CONTINUOUS
  62
3
  10
 246.384
  20
 135.174
  30
0.0
  11
 240.000
  21
 134.975
  31
0.0
   0
LINE
   8
LEVEL001
   6
CONTINUOUS
  62
3
  10
 246.384
  20
 119.826
  30
0.0
  11
 240.000
  21
 120.025
  31
0.0
   0
LINE
   8
LEVEL001
   6
CONTINUOUS
  62
7
  10
 250.000
  20
 118.857
  30
0.0
  11
 240.000
  21
 119.169
  31
0.0
   0
LINE
   8
LEVEL001
   6
CONTINUOUS
  62
3
  10
 286.091
  20
 117.994
  30
0.0
  11
 286.091
  21
 137.006
  31
0.0
   0
LINE
   8
LEVEL001
   6
CONTINUOUS
  62
3
  10
 291.000
  20
 138.321
  30
0.0
  11
 286.091
  21
 137.006
  31
0.0
   0
LINE
   8
LEVEL001
   6
CONTINUOUS
  62
3
  10
 291.000
  20
 116.679
  30
0.0
  11
 286.091
  21
 117.994
  31
0.0
   0
LINE
   8
LEVEL001
   6
CONTINUOUS
  62
7
  10
 291.000
  20
 138.321
  30
0.0
  11
 291.000
  21
 116.679
  31
0.0
   0
ARC
   8
LEVEL001
   6
CONTINUOUS
  62
7
  10
 311.200
  20
 143.500
  30
0.0
  40
 2.00000
  50
 90.0000
  51
 180.000
   0
LINE
   8
LEVEL001
   6
CONTINUOUS
  62
7
  10
 311.200
  20
 145.500
  30
0.0
  11
 317.200
  21
 145.500
  31
0.0
   0
ARC
   8
LEVEL001
   6
CONTINUOUS
  62
7
  10
 333.200
  20
 144.500
  30
0.0
  40
 1.00000
  50
0.0
  51
 90.0000
   0
LINE
   8
LEVEL001
   6
CONTINUOUS
  62
7
  10
 327.200
  20
 145.500
  30
0.0
  11
 333.200
  21
 145.500
  31
0.0
   0
ARC
   8
LEVEL001
   6
CONTINUOUS
  62
7
  10
 311.200
  20
 111.500
  30
0.0
  40
 2.00000
  50
 180.000
  51
 270.000
   0
LINE
   8
LEVEL001
   6
CONTINUOUS
  62
7
  10
 311.200
  20
 109.500
  30
0.0
  11
 317.200
  21
 109.500
  31
0.0
   0
ARC
   8
LEVEL001
   6
CONTINUOUS
  62
7
  10
 333.200
  20
 110.500
  30
0.0
  40
 1.00000
  50
 270.000
  51
0.0
   0
LINE
   8
LEVEL001
   6
CONTINUOUS
  62
7
  10
 327.200
  20
 109.500
  30
0.0
  11
 333.200
  21
 109.500
  31
0.0
   0
LINE
   8
LEVEL001
   6
CONTINUOUS
  62
7
  10
 309.200
  20
 111.500
  30
0.0
  11
 309.200
  21
 143.500
  31
0.0
   0
LINE
   8
LEVEL001
   6
CONTINUOUS
  62
7
  10
 334.200
  20
 144.500
  30
0.0
  11
 334.200
  21
 110.500
  31
0.0
   0
LINE
   8
LEVEL001
   6
CONTINUOUS
  62
7
  10
 293.042
  20
 138.000
  30
0.0
  11
 293.042
  21
 117.000
  31
0.0
   0
LINE
   8
LEVEL001
   6
CONTINUOUS
  62
3
  10
 317.200
  20
 111.000
  30
0.0
  11
 327.200
  21
 111.000
  31
0.0
   0
LINE
   8
LEVEL001
   6
CONTINUOUS
  62
3
  10
 317.200
  20
 113.000
  30
0.0
  11
 327.200
  21
 113.000
  31
0.0
   0
LINE
   8
LEVEL001
   6
CONTINUOUS
  62
3
  10
 317.200
  20
 115.000
  30
0.0
  11
 327.200
  21
 115.000
  31
0.0
   0
LINE
   8
LEVEL001
   6
CONTINUOUS
  62
3
  10
 317.200
  20
 117.000
  30
0.0
  11
 327.200
  21
 117.000
  31
0.0
   0
LINE
   8
LEVEL001
   6
CONTINUOUS
  62
3
  10
 317.200
  20
 119.000
  30
0.0
  11
 327.200
  21
 119.000
  31
0.0
   0
LINE
   8
LEVEL001
   6
CONTINUOUS
  62
3
  10
 317.200
  20
 121.000
  30
0.0
  11
 327.200
  21
 121.000
  31
0.0
   0
LINE
   8
LEVEL001
   6
CONTINUOUS
  62
3
  10
 317.200
  20
 123.000
  30
0.0
  11
 327.200
  21
 123.000
  31
0.0
   0
LINE
   8
LEVEL001
   6
CONTINUOUS
  62
3
  10
 317.200
  20
 125.000
  30
0.0
  11
 327.200
  21
 125.000
  31
0.0
   0
LINE
   8
LEVEL001
   6
CONTINUOUS
  62
3
  10
 317.200
  20
 127.000
  30
0.0
  11
 327.200
  21
 127.000
  31
0.0
   0
LINE
   8
LEVEL001
   6
CONTINUOUS
  62
3
  10
 317.200
  20
 129.000
  30
0.0
  11
 327.200
  21
 129.000
  31
0.0
   0
LINE
   8
LEVEL001
   6
CONTINUOUS
  62
3
  10
 317.200
  20
 131.000
  30
0.0
  11
 327.200
  21
 131.000
  31
0.0
   0
LINE
   8
LEVEL001
   6
CONTINUOUS
  62
3
  10
 317.200
  20
 133.000
  30
0.0
  11
 327.200
  21
 133.000
  31
0.0
   0
LINE
   8
LEVEL001
   6
CONTINUOUS
  62
3
  10
 317.200
  20
 135.000
  30
0.0
  11
 327.200
  21
 135.000
  31
0.0
   0
LINE
   8
LEVEL001
   6
CONTINUOUS
  62
3
  10
 317.200
  20
 137.000
  30
0.0
  11
 327.200
  21
 137.000
  31
0.0
   0
LINE
   8
LEVEL001
   6
CONTINUOUS
  62
3
  10
 317.200
  20
 139.000
  30
0.0
  11
 327.200
  21
 139.000
  31
0.0
   0
LINE
   8
LEVEL001
   6
CONTINUOUS
  62
3
  10
 317.200
  20
 141.000
  30
0.0
  11
 327.200
  21
 141.000
  31
0.0
   0
LINE
   8
LEVEL001
   6
CONTINUOUS
  62
3
  10
 317.200
  20
 143.000
  30
0.0
  11
 327.200
  21
 143.000
  31
0.0
   0
LINE
   8
LEVEL001
   6
CONTINUOUS
  62
3
  10
 317.200
  20
 145.000
  30
0.0
  11
 327.200
  21
 145.000
  31
0.0
   0
LINE
   8
LEVEL001
   6
CONTINUOUS
  62
7
  10
 291.000
  20
 138.321
  30
0.0
  11
 280.000
  21
 137.977
  31
0.0
   0
LINE
   8
LEVEL001
   6
CONTINUOUS
  62
7
  10
 291.000
  20
 116.679
  30
0.0
  11
 280.000
  21
 117.023
  31
0.0
   0
LINE
   8
LEVEL001
   6
CONTINUOUS
  62
3
  10
 286.091
  20
 137.006
  30
0.0
  11
 280.000
  21
 136.816
  31
0.0
   0
LINE
   8
LEVEL001
   6
CONTINUOUS
  62
3
  10
 286.091
  20
 117.994
  30
0.0
  11
 280.000
  21
 118.185
  31
0.0
   0
LINE
   8
LEVEL001
   6
CONTINUOUS
  62
7
  10
 291.000
  20
 138.000
  30
0.0
  11
 302.000
  21
 138.000
  31
0.0
   0
LINE
   8
LEVEL001
   6
CONTINUOUS
  62
7
  10
 302.000
  20
 138.000
  30
0.0
  11
 302.000
  21
 139.500
  31
0.0
   0
LINE
   8
LEVEL001
   6
CONTINUOUS
  62
7
  10
 302.000
  20
 139.500
  30
0.0
  11
 309.200
  21
 139.500
  31
0.0
   0
LINE
   8
LEVEL001
   6
CONTINUOUS
  62
7
  10
 291.000
  20
 117.000
  30
0.0
  11
 302.000
  21
 117.000
  31
0.0
   0
LINE
   8
LEVEL001
   6
CONTINUOUS
  62
7
  10
 302.000
  20
 117.000
  30
0.0
  11
 302.000
  21
 115.500
  31
0.0
   0
LINE
   8
LEVEL001
   6
CONTINUOUS
  62
7
  10
 302.000
  20
 115.500
  30
0.0
  11
 309.200
  21
 115.500
  31
0.0
   0
LINE
   8
LEVEL001
   6
CONTINUOUS
  62
7
  10
 317.200
  20
 109.000
  30
0.0
  11
 317.200
  21
 146.000
  31
0.0
   0
LINE
   8
LEVEL001
   6
CONTINUOUS
  62
7
  10
 317.200
  20
 146.000
  30
0.0
  11
 327.200
  21
 146.000
  31
0.0
   0
LINE
   8
LEVEL001
   6
CONTINUOUS
  62
7
  10
 327.200
  20
 146.000
  30
0.0
  11
 327.200
  21
 109.000
  31
0.0
   0
LINE
   8
LEVEL001
   6
CONTINUOUS
  62
7
  10
 327.200
  20
 109.000
  30
0.0
  11
 317.200
  21
 109.000
  31
0.0
   0
LINE
   8
LEVEL001
   6
DASHDOT
  62
1
  10
 334.200
  20
 144.500
  30
0.0
  11
 334.200
  21
 145.500
  31
0.0
   0
LINE
   8
LEVEL001
   6
DASHDOT
  62
1
  10
 334.200
  20
 145.500
  30
0.0
  11
 342.200
  21
 145.500
  31
0.0
   0
LINE
   8
LEVEL001
   6
DASHDOT
  62
1
  10
 342.200
  20
 145.500
  30
0.0
  11
 342.200
  21
 109.500
  31
0.0
   0
LINE
   8
LEVEL001
   6
DASHDOT
  62
1
  10
 342.200
  20
 109.500
  30
0.0
  11
 334.200
  21
 109.500
  31
0.0
   0
LINE
   8
LEVEL001
   6
DASHDOT
  62
1
  10
 334.200
  20
 109.500
  30
0.0
  11
 334.200
  21
 110.500
  31
0.0
   0
LINE
   8
LEVEL001
   6
CONTINUOUS
  62
7
  10
 137.500
  20
 35.5000
  30
0.0
  11
 162.500
  21
 35.5000
  31
0.0
   0
LINE
   8
LEVEL001
   6
CONTINUOUS
  62
7
  10
 137.500
  20
 12.5000
  30
0.0
  11
 162.500
  21
 12.5000
  31
0.0
   0
LINE
   8
LEVEL001
   6
CONTINUOUS
  62
7
  10
 112.000
  20
 29.0000
  30
0.0
  11
 137.500
  21
 29.0000
  31
0.0
   0
LINE
   8
LEVEL001
   6
CONTINUOUS
  62
7
  10
 162.500
  20
 29.0000
  30
0.0
  11
 188.000
  21
 29.0000
  31
0.0
   0
LINE
   8
LEVEL001
   6
CONTINUOUS
  62
7
  10
 112.000
  20
 18.0000
  30
0.0
  11
 137.500
  21
 18.0000
  31
0.0
   0
LINE
   8
LEVEL001
   6
CONTINUOUS
  62
7
  10
 162.500
  20
 18.0000
  30
0.0
  11
 188.000
  21
 18.0000
  31
0.0
   0
LINE
   8
LEVEL001
   6
DASHDOT
  62
1
  10
 100.000
  20
 23.5000
  30
0.0
  11
 200.000
  21
 23.5000
  31
0.0
   0
ARC
   8
LEVEL001
   6
CONTINUOUS
  62
7
  10
 112.000
  20
 23.5000
  30
0.0
  40
 5.50000
  50
 90.0000
  51
 270.000
   0
ARC
   8
LEVEL001
   6
CONTINUOUS
  62
7
  10
 188.000
  20
 23.5000
  30
0.0
  40
 5.50000
  50
 270.000
  51
 90.0000
   0
LINE
   8
LEVEL001
   6
CONTINUOUS
  62
7
  10
 157.500
  20
 37.5000
  30
0.0
  11
 142.500
  21
 37.5000
  31
0.0
   0
LINE
   8
LEVEL001
   6
CONTINUOUS
  62
7
  10
 142.500
  20
 37.5000
  30
0.0
  11
 137.500
  21
 35.5000
  31
0.0
   0
LINE
   8
LEVEL001
   6
CONTINUOUS
  62
7
  10
 137.500
  20
 35.5000
  30
0.0
  11
 137.500
  21
 12.5000
  31
0.0
   0
LINE
   8
LEVEL001
   6
CONTINUOUS
  62
7
  10
 137.500
  20
 12.5000
  30
0.0
  11
 138.500
  21
 11.5000
  31
0.0
   0
LINE
   8
LEVEL001
   6
CONTINUOUS
  62
7
  10
 138.500
  20
 11.5000
  30
0.0
  11
 161.500
  21
 11.5000
  31
0.0
   0
LINE
   8
LEVEL001
   6
CONTINUOUS
  62
7
  10
 161.500
  20
 11.5000
  30
0.0
  11
 162.500
  21
 12.5000
  31
0.0
   0
LINE
   8
LEVEL001
   6
CONTINUOUS
  62
7
  10
 162.500
  20
 12.5000
  30
0.0
  11
 162.500
  21
 35.5000
  31
0.0
   0
LINE
   8
LEVEL001
   6
CONTINUOUS
  62
7
  10
 162.500
  20
 35.5000
  30
0.0
  11
 157.500
  21
 37.5000
  31
0.0
   0
CIRCLE
   8
LEVEL001
   6
CONTINUOUS
  62
7
  10
 111.109
  20
 88.6091
  30
0.0
  40
 5.12500
   0
CIRCLE
   8
LEVEL001
   6
CONTINUOUS
  62
3
  10
 111.109
  20
 88.6091
  30
0.0
  40
 6.00000
   0
LINE
   8
LEVEL001
   6
DASHDOT
  62
1
  10
 118.823
  20
 96.3228
  30
0.0
  11
 103.396
  21
 80.8955
  31
0.0
   0
LINE
   8
LEVEL001
   6
DASHDOT
  62
1
  10
 150.000
  20
 252.500
  30
0.0
  11
 150.000
  21
 2.50000
  31
0.0
   0
CIRCLE
   8
LEVEL001
   6
CONTINUOUS
  62
7
  10
 188.891
  20
 88.6091
  30
0.0
  40
 5.12500
   0
CIRCLE
   8
LEVEL001
   6
CONTINUOUS
  62
3
  10
 188.891
  20
 88.6091
  30
0.0
  40
 6.00000
   0
LINE
   8
LEVEL001
   6
DASHDOT
  62
1
  10
 181.177
  20
 96.3228
  30
0.0
  11
 196.604
  21
 80.8955
  31
0.0
   0
CIRCLE
   8
LEVEL001
   6
CONTINUOUS
  62
7
  10
 111.109
  20
 166.391
  30
0.0
  40
 5.12500
   0
CIRCLE
   8
LEVEL001
   6
CONTINUOUS
  62
3
  10
 111.109
  20
 166.391
  30
0.0
  40
 6.00000
   0
LINE
   8
LEVEL001
   6
DASHDOT
  62
1
  10
 118.823
  20
 158.677
  30
0.0
  11
 103.396
  21
 174.104
  31
0.0
   0
CIRCLE
   8
LEVEL001
   6
CONTINUOUS
  62
7
  10
 188.891
  20
 166.391
  30
0.0
  40
 5.12500
   0
CIRCLE
   8
LEVEL001
   6
CONTINUOUS
  62
3
  10
 188.891
  20
 166.391
  30
0.0
  40
 6.00000
   0
LINE
   8
LEVEL001
   6
DASHDOT
  62
1
  10
 181.177
  20
 158.677
  30
0.0
  11
 196.604
  21
 174.104
  31
0.0
   0
LINE
   8
LEVEL001
   6
DASHDOT
  62
1
  10
 350.000
  20
 127.500
  30
0.0
  11
 50.0000
  21
 127.500
  31
0.0
   0
LINE
   8
LEVEL001
   6
CONTINUOUS
  62
7
  10
 137.500
  20
 219.500
  30
0.0
  11
 162.500
  21
 219.500
  31
0.0
   0
LINE
   8
LEVEL001
   6
CONTINUOUS
  62
7
  10
 137.500
  20
 242.500
  30
0.0
  11
 162.500
  21
 242.500
  31
0.0
   0
LINE
   8
LEVEL001
   6
CONTINUOUS
  62
7
  10
 112.000
  20
 226.000
  30
0.0
  11
 137.500
  21
 226.000
  31
0.0
   0
LINE
   8
LEVEL001
   6
CONTINUOUS
  62
7
  10
 162.500
  20
 226.000
  30
0.0
  11
 188.000
  21
 226.000
  31
0.0
   0
LINE
   8
LEVEL001
   6
CONTINUOUS
  62
7
  10
 112.000
  20
 237.000
  30
0.0
  11
 137.500
  21
 237.000
  31
0.0
   0
LINE
   8
LEVEL001
   6
CONTINUOUS
  62
7
  10
 162.500
  20
 237.000
  30
0.0
  11
 188.000
  21
 237.000
  31
0.0
   0
LINE
   8
LEVEL001
   6
DASHDOT
  62
1
  10
 100.000
  20
 231.500
  30
0.0
  11
 200.000
  21
 231.500
  31
0.0
   0
ARC
   8
LEVEL001
   6
CONTINUOUS
  62
7
  10
 112.000
  20
 231.500
  30
0.0
  40
 5.50000
  50
 90.0000
  51
 270.000
   0
ARC
   8
LEVEL001
   6
CONTINUOUS
  62
7
  10
 188.000
  20
 231.500
  30
0.0
  40
 5.50000
  50
 270.000
  51
 90.0000
   0
LINE
   8
LEVEL001
   6
CONTINUOUS
  62
7
  10
 157.500
  20
 217.500
  30
0.0
  11
 142.500
  21
 217.500
  31
0.0
   0
LINE
   8
LEVEL001
   6
CONTINUOUS
  62
7
  10
 142.500
  20
 217.500
  30
0.0
  11
 137.500
  21
 219.500
  31
0.0
   0
LINE
   8
LEVEL001
   6
CONTINUOUS
  62
7
  10
 137.500
  20
 219.500
  30
0.0
  11
 137.500
  21
 242.500
  31
0.0
   0
LINE
   8
LEVEL001
   6
CONTINUOUS
  62
7
  10
 137.500
  20
 242.500
  30
0.0
  11
 138.500
  21
 243.500
  31
0.0
   0
LINE
   8
LEVEL001
   6
CONTINUOUS
  62
7
  10
 138.500
  20
 243.500
  30
0.0
  11
 161.500
  21
 243.500
  31
0.0
   0
LINE
   8
LEVEL001
   6
CONTINUOUS
  62
7
  10
 161.500
  20
 243.500
  30
0.0
  11
 162.500
  21
 242.500
  31
0.0
   0
LINE
   8
LEVEL001
   6
CONTINUOUS
  62
7
  10
 162.500
  20
 242.500
  30
0.0
  11
 162.500
  21
 219.500
  31
0.0
   0
LINE
   8
LEVEL001
   6
CONTINUOUS
  62
7
  10
 162.500
  20
 219.500
  30
0.0
  11
 157.500
  21
 217.500
  31
0.0
   0
TEXT
   8
LEVEL003
  62
3
  10
 247.500
  20
 307.500
  30
0.0
  40
 6.00000
   1
４－Ｍ１２×１８Ｌ
   7
STANDARD
   0
LINE
   8
LEVEL003
   6
CONTINUOUS
  62
3
  10
 205.000
  20
 322.500
  30
0.0
  11
 225.000
  21
 307.500
  31
0.0
   0
LINE
   8
LEVEL003
   6
CONTINUOUS
  62
3
  10
 205.000
  20
 322.500
  30
0.0
  11
 208.124
  21
 319.165
  31
0.0
   0
LINE
   8
LEVEL003
   6
CONTINUOUS
  62
3
  10
 205.000
  20
 322.500
  30
0.0
  11
 209.076
  21
 320.435
  31
0.0
   0
LINE
   8
LEVEL001
   6
CONTINUOUS
  62
7
  10
 250.000
  20
 397.143
  30
0.0
  11
 240.000
  21
 396.831
  31
0.0
   0
LINE
   8
LEVEL001
   6
CONTINUOUS
  62
7
  10
 250.000
  20
 379.856
  30
0.0
  11
 240.000
  21
 380.169
  31
0.0
   0
LINE
   8
LEVEL001
   6
DASHDOT
  62
1
  10
 345.000
  20
 388.500
  30
0.0
  11
 232.500
  21
 388.500
  31
0.0
   0
LINE
   8
LEVEL001
   6
CONTINUOUS
  62
3
  10
 246.384
  20
 396.174
  30
0.0
  11
 240.000
  21
 395.975
  31
0.0
   0
LINE
   8
LEVEL001
   6
CONTINUOUS
  62
3
  10
 246.384
  20
 380.825
  30
0.0
  11
 240.000
  21
 381.025
  31
0.0
   0
CIRCLE
   8
LEVEL003
   6
CONTINUOUS
  62
7
  10
 302.218
  20
 34.7707
  30
0.0
  40
 3.00000
   0
LINE
   8
LEVEL003
   6
CONTINUOUS
  62
7
  10
 308.106
  20
 37.7707
  30
0.0
  11
 304.297
  21
 31.1707
  31
0.0
   0
LINE
   8
LEVEL003
   6
CONTINUOUS
  62
7
  10
 304.297
  20
 31.1707
  30
0.0
  11
 296.676
  21
 31.1707
  31
0.0
   0
LINE
   8
LEVEL003
   6
CONTINUOUS
  62
7
  10
 295.809
  20
 29.6707
  30
0.0
  11
 309.430
  21
 29.6707
  31
0.0
   0
LINE
   8
LEVEL003
   6
CONTINUOUS
  62
7
  10
 309.430
  20
 29.6707
  30
0.0
  11
 314.106
  21
 37.7707
  31
0.0
   0
LINE
   8
LEVEL003
   6
CONTINUOUS
  62
7
  10
 314.106
  20
 37.7707
  30
0.0
  11
 308.106
  21
 37.7707
  31
0.0
   0
LINE
   8
LEVEL003
   6
CONTINUOUS
  62
7
  10
 296.676
  20
 31.1707
  30
0.0
  11
 295.809
  21
 29.6707
  31
0.0
   0
TEXT
   8
LEVEL003
  62
7
  10
 314.191
  20
 27.7200
  30
0.0
  40
 10.0000
   1
ＯＳＡＫＡ ＪＡＣＫ
   7
STANDARD
   0
LINE
   8
LEVEL004
   6
DOT
  62
7
  10
 210.125
  20
 323.375
  30
0.0
  11
 199.875
  21
 323.375
  31
0.0
   0
LINE
   8
LEVEL004
   6
DOT
  62
7
  10
 199.875
  20
 337.500
  30
0.0
  11
 199.875
  21
 323.375
  31
0.0
   0
LINE
   8
LEVEL004
   6
DOT
  62
7
  10
 199.875
  20
 323.375
  30
0.0
  11
 199.000
  21
 322.500
  31
0.0
   0
LINE
   8
LEVEL004
   6
DOT
  62
3
  10
 199.000
  20
 337.500
  30
0.0
  11
 199.000
  21
 322.500
  31
0.0
   0
LINE
   8
LEVEL004
   6
DOT
  62
7
  10
 211.000
  20
 322.500
  30
0.0
  11
 210.125
  21
 323.375
  31
0.0
   0
LINE
   8
LEVEL004
   6
DOT
  62
7
  10
 210.125
  20
 323.375
  30
0.0
  11
 210.125
  21
 337.500
  31
0.0
   0
LINE
   8
LEVEL004
   6
DOT
  62
3
  10
 211.000
  20
 322.500
  30
0.0
  11
 211.000
  21
 337.500
  31
0.0
   0
LINE
   8
LEVEL004
   6
DASHDOT
  62
1
  10
 205.000
  20
 319.500
  30
0.0
  11
 205.000
  21
 337.500
  31
0.0
   0
LINE
   8
LEVEL004
   6
DASHDOT
  62
1
  10
 95.0000
  20
 319.500
  30
0.0
  11
 95.0000
  21
 337.500
  31
0.0
   0
LINE
   8
LEVEL001
   6
CONTINUOUS
  62
7
  10
 240.000
  20
 324.500
  30
0.0
  11
 60.0000
  21
 324.500
  31
0.0
   0
LINE
   8
LEVEL003
   6
CONTINUOUS
  62
3
  10
 225.000
  20
 307.500
  30
0.0
  11
 311.597
  21
 307.500
  31
0.0
   0
LINE
   8
LEVEL003
   6
CONTINUOUS
  62
3
  10
 255.000
  20
 352.500
  30
0.0
  11
 296.341
  21
 352.500
  31
0.0
   0
LINE
   8
LEVEL003
   6
CONTINUOUS
  62
3
  10
 300.000
  20
 352.500
  30
0.0
  11
 334.128
  21
 352.500
  31
0.0
   0
LINE
   8
LEVEL001
   6
CONTINUOUS
  62
7
  10
 237.500
  20
 871.500
  30
0.0
  11
 236.500
  21
 872.500
  31
0.0
   0
LINE
   8
LEVEL001
   6
CONTINUOUS
  62
7
  10
 237.500
  20
 871.500
  30
0.0
  11
 237.500
  21
 867.500
  31
0.0
   0
LINE
   8
LEVEL001
   6
CONTINUOUS
  62
7
  10
 238.500
  20
 867.500
  30
0.0
  11
 240.000
  21
 866.000
  31
0.0
   0
LINE
   8
LEVEL001
   6
CONTINUOUS
  62
7
  10
 240.000
  20
 866.000
  30
0.0
  11
 240.000
  21
 796.902
  31
0.0
   0
LINE
   8
LEVEL001
   6
CONTINUOUS
  62
3
  10
 238.500
  20
 802.500
  30
0.0
  11
 240.000
  21
 796.902
  31
0.0
   0
LINE
   8
LEVEL001
   6
CONTINUOUS
  62
7
  10
 195.000
  20
 886.500
  30
0.0
  11
 194.000
  21
 887.500
  31
0.0
   0
LINE
   8
LEVEL001
   6
CONTINUOUS
  62
7
  10
 195.000
  20
 886.500
  30
0.0
  11
 195.000
  21
 872.500
  31
0.0
   0
LINE
   8
LEVEL001
   6
DASHDOT
  62
1
  10
 238.500
  20
 867.500
  30
0.0
  11
 243.000
  21
 867.500
  31
0.0
   0
LINE
   8
LEVEL001
   6
DASHDOT
  62
1
  10
 243.000
  20
 867.500
  30
0.0
  11
 243.000
  21
 802.500
  31
0.0
   0
LINE
   8
LEVEL001
   6
DASHDOT
  62
1
  10
 243.000
  20
 802.500
  30
0.0
  11
 240.000
  21
 802.500
  31
0.0
   0
LINE
   8
LEVEL001
   6
CONTINUOUS
  62
7
  10
 62.5000
  20
 871.500
  30
0.0
  11
 63.5000
  21
 872.500
  31
0.0
   0
LINE
   8
LEVEL001
   6
CONTINUOUS
  62
7
  10
 62.5000
  20
 871.500
  30
0.0
  11
 62.5000
  21
 867.500
  31
0.0
   0
LINE
   8
LEVEL001
   6
CONTINUOUS
  62
7
  10
 60.0000
  20
 796.902
  30
0.0
  11
 60.0000
  21
 324.500
  31
0.0
   0
LINE
   8
LEVEL001
   6
CONTINUOUS
  62
7
  10
 61.5000
  20
 867.500
  30
0.0
  11
 60.0000
  21
 866.000
  31
0.0
   0
LINE
   8
LEVEL001
   6
CONTINUOUS
  62
7
  10
 60.0000
  20
 866.000
  30
0.0
  11
 60.0000
  21
 796.902
  31
0.0
   0
LINE
   8
LEVEL001
   6
CONTINUOUS
  62
3
  10
 61.5000
  20
 802.500
  30
0.0
  11
 60.0000
  21
 796.902
  31
0.0
   0
LINE
   8
LEVEL001
   6
CONTINUOUS
  62
7
  10
 105.000
  20
 886.500
  30
0.0
  11
 106.000
  21
 887.500
  31
0.0
   0
LINE
   8
LEVEL001
   6
CONTINUOUS
  62
7
  10
 105.000
  20
 886.500
  30
0.0
  11
 105.000
  21
 872.500
  31
0.0
   0
LINE
   8
LEVEL001
   6
DASHDOT
  62
1
  10
 61.5000
  20
 867.500
  30
0.0
  11
 57.0000
  21
 867.500
  31
0.0
   0
LINE
   8
LEVEL001
   6
DASHDOT
  62
1
  10
 57.0000
  20
 867.500
  30
0.0
  11
 57.0000
  21
 802.500
  31
0.0
   0
LINE
   8
LEVEL001
   6
DASHDOT
  62
1
  10
 57.0000
  20
 802.500
  30
0.0
  11
 60.0000
  21
 802.500
  31
0.0
   0
LINE
   8
LEVEL001
   6
CONTINUOUS
  62
7
  10
 106.000
  20
 887.500
  30
0.0
  11
 194.000
  21
 887.500
  31
0.0
   0
LINE
   8
LEVEL001
   6
DASHDOT
  62
1
  10
 150.000
  20
 892.500
  30
0.0
  11
 150.000
  21
 315.000
  31
0.0
   0
LINE
   8
LEVEL001
   6
CONTINUOUS
  62
3
  10
 250.000
  20
 791.144
  30
0.0
  11
 246.384
  21
 790.175
  31
0.0
   0
LINE
   8
LEVEL001
   6
CONTINUOUS
  62
3
  10
 250.000
  20
 773.856
  30
0.0
  11
 246.384
  21
 774.826
  31
0.0
   0
LINE
   8
LEVEL001
   6
CONTINUOUS
  62
3
  10
 246.384
  20
 790.174
  30
0.0
  11
 246.384
  21
 774.826
  31
0.0
   0
ARC
   8
LEVEL001
   6
CONTINUOUS
  62
7
  10
 267.599
  20
 798.687
  30
0.0
  40
 17.6000
  50
 180.608
  51
 203.256
   0
ARC
   8
LEVEL001
   6
CONTINUOUS
  62
7
  10
 267.599
  20
 766.313
  30
0.0
  40
 17.6000
  50
 156.744
  51
 179.392
   0
ARC
   8
LEVEL001
   6
CONTINUOUS
  62
7
  10
 280.571
  20
 782.500
  30
0.0
  40
 30.5710
  50
 162.412
  51
 197.588
   0
LINE
   8
LEVEL001
   6
CONTINUOUS
  62
7
  10
 251.429
  20
 800.975
  30
0.0
  11
 250.000
  21
 798.500
  31
0.0
   0
LINE
   8
LEVEL001
   6
CONTINUOUS
  62
7
  10
 250.000
  20
 798.500
  30
0.0
  11
 250.000
  21
 766.500
  31
0.0
   0
LINE
   8
LEVEL001
   6
CONTINUOUS
  62
7
  10
 250.000
  20
 766.500
  30
0.0
  11
 251.429
  21
 764.025
  31
0.0
   0
LINE
   8
LEVEL001
   6
CONTINUOUS
  62
7
  10
 251.429
  20
 764.025
  30
0.0
  11
 278.571
  21
 764.025
  31
0.0
   0
LINE
   8
LEVEL001
   6
CONTINUOUS
  62
7
  10
 278.571
  20
 764.025
  30
0.0
  11
 280.000
  21
 766.500
  31
0.0
   0
LINE
   8
LEVEL001
   6
CONTINUOUS
  62
7
  10
 280.000
  20
 766.500
  30
0.0
  11
 280.000
  21
 798.500
  31
0.0
   0
LINE
   8
LEVEL001
   6
CONTINUOUS
  62
7
  10
 280.000
  20
 798.500
  30
0.0
  11
 278.571
  21
 800.975
  31
0.0
   0
LINE
   8
LEVEL001
   6
CONTINUOUS
  62
7
  10
 278.571
  20
 800.975
  30
0.0
  11
 251.429
  21
 800.975
  31
0.0
   0
ARC
   8
LEVEL001
   6
CONTINUOUS
  62
7
  10
 262.401
  20
 766.313
  30
0.0
  40
 17.6000
  50
 0.608516
  51
 23.2565
   0
ARC
   8
LEVEL001
   6
CONTINUOUS
  62
7
  10
 262.401
  20
 798.687
  30
0.0
  40
 17.6000
  50
 336.744
  51
 359.391
   0
ARC
   8
LEVEL001
   6
CONTINUOUS
  62
7
  10
 249.429
  20
 782.500
  30
0.0
  40
 30.5710
  50
 342.412
  51
 17.5879
   0
LINE
   8
LEVEL001
   6
CONTINUOUS
  62
7
  10
 251.429
  20
 791.738
  30
0.0
  11
 278.571
  21
 791.738
  31
0.0
   0
LINE
   8
LEVEL001
   6
CONTINUOUS
  62
7
  10
 251.429
  20
 773.262
  30
0.0
  11
 278.571
  21
 773.262
  31
0.0
   0
LINE
   8
LEVEL001
   6
CONTINUOUS
  62
3
  10
 286.091
  20
 772.994
  30
0.0
  11
 286.091
  21
 792.006
  31
0.0
   0
LINE
   8
LEVEL001
   6
CONTINUOUS
  62
3
  10
 291.000
  20
 793.321
  30
0.0
  11
 286.091
  21
 792.006
  31
0.0
   0
LINE
   8
LEVEL001
   6
CONTINUOUS
  62
3
  10
 291.000
  20
 771.679
  30
0.0
  11
 286.091
  21
 772.994
  31
0.0
   0
LINE
   8
LEVEL001
   6
CONTINUOUS
  62
7
  10
 291.000
  20
 793.321
  30
0.0
  11
 291.000
  21
 771.679
  31
0.0
   0
LINE
   8
LEVEL001
   6
CONTINUOUS
  62
7
  10
 293.042
  20
 794.500
  30
0.0
  11
 309.200
  21
 794.500
  31
0.0
   0
LINE
   8
LEVEL001
   6
CONTINUOUS
  62
7
  10
 291.000
  20
 771.679
  30
0.0
  11
 293.042
  21
 770.500
  31
0.0
   0
LINE
   8
LEVEL001
   6
CONTINUOUS
  62
7
  10
 293.042
  20
 770.500
  30
0.0
  11
 309.200
  21
 770.500
  31
0.0
   0
LINE
   8
LEVEL001
   6
CONTINUOUS
  62
7
  10
 291.000
  20
 793.321
  30
0.0
  11
 293.042
  21
 794.500
  31
0.0
   0
ARC
   8
LEVEL001
   6
CONTINUOUS
  62
7
  10
 311.200
  20
 798.500
  30
0.0
  40
 2.00000
  50
 90.0002
  51
 180.000
   0
LINE
   8
LEVEL001
   6
CONTINUOUS
  62
7
  10
 311.200
  20
 800.500
  30
0.0
  11
 317.200
  21
 800.500
  31
0.0
   0
ARC
   8
LEVEL001
   6
CONTINUOUS
  62
7
  10
 333.200
  20
 799.500
  30
0.0
  40
 1.00000
  50
0.0
  51
 90.0004
   0
LINE
   8
LEVEL001
   6
CONTINUOUS
  62
7
  10
 327.200
  20
 800.500
  30
0.0
  11
 333.200
  21
 800.500
  31
0.0
   0
ARC
   8
LEVEL001
   6
CONTINUOUS
  62
7
  10
 311.200
  20
 766.500
  30
0.0
  40
 2.00000
  50
 180.000
  51
 270.000
   0
LINE
   8
LEVEL001
   6
CONTINUOUS
  62
7
  10
 311.200
  20
 764.500
  30
0.0
  11
 317.200
  21
 764.500
  31
0.0
   0
ARC
   8
LEVEL001
   6
CONTINUOUS
  62
7
  10
 333.200
  20
 765.500
  30
0.0
  40
 1.00000
  50
 270.000
  51
 0.430301E-3
   0
LINE
   8
LEVEL001
   6
CONTINUOUS
  62
7
  10
 327.200
  20
 764.500
  30
0.0
  11
 333.200
  21
 764.500
  31
0.0
   0
LINE
   8
LEVEL001
   6
CONTINUOUS
  62
7
  10
 309.200
  20
 766.500
  30
0.0
  11
 309.200
  21
 798.500
  31
0.0
   0
LINE
   8
LEVEL001
   6
CONTINUOUS
  62
7
  10
 334.200
  20
 799.500
  30
0.0
  11
 334.200
  21
 765.500
  31
0.0
   0
LINE
   8
LEVEL001
   6
CONTINUOUS
  62
7
  10
 293.042
  20
 794.500
  30
0.0
  11
 293.042
  21
 788.309
  31
0.0
   0
LINE
   8
LEVEL001
   6
CONTINUOUS
  62
7
  10
 293.042
  20
 776.691
  30
0.0
  11
 293.042
  21
 770.500
  31
0.0
   0
LINE
   8
LEVEL001
   6
CONTINUOUS
  62
7
  10
 293.042
  20
 776.691
  30
0.0
  11
 302.000
  21
 788.309
  31
0.0
   0
LINE
   8
LEVEL001
   6
CONTINUOUS
  62
7
  10
 293.042
  20
 788.309
  30
0.0
  11
 302.000
  21
 776.691
  31
0.0
   0
LINE
   8
LEVEL001
   6
DASHDOT
  62
1
  10
 334.200
  20
 800.500
  30
0.0
  11
 342.200
  21
 800.500
  31
0.0
   0
LINE
   8
LEVEL001
   6
DASHDOT
  62
1
  10
 334.200
  20
 764.500
  30
0.0
  11
 342.200
  21
 764.500
  31
0.0
   0
LINE
   8
LEVEL001
   6
DASHDOT
  62
1
  10
 342.200
  20
 800.500
  30
0.0
  11
 342.200
  21
 764.500
  31
0.0
   0
LINE
   8
LEVEL001
   6
DASHDOT
  62
1
  10
 334.200
  20
 799.500
  30
0.0
  11
 334.200
  21
 800.500
  31
0.0
   0
LINE
   8
LEVEL001
   6
DASHDOT
  62
1
  10
 334.200
  20
 765.500
  30
0.0
  11
 334.200
  21
 764.500
  31
0.0
   0
LINE
   8
LEVEL001
   6
CONTINUOUS
  62
3
  10
 317.200
  20
 766.000
  30
0.0
  11
 327.200
  21
 766.000
  31
0.0
   0
LINE
   8
LEVEL001
   6
CONTINUOUS
  62
3
  10
 317.200
  20
 768.000
  30
0.0
  11
 327.200
  21
 768.000
  31
0.0
   0
LINE
   8
LEVEL001
   6
CONTINUOUS
  62
3
  10
 317.200
  20
 770.000
  30
0.0
  11
 327.200
  21
 770.000
  31
0.0
   0
LINE
   8
LEVEL001
   6
CONTINUOUS
  62
3
  10
 317.200
  20
 772.000
  30
0.0
  11
 327.200
  21
 772.000
  31
0.0
   0
LINE
   8
LEVEL001
   6
CONTINUOUS
  62
3
  10
 317.200
  20
 774.000
  30
0.0
  11
 327.200
  21
 774.000
  31
0.0
   0
LINE
   8
LEVEL001
   6
CONTINUOUS
  62
3
  10
 317.200
  20
 776.000
  30
0.0
  11
 327.200
  21
 776.000
  31
0.0
   0
LINE
   8
LEVEL001
   6
CONTINUOUS
  62
3
  10
 317.200
  20
 778.000
  30
0.0
  11
 327.200
  21
 778.000
  31
0.0
   0
LINE
   8
LEVEL001
   6
CONTINUOUS
  62
3
  10
 317.200
  20
 780.000
  30
0.0
  11
 327.200
  21
 780.000
  31
0.0
   0
LINE
   8
LEVEL001
   6
CONTINUOUS
  62
3
  10
 317.200
  20
 782.000
  30
0.0
  11
 327.200
  21
 782.000
  31
0.0
   0
LINE
   8
LEVEL001
   6
CONTINUOUS
  62
3
  10
 317.200
  20
 784.000
  30
0.0
  11
 327.200
  21
 784.000
  31
0.0
   0
LINE
   8
LEVEL001
   6
CONTINUOUS
  62
3
  10
 317.200
  20
 786.000
  30
0.0
  11
 327.200
  21
 786.000
  31
0.0
   0
LINE
   8
LEVEL001
   6
CONTINUOUS
  62
3
  10
 317.200
  20
 788.000
  30
0.0
  11
 327.200
  21
 788.000
  31
0.0
   0
LINE
   8
LEVEL001
   6
CONTINUOUS
  62
3
  10
 317.200
  20
 790.000
  30
0.0
  11
 327.200
  21
 790.000
  31
0.0
   0
LINE
   8
LEVEL001
   6
CONTINUOUS
  62
3
  10
 317.200
  20
 792.000
  30
0.0
  11
 327.200
  21
 792.000
  31
0.0
   0
LINE
   8
LEVEL001
   6
CONTINUOUS
  62
3
  10
 317.200
  20
 794.000
  30
0.0
  11
 327.200
  21
 794.000
  31
0.0
   0
LINE
   8
LEVEL001
   6
CONTINUOUS
  62
3
  10
 317.200
  20
 796.000
  30
0.0
  11
 327.200
  21
 796.000
  31
0.0
   0
LINE
   8
LEVEL001
   6
CONTINUOUS
  62
3
  10
 317.200
  20
 798.000
  30
0.0
  11
 327.200
  21
 798.000
  31
0.0
   0
LINE
   8
LEVEL001
   6
CONTINUOUS
  62
3
  10
 317.200
  20
 800.000
  30
0.0
  11
 327.200
  21
 800.000
  31
0.0
   0
LINE
   8
LEVEL001
   6
CONTINUOUS
  62
7
  10
 291.000
  20
 793.321
  30
0.0
  11
 280.000
  21
 792.978
  31
0.0
   0
LINE
   8
LEVEL001
   6
CONTINUOUS
  62
7
  10
 291.000
  20
 771.679
  30
0.0
  11
 280.000
  21
 772.023
  31
0.0
   0
LINE
   8
LEVEL001
   6
CONTINUOUS
  62
3
  10
 286.091
  20
 792.006
  30
0.0
  11
 280.000
  21
 791.816
  31
0.0
   0
LINE
   8
LEVEL001
   6
CONTINUOUS
  62
3
  10
 286.091
  20
 772.994
  30
0.0
  11
 280.000
  21
 773.185
  31
0.0
   0
LINE
   8
LEVEL003
   6
CONTINUOUS
  62
3
  10
 195.500
  20
 887.500
  30
0.0
  11
 370.500
  21
 887.500
  31
0.0
   0
LINE
   8
LEVEL003
   6
CONTINUOUS
  62
3
  10
 367.500
  20
 322.500
  30
0.0
  11
 367.500
  21
 887.500
  31
0.0
   0
LINE
   8
LEVEL003
   6
CONTINUOUS
  62
3
  10
 367.500
  20
 887.500
  30
0.0
  11
 366.707
  21
 883.000
  31
0.0
   0
LINE
   8
LEVEL003
   6
CONTINUOUS
  62
3
  10
 367.500
  20
 887.500
  30
0.0
  11
 368.293
  21
 883.000
  31
0.0
   0
LINE
   8
LEVEL003
   6
CONTINUOUS
  62
3
  10
 195.500
  20
 887.500
  30
0.0
  11
 355.500
  21
 887.500
  31
0.0
   0
LINE
   8
LEVEL003
   6
CONTINUOUS
  62
3
  10
 238.000
  20
 872.500
  30
0.0
  11
 355.500
  21
 872.500
  31
0.0
   0
LINE
   8
LEVEL003
   6
CONTINUOUS
  62
3
  10
 352.500
  20
 887.500
  30
0.0
  11
 352.500
  21
 872.500
  31
0.0
   0
LINE
   8
LEVEL003
   6
CONTINUOUS
  62
3
  10
 352.500
  20
 887.500
  30
0.0
  11
 351.707
  21
 883.000
  31
0.0
   0
LINE
   8
LEVEL003
   6
CONTINUOUS
  62
3
  10
 352.500
  20
 887.500
  30
0.0
  11
 353.293
  21
 883.000
  31
0.0
   0
LINE
   8
LEVEL003
   6
CONTINUOUS
  62
3
  10
 352.500
  20
 872.500
  30
0.0
  11
 353.293
  21
 877.000
  31
0.0
   0
LINE
   8
LEVEL003
   6
CONTINUOUS
  62
3
  10
 352.500
  20
 872.500
  30
0.0
  11
 351.707
  21
 877.000
  31
0.0
   0
TEXT
   8
LEVEL003
  62
3
  10
 351.300
  20
 877.000
  30
0.0
  40
 6.00000
   1
15
  50
 90.0000
  41
 0.500000
   7
STANDARD
  72
1
  11
 351.300
  21
 880.000
  31
0.0
   0
LINE
   8
LEVEL003
   6
CONTINUOUS
  62
3
  10
 238.000
  20
 872.500
  30
0.0
  11
 355.500
  21
 872.500
  31
0.0
   0
LINE
   8
LEVEL003
   6
CONTINUOUS
  62
3
  10
 346.500
  20
 782.500
  30
0.0
  11
 355.500
  21
 782.500
  31
0.0
   0
LINE
   8
LEVEL003
   6
CONTINUOUS
  62
3
  10
 352.500
  20
 872.500
  30
0.0
  11
 352.500
  21
 782.500
  31
0.0
   0
LINE
   8
LEVEL003
   6
CONTINUOUS
  62
3
  10
 352.500
  20
 872.500
  30
0.0
  11
 351.707
  21
 868.000
  31
0.0
   0
LINE
   8
LEVEL003
   6
CONTINUOUS
  62
3
  10
 352.500
  20
 872.500
  30
0.0
  11
 353.293
  21
 868.000
  31
0.0
   0
LINE
   8
LEVEL003
   6
CONTINUOUS
  62
3
  10
 352.500
  20
 782.500
  30
0.0
  11
 353.293
  21
 787.000
  31
0.0
   0
LINE
   8
LEVEL003
   6
CONTINUOUS
  62
3
  10
 352.500
  20
 782.500
  30
0.0
  11
 351.707
  21
 787.000
  31
0.0
   0
TEXT
   8
LEVEL003
  62
3
  10
 351.300
  20
 824.500
  30
0.0
  40
 6.00000
   1
90
  50
 90.0000
  41
 0.500000
   7
STANDARD
  72
1
  11
 351.300
  21
 827.500
  31
0.0
   0
LINE
   8
LEVEL003
   6
CONTINUOUS
  62
3
  10
 238.000
  20
 872.500
  30
0.0
  11
 310.500
  21
 872.500
  31
0.0
   0
LINE
   8
LEVEL003
   6
CONTINUOUS
  62
3
  10
 244.500
  20
 802.500
  30
0.0
  11
 310.500
  21
 802.500
  31
0.0
   0
LINE
   8
LEVEL003
   6
CONTINUOUS
  62
3
  10
 307.500
  20
 872.500
  30
0.0
  11
 307.500
  21
 802.500
  31
0.0
   0
LINE
   8
LEVEL003
   6
CONTINUOUS
  62
3
  10
 307.500
  20
 872.500
  30
0.0
  11
 306.707
  21
 868.000
  31
0.0
   0
LINE
   8
LEVEL003
   6
CONTINUOUS
  62
3
  10
 307.500
  20
 872.500
  30
0.0
  11
 308.293
  21
 868.000
  31
0.0
   0
LINE
   8
LEVEL003
   6
CONTINUOUS
  62
3
  10
 307.500
  20
 802.500
  30
0.0
  11
 308.293
  21
 807.000
  31
0.0
   0
LINE
   8
LEVEL003
   6
CONTINUOUS
  62
3
  10
 307.500
  20
 802.500
  30
0.0
  11
 306.707
  21
 807.000
  31
0.0
   0
TEXT
   8
LEVEL003
  62
3
  10
 306.300
  20
 834.500
  30
0.0
  40
 6.00000
   1
70
  50
 90.0000
  41
 0.500000
   7
STANDARD
  72
1
  11
 306.300
  21
 837.500
  31
0.0
   0
LINE
   8
LEVEL003
   6
CONTINUOUS
  62
3
  10
 238.000
  20
 872.500
  30
0.0
  11
 295.500
  21
 872.500
  31
0.0
   0
LINE
   8
LEVEL003
   6
CONTINUOUS
  62
3
  10
 244.500
  20
 867.500
  30
0.0
  11
 295.500
  21
 867.500
  31
0.0
   0
LINE
   8
LEVEL003
   6
CONTINUOUS
  62
3
  10
 292.500
  20
 872.500
  30
0.0
  11
 292.500
  21
 867.500
  31
0.0
   0
LINE
   8
LEVEL003
   6
CONTINUOUS
  62
3
  10
 292.500
  20
 872.500
  30
0.0
  11
 293.293
  21
 877.000
  31
0.0
   0
LINE
   8
LEVEL003
   6
CONTINUOUS
  62
3
  10
 292.500
  20
 872.500
  30
0.0
  11
 291.707
  21
 877.000
  31
0.0
   0
LINE
   8
LEVEL003
   6
CONTINUOUS
  62
3
  10
 292.500
  20
 867.500
  30
0.0
  11
 291.707
  21
 863.000
  31
0.0
   0
LINE
   8
LEVEL003
   6
CONTINUOUS
  62
3
  10
 292.500
  20
 867.500
  30
0.0
  11
 293.293
  21
 863.000
  31
0.0
   0
LINE
   8
LEVEL003
   6
CONTINUOUS
  62
3
  10
 292.500
  20
 872.500
  30
0.0
  11
 292.500
  21
 878.125
  31
0.0
   0
LINE
   8
LEVEL003
   6
CONTINUOUS
  62
3
  10
 292.500
  20
 867.500
  30
0.0
  11
 292.500
  21
 861.875
  31
0.0
   0
TEXT
   8
LEVEL003
  62
3
  10
 291.300
  20
 868.500
  30
0.0
  40
 6.00000
   1
5
  50
 90.0000
  41
 0.500000
   7
STANDARD
  72
1
  11
 291.300
  21
 870.000
  31
0.0
   0
LINE
   8
LEVEL003
   6
CONTINUOUS
  62
3
  10
 105.000
  20
 888.000
  30
0.0
  11
 105.000
  21
 918.000
  31
0.0
   0
LINE
   8
LEVEL003
   6
CONTINUOUS
  62
3
  10
 195.000
  20
 888.000
  30
0.0
  11
 195.000
  21
 918.000
  31
0.0
   0
LINE
   8
LEVEL003
   6
CONTINUOUS
  62
3
  10
 105.000
  20
 915.000
  30
0.0
  11
 195.000
  21
 915.000
  31
0.0
   0
LINE
   8
LEVEL003
   6
CONTINUOUS
  62
3
  10
 105.000
  20
 915.000
  30
0.0
  11
 109.500
  21
 914.207
  31
0.0
   0
LINE
   8
LEVEL003
   6
CONTINUOUS
  62
3
  10
 105.000
  20
 915.000
  30
0.0
  11
 109.500
  21
 915.793
  31
0.0
   0
LINE
   8
LEVEL003
   6
CONTINUOUS
  62
3
  10
 195.000
  20
 915.000
  30
0.0
  11
 190.500
  21
 915.793
  31
0.0
   0
LINE
   8
LEVEL003
   6
CONTINUOUS
  62
3
  10
 195.000
  20
 915.000
  30
0.0
  11
 190.500
  21
 914.207
  31
0.0
   0
TEXT
   8
LEVEL003
  62
3
  10
 144.000
  20
 916.200
  30
0.0
  40
 6.00000
   1
%%c90
   7
STANDARD
  72
1
  11
 150.000
  21
 916.200
  31
0.0
   0
TEXT
   8
LEVEL003
  62
3
  10
 262.500
  20
 817.500
  30
0.0
  40
 6.00000
   1
Ｍ１８０×３
   7
STANDARD
   0
LINE
   8
LEVEL003
   6
CONTINUOUS
  62
3
  10
 240.000
  20
 832.500
  30
0.0
  11
 262.500
  21
 817.500
  31
0.0
   0
LINE
   8
LEVEL003
   6
CONTINUOUS
  62
3
  10
 240.000
  20
 832.500
  30
0.0
  11
 243.304
  21
 829.344
  31
0.0
   0
LINE
   8
LEVEL003
   6
CONTINUOUS
  62
3
  10
 240.000
  20
 832.500
  30
0.0
  11
 244.184
  21
 830.664
  31
0.0
   0
LINE
   8
LEVEL003
   6
CONTINUOUS
  62
3
  10
 180.750
  20
 872.500
  30
0.0
  11
 169.500
  21
 872.500
  31
0.0
   0
LINE
   8
LEVEL003
   6
CONTINUOUS
  62
3
  10
 172.500
  20
 872.500
  30
0.0
  11
 172.500
  21
 832.500
  31
0.0
   0
LINE
   8
LEVEL003
   6
CONTINUOUS
  62
3
  10
 172.500
  20
 872.500
  30
0.0
  11
 171.707
  21
 868.000
  31
0.0
   0
LINE
   8
LEVEL003
   6
CONTINUOUS
  62
3
  10
 172.500
  20
 872.500
  30
0.0
  11
 173.293
  21
 868.000
  31
0.0
   0
LINE
   8
LEVEL003
   6
CONTINUOUS
  62
3
  10
 172.500
  20
 832.500
  30
0.0
  11
 173.293
  21
 837.000
  31
0.0
   0
LINE
   8
LEVEL003
   6
CONTINUOUS
  62
3
  10
 172.500
  20
 832.500
  30
0.0
  11
 171.707
  21
 837.000
  31
0.0
   0
TEXT
   8
LEVEL003
  62
3
  10
 171.300
  20
 849.500
  30
0.0
  40
 6.00000
   1
40
  50
 90.0000
  41
 0.500000
   7
STANDARD
  72
1
  11
 171.300
  21
 852.500
  31
0.0
   0
LINE
   8
LEVEL003
   6
CONTINUOUS
  62
3
  10
 182.500
  20
 847.500
  30
0.0
  11
 210.000
  21
 900.000
  31
0.0
   0
LINE
   8
LEVEL003
   6
CONTINUOUS
  62
3
  10
 182.500
  20
 847.500
  30
0.0
  11
 185.291
  21
 851.118
  31
0.0
   0
LINE
   8
LEVEL003
   6
CONTINUOUS
  62
3
  10
 182.500
  20
 847.500
  30
0.0
  11
 183.885
  21
 851.854
  31
0.0
   0
TEXT
   8
LEVEL003
  62
3
  10
 210.000
  20
 900.000
  30
0.0
  40
 6.00000
   1
Ｍ６５×３
   7
STANDARD
   0
LINE
   8
LEVEL001
   6
CONTINUOUS
  62
7
  10
 291.000
  20
 785.117
  30
0.0
  11
 293.042
  21
 788.309
  31
0.0
   0
LINE
   8
LEVEL001
   6
CONTINUOUS
  62
7
  10
 293.042
  20
 788.309
  30
0.0
  11
 302.000
  21
 788.309
  31
0.0
   0
LINE
   8
LEVEL001
   6
CONTINUOUS
  62
7
  10
 302.000
  20
 788.309
  30
0.0
  11
 302.000
  21
 776.691
  31
0.0
   0
LINE
   8
LEVEL001
   6
CONTINUOUS
  62
7
  10
 302.000
  20
 776.691
  30
0.0
  11
 293.042
  21
 776.691
  31
0.0
   0
LINE
   8
LEVEL001
   6
CONTINUOUS
  62
7
  10
 293.042
  20
 776.691
  30
0.0
  11
 291.000
  21
 779.883
  31
0.0
   0
LINE
   8
LEVEL001
   6
CONTINUOUS
  62
7
  10
 317.200
  20
 764.000
  30
0.0
  11
 317.200
  21
 801.000
  31
0.0
   0
LINE
   8
LEVEL001
   6
CONTINUOUS
  62
7
  10
 317.200
  20
 801.000
  30
0.0
  11
 327.200
  21
 801.000
  31
0.0
   0
LINE
   8
LEVEL001
   6
CONTINUOUS
  62
7
  10
 327.200
  20
 801.000
  30
0.0
  11
 327.200
  21
 764.000
  31
0.0
   0
LINE
   8
LEVEL001
   6
CONTINUOUS
  62
7
  10
 327.200
  20
 764.000
  30
0.0
  11
 317.200
  21
 764.000
  31
0.0
   0
LINE
   8
LEVEL001
   6
CONTINUOUS
  62
7
  10
 236.500
  20
 872.500
  30
0.0
  11
 63.5000
  21
 872.500
  31
0.0
   0
LINE
   8
LEVEL001
   6
CONTINUOUS
  62
7
  10
 61.5000
  20
 867.500
  30
0.0
  11
 238.500
  21
 867.500
  31
0.0
   0
LINE
   8
LEVEL001
   6
CONTINUOUS
  62
7
  10
 62.5000
  20
 871.500
  30
0.0
  11
 237.500
  21
 871.500
  31
0.0
   0
LINE
   8
LEVEL001
   6
CONTINUOUS
  62
7
  10
 195.000
  20
 886.500
  30
0.0
  11
 105.000
  21
 886.500
  31
0.0
   0
LINE
   8
LEVEL001
   6
CONTINUOUS
  62
7
  10
 250.000
  20
 791.144
  30
0.0
  11
 240.000
  21
 790.831
  31
0.0
   0
LINE
   8
LEVEL001
   6
CONTINUOUS
  62
7
  10
 250.000
  20
 773.856
  30
0.0
  11
 240.000
  21
 774.169
  31
0.0
   0
LINE
   8
LEVEL001
   6
DASHDOT
  62
1
  10
 345.000
  20
 782.500
  30
0.0
  11
 232.500
  21
 782.500
  31
0.0
   0
LINE
   8
LEVEL001
   6
CONTINUOUS
  62
7
  10
 240.000
  20
 796.902
  30
0.0
  11
 240.000
  21
 324.500
  31
0.0
   0
LINE
   8
LEVEL001
   6
CONTINUOUS
  62
3
  10
 246.384
  20
 790.174
  30
0.0
  11
 240.000
  21
 789.975
  31
0.0
   0
LINE
   8
LEVEL001
   6
CONTINUOUS
  62
3
  10
 246.384
  20
 774.826
  30
0.0
  11
 240.000
  21
 775.025
  31
0.0
   0
LINE
   8
LEVEL004
   6
DOT
  62
3
  10
 117.500
  20
 872.000
  30
0.0
  11
 117.000
  21
 872.500
  31
0.0
   0
LINE
   8
LEVEL004
   6
DOT
  62
3
  10
 117.500
  20
 869.500
  30
0.0
  11
 117.500
  21
 872.000
  31
0.0
   0
LINE
   8
LEVEL004
   6
DOT
  62
3
  10
 119.000
  20
 868.000
  30
0.0
  11
 119.250
  21
 868.000
  31
0.0
   0
LINE
   8
LEVEL004
   6
DOT
  62
3
  10
 119.250
  20
 869.500
  30
0.0
  11
 117.500
  21
 869.500
  31
0.0
   0
LINE
   8
LEVEL004
   6
DOT
  62
3
  10
 119.250
  20
 853.500
  30
0.0
  11
 120.250
  21
 852.500
  31
0.0
   0
ARC
   8
LEVEL004
   6
DOT
  62
3
  10
 117.750
  20
 871.000
  30
0.0
  40
 1.50000
  50
0.0
  51
 90.0000
   0
LINE
   8
LEVEL004
   6
DOT
  62
3
  10
 119.250
  20
 871.000
  30
0.0
  11
 119.250
  21
 862.646
  31
0.0
   0
LINE
   8
LEVEL004
   6
DOT
  62
3
  10
 119.250
  20
 860.354
  30
0.0
  11
 119.250
  21
 853.500
  31
0.0
   0
LINE
   8
LEVEL004
   6
DOT
  62
3
  10
 119.250
  20
 858.700
  30
0.0
  11
 137.250
  21
 858.700
  31
0.0
   0
LINE
   8
LEVEL004
   6
DOT
  62
3
  10
 137.250
  20
 858.700
  30
0.0
  11
 138.867
  21
 861.500
  31
0.0
   0
LINE
   8
LEVEL004
   6
DOT
  62
3
  10
 138.867
  20
 861.500
  30
0.0
  11
 137.250
  21
 864.300
  31
0.0
   0
LINE
   8
LEVEL004
   6
DOT
  62
3
  10
 137.250
  20
 864.300
  30
0.0
  11
 119.250
  21
 864.300
  31
0.0
   0
LINE
   8
LEVEL004
   6
DOT
  62
3
  10
 137.250
  20
 864.300
  30
0.0
  11
 137.250
  21
 858.700
  31
0.0
   0
CIRCLE
   8
LEVEL004
   6
DOT
  62
3
  10
 121.750
  20
 861.500
  30
0.0
  40
 2.75000
   0
LINE
   8
LEVEL004
   6
DOT
  62
3
  10
 117.500
  20
 832.500
  30
0.0
  11
 119.000
  21
 827.500
  31
0.0
   0
LINE
   8
LEVEL004
   6
DOT
  62
3
  10
 117.500
  20
 869.500
  30
0.0
  11
 119.000
  21
 868.000
  31
0.0
   0
LINE
   8
LEVEL004
   6
DOT
  62
3
  10
 119.000
  20
 868.000
  30
0.0
  11
 119.000
  21
 827.500
  31
0.0
   0
LINE
   8
LEVEL004
   6
DOT
  62
3
  10
 117.500
  20
 869.500
  30
0.0
  11
 117.500
  21
 832.500
  31
0.0
   0
LINE
   8
LEVEL004
   6
DOT
  62
3
  10
 182.500
  20
 832.500
  30
0.0
  11
 181.000
  21
 827.500
  31
0.0
   0
LINE
   8
LEVEL004
   6
DOT
  62
3
  10
 181.000
  20
 827.500
  30
0.0
  11
 119.000
  21
 827.500
  31
0.0
   0
LINE
   8
LEVEL004
   6
DOT
  62
3
  10
 119.000
  20
 827.500
  30
0.0
  11
 150.000
  21
 809.602
  31
0.0
   0
LINE
   8
LEVEL004
   6
DOT
  62
3
  10
 150.000
  20
 809.602
  30
0.0
  11
 181.000
  21
 827.500
  31
0.0
   0
LINE
   8
LEVEL004
   6
DOT
  62
3
  10
 117.500
  20
 832.500
  30
0.0
  11
 182.500
  21
 832.500
  31
0.0
   0
LINE
   8
LEVEL004
   6
DOT
  62
3
  10
 182.500
  20
 872.000
  30
0.0
  11
 183.000
  21
 872.500
  31
0.0
   0
ARC
   8
LEVEL004
   6
DOT
  62
3
  10
 182.250
  20
 871.000
  30
0.0
  40
 1.50000
  50
 90.0000
  51
 180.000
   0
LINE
   8
LEVEL004
   6
DOT
  62
3
  10
 181.000
  20
 868.000
  30
0.0
  11
 180.750
  21
 868.000
  31
0.0
   0
LINE
   8
LEVEL004
   6
DOT
  62
3
  10
 182.500
  20
 869.500
  30
0.0
  11
 182.500
  21
 872.000
  31
0.0
   0
LINE
   8
LEVEL004
   6
DOT
  62
3
  10
 180.750
  20
 869.500
  30
0.0
  11
 182.500
  21
 869.500
  31
0.0
   0
LINE
   8
LEVEL004
   6
DOT
  62
3
  10
 180.750
  20
 853.500
  30
0.0
  11
 179.750
  21
 852.500
  31
0.0
   0
LINE
   8
LEVEL004
   6
DOT
  62
3
  10
 179.750
  20
 852.500
  30
0.0
  11
 120.250
  21
 852.500
  31
0.0
   0
LINE
   8
LEVEL004
   6
DOT
  62
3
  10
 180.750
  20
 871.000
  30
0.0
  11
 180.750
  21
 853.500
  31
0.0
   0
LINE
   8
LEVEL004
   6
DOT
  62
3
  10
 182.500
  20
 869.500
  30
0.0
  11
 181.000
  21
 868.000
  31
0.0
   0
LINE
   8
LEVEL004
   6
DOT
  62
3
  10
 181.000
  20
 868.000
  30
0.0
  11
 181.000
  21
 827.500
  31
0.0
   0
LINE
   8
LEVEL004
   6
DOT
  62
3
  10
 182.500
  20
 869.500
  30
0.0
  11
 182.500
  21
 832.500
  31
0.0
   0
ARC
   8
LEVEL004
   6
DOT
  62
3
  10
 135.000
  20
 887.500
  30
0.0
  40
 1.00001
  50
 180.000
  51
0.0
   0
ARC
   8
LEVEL004
   6
DOT
  62
3
  10
 120.000
  20
 887.500
  30
0.0
  40
 1.00001
  50
 180.000
  51
0.0
   0
ARC
   8
LEVEL004
   6
DOT
  62
3
  10
 165.000
  20
 887.500
  30
0.0
  40
 1.00001
  50
 180.000
  51
0.0
   0
ARC
   8
LEVEL004
   6
DOT
  62
3
  10
 180.000
  20
 887.500
  30
0.0
  40
 1.00001
  50
 180.000
  51
0.0
   0
LINE
   8
LEVEL004
   6
DOT
  62
3
  10
 82.5000
  20
 819.500
  30
0.0
  11
 82.5000
  21
 362.500
  31
0.0
   0
LINE
   8
LEVEL004
   6
DOT
  62
3
  10
 100.000
  20
 740.500
  30
0.0
  11
 100.000
  21
 869.500
  31
0.0
   0
LINE
   8
LEVEL004
   6
DOT
  62
3
  10
 217.500
  20
 819.500
  30
0.0
  11
 217.500
  21
 362.500
  31
0.0
   0
LINE
   8
LEVEL004
   6
DOT
  62
3
  10
 200.000
  20
 740.500
  30
0.0
  11
 200.000
  21
 869.500
  31
0.0
   0
LINE
   8
LEVEL004
   6
DASHDOT
  62
1
  10
 123.637
  20
 859.500
  30
0.0
  11
 124.140
  21
 863.500
  31
0.0
   0
LINE
   8
LEVEL004
   6
DASHDOT
  62
1
  10
 124.140
  20
 863.500
  30
0.0
  11
 124.643
  21
 859.500
  31
0.0
   0
LINE
   8
LEVEL004
   6
DASHDOT
  62
1
  10
 124.643
  20
 859.500
  30
0.0
  11
 125.145
  21
 863.500
  31
0.0
   0
LINE
   8
LEVEL004
   6
DASHDOT
  62
1
  10
 125.145
  20
 863.500
  30
0.0
  11
 125.648
  21
 859.500
  31
0.0
   0
LINE
   8
LEVEL004
   6
DASHDOT
  62
1
  10
 125.648
  20
 859.500
  30
0.0
  11
 126.151
  21
 863.500
  31
0.0
   0
LINE
   8
LEVEL004
   6
DASHDOT
  62
1
  10
 126.151
  20
 863.500
  30
0.0
  11
 126.653
  21
 859.500
  31
0.0
   0
LINE
   8
LEVEL004
   6
DASHDOT
  62
1
  10
 126.653
  20
 859.500
  30
0.0
  11
 127.156
  21
 863.500
  31
0.0
   0
LINE
   8
LEVEL004
   6
DASHDOT
  62
1
  10
 127.156
  20
 863.500
  30
0.0
  11
 127.659
  21
 859.500
  31
0.0
   0
LINE
   8
LEVEL004
   6
DASHDOT
  62
1
  10
 127.659
  20
 859.500
  30
0.0
  11
 128.161
  21
 863.500
  31
0.0
   0
LINE
   8
LEVEL004
   6
DASHDOT
  62
1
  10
 128.161
  20
 863.500
  30
0.0
  11
 128.664
  21
 859.500
  31
0.0
   0
LINE
   8
LEVEL004
   6
DASHDOT
  62
1
  10
 128.664
  20
 859.500
  30
0.0
  11
 129.167
  21
 863.500
  31
0.0
   0
LINE
   8
LEVEL004
   6
DASHDOT
  62
1
  10
 129.167
  20
 863.500
  30
0.0
  11
 129.669
  21
 859.500
  31
0.0
   0
LINE
   8
LEVEL004
   6
DASHDOT
  62
1
  10
 129.669
  20
 859.500
  30
0.0
  11
 130.172
  21
 863.500
  31
0.0
   0
LINE
   8
LEVEL004
   6
DASHDOT
  62
1
  10
 130.172
  20
 863.500
  30
0.0
  11
 130.675
  21
 859.500
  31
0.0
   0
LINE
   8
LEVEL004
   6
DASHDOT
  62
1
  10
 130.675
  20
 859.500
  30
0.0
  11
 131.177
  21
 863.500
  31
0.0
   0
LINE
   8
LEVEL004
   6
DASHDOT
  62
1
  10
 131.177
  20
 863.500
  30
0.0
  11
 131.680
  21
 859.500
  31
0.0
   0
LINE
   8
LEVEL004
   6
DASHDOT
  62
1
  10
 131.680
  20
 859.500
  30
0.0
  11
 132.183
  21
 863.500
  31
0.0
   0
LINE
   8
LEVEL004
   6
DASHDOT
  62
1
  10
 132.183
  20
 863.500
  30
0.0
  11
 132.685
  21
 859.500
  31
0.0
   0
LINE
   8
LEVEL004
   6
DASHDOT
  62
1
  10
 132.685
  20
 859.500
  30
0.0
  11
 133.188
  21
 863.500
  31
0.0
   0
LINE
   8
LEVEL004
   6
DASHDOT
  62
1
  10
 133.188
  20
 863.500
  30
0.0
  11
 133.691
  21
 859.500
  31
0.0
   0
LINE
   8
LEVEL004
   6
DASHDOT
  62
1
  10
 133.691
  20
 859.500
  30
0.0
  11
 134.193
  21
 863.500
  31
0.0
   0
LINE
   8
LEVEL004
   6
DASHDOT
  62
1
  10
 134.193
  20
 863.500
  30
0.0
  11
 134.696
  21
 859.500
  31
0.0
   0
LINE
   8
LEVEL004
   6
DASHDOT
  62
1
  10
 134.696
  20
 859.500
  30
0.0
  11
 135.199
  21
 863.500
  31
0.0
   0
LINE
   8
LEVEL004
   6
DASHDOT
  62
1
  10
 135.199
  20
 863.500
  30
0.0
  11
 135.701
  21
 859.500
  31
0.0
   0
LINE
   8
LEVEL004
   6
DASHDOT
  62
1
  10
 135.701
  20
 859.500
  30
0.0
  11
 136.204
  21
 863.500
  31
0.0
   0
LINE
   8
LEVEL004
   6
DASHDOT
  62
1
  10
 136.204
  20
 863.500
  30
0.0
  11
 136.707
  21
 859.500
  31
0.0
   0
LINE
   8
LEVEL004
   6
DASHDOT
  62
1
  10
 136.707
  20
 859.500
  30
0.0
  11
 137.209
  21
 863.500
  31
0.0
   0
LINE
   8
LEVEL004
   6
DASHDOT
  62
1
  10
 137.209
  20
 863.500
  30
0.0
  11
 137.712
  21
 859.500
  31
0.0
   0
LINE
   8
LEVEL004
   6
DASHDOT
  62
1
  10
 114.250
  20
 861.500
  30
0.0
  11
 144.250
  21
 861.500
  31
0.0
   0
LINE
   8
LEVEL001
   6
CONTINUOUS
  62
3
  10
 238.500
  20
 867.500
  30
0.0
  11
 238.500
  21
 802.500
  31
0.0
   0
LINE
   8
LEVEL001
   6
CONTINUOUS
  62
3
  10
 61.5000
  20
 867.500
  30
0.0
  11
 61.5000
  21
 802.500
  31
0.0
   0
LINE
   8
LEVEL001
   6
CONTINUOUS
  62
7
  10
 240.000
  20
 796.902
  30
0.0
  11
 60.0000
  21
 796.902
  31
0.0
   0
LINE
   8
LEVEL001
   6
CONTINUOUS
  62
3
  10
 240.000
  20
 866.000
  30
0.0
  11
 60.0000
  21
 866.000
  31
0.0
   0
LINE
   8
LEVEL001
   6
CONTINUOUS
  62
3
  10
 60.0000
  20
 802.500
  30
0.0
  11
 240.000
  21
 802.500
  31
0.0
   0
LINE
   8
LEVEL003
   6
CONTINUOUS
  62
3
  10
 262.500
  20
 817.500
  30
0.0
  11
 304.614
  21
 817.500
  31
0.0
   0
LINE
   8
LEVEL003
   6
CONTINUOUS
  62
3
  10
 210.000
  20
 900.000
  30
0.0
  11
 245.470
  21
 900.000
  31
0.0
   0
LINE
   8
LEVEL003
   6
CONTINUOUS
  62
3
  10
 100.000
  20
 782.500
  30
0.0
  11
 200.000
  21
 782.500
  31
0.0
   0
LINE
   8
LEVEL003
   6
CONTINUOUS
  62
3
  10
 100.000
  20
 782.500
  30
0.0
  11
 104.500
  21
 783.293
  31
0.0
   0
TEXT
   8
LEVEL003
  62
3
  10
 142.500
  20
 783.700
  30
0.0
  40
 6.00000
   1
%%c100
   7
STANDARD
  72
1
  11
 150.000
  21
 783.700
  31
0.0
   0
LINE
   8
LEVEL003
   6
CONTINUOUS
  62
3
  10
 200.000
  20
 782.500
  30
0.0
  11
 195.500
  21
 783.293
  31
0.0
   0
LINE
   8
LEVEL003
   6
CONTINUOUS
  62
3
  10
 200.000
  20
 782.500
  30
0.0
  11
 195.500
  21
 781.707
  31
0.0
   0
LINE
   8
LEVEL003
   6
CONTINUOUS
  62
3
  10
 82.5000
  20
 764.025
  30
0.0
  11
 217.500
  21
 764.025
  31
0.0
   0
LINE
   8
LEVEL003
   6
CONTINUOUS
  62
3
  10
 217.500
  20
 764.025
  30
0.0
  11
 213.000
  21
 764.818
  31
0.0
   0
LINE
   8
LEVEL003
   6
CONTINUOUS
  62
3
  10
 217.500
  20
 764.025
  30
0.0
  11
 213.000
  21
 763.232
  31
0.0
   0
TEXT
   8
LEVEL003
  62
3
  10
 142.500
  20
 765.225
  30
0.0
  40
 6.00000
   1
%%c135
   7
STANDARD
  72
1
  11
 150.000
  21
 765.225
  31
0.0
   0
LINE
   8
LEVEL003
   6
CONTINUOUS
  62
3
  10
 82.5000
  20
 764.025
  30
0.0
  11
 87.0000
  21
 763.232
  31
0.0
   0
LINE
   8
LEVEL003
   6
CONTINUOUS
  62
3
  10
 82.5000
  20
 764.025
  30
0.0
  11
 87.0000
  21
 764.818
  31
0.0
   0
LINE
   8
LEVEL003
   6
CONTINUOUS
  62
3
  10
 100.000
  20
 782.500
  30
0.0
  11
 104.500
  21
 781.707
  31
0.0
   0
TEXT
   8
LEVEL003
  62
3
  10
 366.300
  20
 603.500
  30
0.0
  40
 6.00000
   1
565
  50
 90.0000
  41
 0.500000
   7
STANDARD
  72
1
  11
 366.300
  21
 608.000
  31
0.0
   0
LINE
   8
LEVEL003
   6
CONTINUOUS
  62
3
  10
 148.500
  20
 702.500
  30
0.0
  11
 19.5000
  21
 702.500
  31
0.0
   0
LINE
   8
LEVEL003
   6
CONTINUOUS
  62
3
  10
 22.5000
  20
 322.500
  30
0.0
  11
 22.5000
  21
 702.500
  31
0.0
   0
LINE
   8
LEVEL003
   6
CONTINUOUS
  62
3
  10
 22.5000
  20
 702.500
  30
0.0
  11
 21.7065
  21
 698.000
  31
0.0
   0
LINE
   8
LEVEL003
   6
CONTINUOUS
  62
3
  10
 22.5000
  20
 702.500
  30
0.0
  11
 23.2935
  21
 698.000
  31
0.0
   0
TEXT
   8
LEVEL003
  62
3
  10
 21.3000
  20
 503.500
  30
0.0
  40
 6.00000
   1
380
  50
 90.0000
  41
 0.500000
   7
STANDARD
  72
1
  11
 21.3000
  21
 508.000
  31
0.0
   0
TEXT
   8
LEVEL003
  62
7
  10
 317.102
  20
 44.6134
  30
0.0
  40
 6.00000
   1
Model : Ｅ１００Ｈ３５
   7
STANDARD
   0
CIRCLE
   8
0
   6
DASHDOT
  62
1
  10
 150.000
  20
 658.500
  30
0.0
  40
 44.0000
   0
ARC
   8
0
   6
DOT
  62
3
  10
 150.000
  20
 658.500
  30
0.0
  40
 50.5000
  50
 100.843
  51
 79.1570
   0
ARC
   8
0
   6
DOT
  62
3
  10
 150.000
  20
 658.500
  30
0.0
  40
 37.5000
  50
 104.675
  51
 75.3252
   0
LINE
   8
0
   6
DOT
  62
3
  10
 158.500
  20
 717.500
  30
0.0
  11
 159.500
  21
 718.500
  31
0.0
   0
POLYLINE
   8
0
   6
DOT
  62
3
  66
1
  10
0.0
  20
0.0
  30
0.0
  70
0
   0
VERTEX
   8
0
   6
DOT
  62
3
  10
 140.500
  20
 718.500
  30
0.0
   0
VERTEX
   8
0
   6
DOT
  62
3
  10
 140.500
  20
 686.500
  30
0.0
   0
VERTEX
   8
0
   6
DOT
  62
3
  10
 159.500
  20
 686.500
  30
0.0
   0
VERTEX
   8
0
   6
DOT
  62
3
  10
 159.500
  20
 718.500
  30
0.0
   0
VERTEX
   8
0
   6
DOT
  62
3
  10
 140.500
  20
 718.500
  30
0.0
   0
SEQEND
   0
POLYLINE
   8
0
   6
DOT
  62
3
  66
1
  10
0.0
  20
0.0
  30
0.0
  70
0
   0
VERTEX
   8
0
   6
DOT
  62
3
  10
 141.500
  20
 717.500
  30
0.0
   0
VERTEX
   8
0
   6
DOT
  62
3
  10
 141.500
  20
 687.500
  30
0.0
   0
VERTEX
   8
0
   6
DOT
  62
3
  10
 158.500
  20
 687.500
  30
0.0
   0
VERTEX
   8
0
   6
DOT
  62
3
  10
 158.500
  20
 717.500
  30
0.0
   0
VERTEX
   8
0
   6
DOT
  62
3
  10
 141.500
  20
 717.500
  30
0.0
   0
SEQEND
   0
LINE
   8
0
   6
DOT
  62
3
  10
 158.500
  20
 687.500
  30
0.0
  11
 159.500
  21
 686.500
  31
0.0
   0
ENDSEC
   0
EOF
