   0
SECTION
   2
HEADER
   9
$LIMMIN
  10
0.0
  20
0.0
   9
$LIMMAX
  10
 420.000
  20
 297.000
   9
$EXTMIN
  10
0.0
  20
0.0
   9
$EXTMAX
  10
 420.000
  20
 297.000
   9
$LTSCALE
  40
 8.40000
   0
ENDSEC
   0
SECTION
   2
TABLES
  0
TABLE
  2
LTYPE
 70
    25
  0
LTYPE
  2
CONTINUOUS
 70
    64
  3
Solid line
 72
    65
 73
     0
 40
0.0
  0
LTYPE
  2
BORDER
 70
    64
  3
__ __ . __ __ . __ __ . __ __ . __ __ . __ __ .
 72
    65
 73
     6
 40
1.75
 49
0.5
 49
-0.25
 49
0.5
 49
-0.25
 49
0.0
 49
-0.25
  0
LTYPE
  2
BORDER2
 70
    64
  3
__.__.__.__.__.__.__.__.__.__.__.__.__.__.__.__
 72
    65
 73
     6
 40
0.875
 49
0.25
 49
-0.125
 49
0.25
 49
-0.125
 49
0.0
 49
-0.125
  0
LTYPE
  2
BORDERX2
 70
    64
  3
____  ____  .  ____  ____  .  ____  ____  .  __
 72
    65
 73
     6
 40
3.5
 49
1.0
 49
-0.5
 49
1.0
 49
-0.5
 49
0.0
 49
-0.5
  0
LTYPE
  2
CENTER
 70
    64
  3
____ _ ____ _ ____ _ ____ _ ____ _ ____ _ ____ 
 72
    65
 73
     4
 40
2.0
 49
1.25
 49
-0.25
 49
0.25
 49
-0.25
  0
LTYPE
  2
CENTER2
 70
    64
  3
___ _ ___ _ ___ _ ___ _ ___ _ ___ _ ___ _ ___ _
 72
    65
 73
     4
 40
1.125
 49
0.75
 49
-0.125
 49
0.125
 49
-0.125
  0
LTYPE
  2
CENTERX2
 70
    64
  3
________  __  ________  __  ________  __  _____
 72
    65
 73
     4
 40
4.0
 49
2.5
 49
-0.5
 49
0.5
 49
-0.5
  0
LTYPE
  2
DASHDOT
 70
    64
  3
__ . __ . __ . __ . __ . __ . __ . __ . __ . __
 72
    65
 73
     4
 40
1.0
 49
0.5
 49
-0.25
 49
0.0
 49
-0.25
  0
LTYPE
  2
DASHDOT2
 70
    64
  3
_._._._._._._._._._._._._._._._._._._._._._._._
 72
    65
 73
     4
 40
0.5
 49
0.25
 49
-0.125
 49
0.0
 49
-0.125
  0
LTYPE
  2
DASHDOTX2
 70
    64
  3
____  .  ____  .  ____  .  ____  .  ____  .  __
 72
    65
 73
     4
 40
2.0
 49
1.0
 49
-0.5
 49
0.0
 49
-0.5
  0
LTYPE
  2
DASHED
 70
    64
  3
__ __ __ __ __ __ __ __ __ __ __ __ __ __ __ __
 72
    65
 73
     2
 40
0.75
 49
0.5
 49
-0.25
  0
LTYPE
  2
DASHED2
 70
    64
  3
_ _ _ _ _ _ _ _ _ _ _ _ _ _ _ _ _ _ _ _ _ _ _ _
 72
    65
 73
     2
 40
0.375
 49
0.25
 49
-0.125
  0
LTYPE
  2
DASHEDX2
 70
    64
  3
____  ____  ____  ____  ____  ____  ____  ____ 
 72
    65
 73
     2
 40
1.5
 49
1.0
 49
-0.5
  0
LTYPE
  2
DIVIDE
 70
    64
  3
____ . . ____ . . ____ . . ____ . . ____ . . __
 72
    65
 73
     6
 40
1.25
 49
0.5
 49
-0.25
 49
0.0
 49
-0.25
 49
0.0
 49
-0.25
  0
LTYPE
  2
DIVIDE2
 70
    64
  3
__..__..__..__..__..__..__..__..__..__..__..__.
 72
    65
 73
     6
 40
0.625
 49
0.25
 49
-0.125
 49
0.0
 49
-0.125
 49
0.0
 49
-0.125
  0
LTYPE
  2
DIVIDEX2
 70
    64
  3
________  .  .  ________  .  .  ________  .  . 
 72
    65
 73
     6
 40
2.5
 49
1.0
 49
-0.5
 49
0.0
 49
-0.5
 49
0.0
 49
-0.5
  0
LTYPE
  2
DOT
 70
    64
  3
. . . . . . . . . . . . . . . . . . . . . . . .
 72
    65
 73
     2
 40
0.25
 49
0.0
 49
-0.25
  0
LTYPE
  2
DOT2
 70
    64
  3
...............................................
 72
    65
 73
     2
 40
0.125
 49
0.0
 49
-0.125
  0
LTYPE
  2
DOTX2
 70
    64
  3
.  .  .  .  .  .  .  .  .  .  .  .  .  .  .  . 
 72
    65
 73
     2
 40
0.5
 49
0.0
 49
-0.5
  0
LTYPE
  2
HIDDEN
 70
    64
  3
__ __ __ __ __ __ __ __ __ __ __ __ __ __ __ __
 72
    65
 73
     2
 40
0.375
 49
0.25
 49
-0.125
  0
LTYPE
  2
HIDDEN2
 70
    64
  3
_ _ _ _ _ _ _ _ _ _ _ _ _ _ _ _ _ _ _ _ _ _ _ _
 72
    65
 73
     2
 40
0.1875
 49
0.125
 49
-0.0625
  0
LTYPE
  2
HIDDENX2
 70
    64
  3
____ ____ ____ ____ ____ ____ ____ ____ ____ __
 72
    65
 73
     2
 40
0.75
 49
0.5
 49
-0.25
  0
LTYPE
  2
PHANTOM
 70
    64
  3
______  __  __  ______  __  __  ______  __  __ 
 72
    65
 73
     6
 40
2.5
 49
1.25
 49
-0.25
 49
0.25
 49
-0.25
 49
0.25
 49
-0.25
  0
LTYPE
  2
PHANTOM2
 70
    64
  3
___ _ _ ___ _ _ ___ _ _ ___ _ _ ___ _ _ ___ _ _
 72
    65
 73
     6
 40
1.25
 49
0.625
 49
-0.125
 49
0.125
 49
-0.125
 49
0.125
 49
-0.125
  0
LTYPE
  2
PHANTOMX2
 70
    64
  3
____________    ____    ____    ____________   
 72
    65
 73
     6
 40
5.0
 49
2.5
 49
-0.5
 49
0.5
 49
-0.5
 49
0.5
 49
-0.5
  0
ENDTAB
  0
TABLE
  2
STYLE
 70
     2
  0
STYLE
  2
STANDARD
 70
0
 40
0.0
 41
1.0
 50
0.0
 71
0
 42
0.2
  3
TXT
  4
BIGFONT
  0
STYLE
  2
STANDARD1
 70
     4
 40
0.0
 41
1.0
 50
0.0
 71
     0
 42
0.2
  3
TXT
  4
BIGFONT
  0
ENDTAB
   0
TABLE
   2
LAYER
  70
4
   0
LAYER
   2
0
  70
0
  62
7
   6
CONTINUOUS
   0
LAYER
   2
LEVEL001
  70
0
  62
7
   6
CONTINUOUS
   0
LAYER
   2
LEVEL003
  70
0
  62
7
   6
CONTINUOUS
   0
LAYER
   2
LEVEL004
  70
0
  62
7
   6
CONTINUOUS
   0
ENDTAB
   0
ENDSEC
   0
SECTION
   2
ENTITIES
   0
LINE
   8
LEVEL003
   6
CONTINUOUS
  62
3
  10
 57.0000
  20
 65.0000
  30
0.0
  11
 28.0000
  21
 65.0000
  31
0.0
   0
LINE
   8
LEVEL003
   6
CONTINUOUS
  62
3
  10
 41.5000
  20
 45.0000
  30
0.0
  11
 28.0000
  21
 45.0000
  31
0.0
   0
LINE
   8
LEVEL003
   6
CONTINUOUS
  62
3
  10
 30.0000
  20
 65.0000
  30
0.0
  11
 30.0000
  21
 45.0000
  31
0.0
   0
LINE
   8
LEVEL003
   6
CONTINUOUS
  62
3
  10
 30.0000
  20
 65.0000
  30
0.0
  11
 29.4710
  21
 62.0000
  31
0.0
   0
LINE
   8
LEVEL003
   6
CONTINUOUS
  62
3
  10
 30.0000
  20
 65.0000
  30
0.0
  11
 30.5290
  21
 62.0000
  31
0.0
   0
LINE
   8
LEVEL003
   6
CONTINUOUS
  62
3
  10
 30.0000
  20
 45.0000
  30
0.0
  11
 30.5290
  21
 48.0000
  31
0.0
   0
LINE
   8
LEVEL003
   6
CONTINUOUS
  62
3
  10
 30.0000
  20
 45.0000
  30
0.0
  11
 29.4710
  21
 48.0000
  31
0.0
   0
TEXT
   8
LEVEL003
  62
3
  10
 29.2000
  20
 53.0000
  30
0.0
  40
 4.00000
   1
20
  50
 90.0000
  41
 0.500000
   7
STANDARD
  72
1
  11
 29.2000
  21
 55.0000
  31
0.0
   0
LINE
   8
LEVEL003
   6
CONTINUOUS
  62
3
  10
 57.0000
  20
 44.0000
  30
0.0
  11
 57.0000
  21
 33.0000
  31
0.0
   0
LINE
   8
LEVEL003
   6
CONTINUOUS
  62
3
  10
 93.0000
  20
 44.0000
  30
0.0
  11
 93.0000
  21
 33.0000
  31
0.0
   0
LINE
   8
LEVEL003
   6
CONTINUOUS
  62
3
  10
 57.0000
  20
 35.0000
  30
0.0
  11
 93.0000
  21
 35.0000
  31
0.0
   0
LINE
   8
LEVEL003
   6
CONTINUOUS
  62
3
  10
 57.0000
  20
 35.0000
  30
0.0
  11
 60.0000
  21
 34.4710
  31
0.0
   0
LINE
   8
LEVEL003
   6
CONTINUOUS
  62
3
  10
 57.0000
  20
 35.0000
  30
0.0
  11
 60.0000
  21
 35.5290
  31
0.0
   0
LINE
   8
LEVEL003
   6
CONTINUOUS
  62
3
  10
 93.0000
  20
 35.0000
  30
0.0
  11
 90.0000
  21
 35.5290
  31
0.0
   0
LINE
   8
LEVEL003
   6
CONTINUOUS
  62
3
  10
 93.0000
  20
 35.0000
  30
0.0
  11
 90.0000
  21
 34.4710
  31
0.0
   0
TEXT
   8
LEVEL003
  62
3
  10
 69.0000
  20
 35.8000
  30
0.0
  40
 4.00000
   1
M36×2
   7
STANDARD
  72
1
  11
 75.0000
  21
 35.8000
  31
0.0
   0
LINE
   8
LEVEL003
   6
CONTINUOUS
  62
3
  10
 41.5000
  20
 45.0000
  30
0.0
  11
 41.5000
  21
 23.0000
  31
0.0
   0
LINE
   8
LEVEL003
   6
CONTINUOUS
  62
3
  10
 108.500
  20
 45.0000
  30
0.0
  11
 108.500
  21
 23.0000
  31
0.0
   0
LINE
   8
LEVEL003
   6
CONTINUOUS
  62
3
  10
 41.5000
  20
 25.0000
  30
0.0
  11
 108.500
  21
 25.0000
  31
0.0
   0
LINE
   8
LEVEL003
   6
CONTINUOUS
  62
3
  10
 41.5000
  20
 25.0000
  30
0.0
  11
 44.5000
  21
 24.4710
  31
0.0
   0
LINE
   8
LEVEL003
   6
CONTINUOUS
  62
3
  10
 41.5000
  20
 25.0000
  30
0.0
  11
 44.5000
  21
 25.5290
  31
0.0
   0
LINE
   8
LEVEL003
   6
CONTINUOUS
  62
3
  10
 108.500
  20
 25.0000
  30
0.0
  11
 105.500
  21
 25.5290
  31
0.0
   0
LINE
   8
LEVEL003
   6
CONTINUOUS
  62
3
  10
 108.500
  20
 25.0000
  30
0.0
  11
 105.500
  21
 24.4710
  31
0.0
   0
TEXT
   8
LEVEL003
  62
3
  10
 71.0000
  20
 25.8000
  30
0.0
  40
 4.00000
   1
%%c67
   7
STANDARD
  72
1
  11
 75.0000
  21
 25.8000
  31
0.0
   0
LINE
   8
LEVEL001
   6
CONTINUOUS
  62
3
  10
 118.500
  20
 88.6435
  30
0.0
  11
 114.884
  21
 87.6745
  31
0.0
   0
LINE
   8
LEVEL001
   6
CONTINUOUS
  62
3
  10
 118.500
  20
 71.3565
  30
0.0
  11
 114.884
  21
 72.3255
  31
0.0
   0
LINE
   8
LEVEL001
   6
CONTINUOUS
  62
7
  10
 118.500
  20
 88.6435
  30
0.0
  11
 119.984
  21
 89.5000
  31
0.0
   0
LINE
   8
LEVEL001
   6
CONTINUOUS
  62
7
  10
 135.500
  20
 89.5000
  30
0.0
  11
 119.984
  21
 89.5000
  31
0.0
   0
LINE
   8
LEVEL001
   6
CONTINUOUS
  62
7
  10
 118.500
  20
 71.3565
  30
0.0
  11
 119.984
  21
 70.5000
  31
0.0
   0
LINE
   8
LEVEL001
   6
CONTINUOUS
  62
7
  10
 135.500
  20
 70.5000
  30
0.0
  11
 119.984
  21
 70.5000
  31
0.0
   0
ARC
   8
LEVEL001
   6
CONTINUOUS
  62
7
  10
 137.000
  20
 93.0000
  30
0.0
  40
 1.50000
  50
 90.0000
  51
 180.000
   0
LINE
   8
LEVEL001
   6
CONTINUOUS
  62
7
  10
 137.000
  20
 94.5000
  30
0.0
  11
 142.000
  21
 94.5000
  31
0.0
   0
ARC
   8
LEVEL001
   6
CONTINUOUS
  62
7
  10
 137.000
  20
 67.0000
  30
0.0
  40
 1.50000
  50
 180.000
  51
 270.000
   0
LINE
   8
LEVEL001
   6
CONTINUOUS
  62
7
  10
 135.500
  20
 67.0000
  30
0.0
  11
 135.500
  21
 93.0000
  31
0.0
   0
LINE
   8
LEVEL001
   6
CONTINUOUS
  62
7
  10
 137.000
  20
 65.5000
  30
0.0
  11
 142.000
  21
 65.5000
  31
0.0
   0
ARC
   8
LEVEL001
   6
CONTINUOUS
  62
7
  10
 158.000
  20
 93.0000
  30
0.0
  40
 1.50000
  50
0.0
  51
 90.0000
   0
LINE
   8
LEVEL001
   6
CONTINUOUS
  62
7
  10
 153.000
  20
 94.5000
  30
0.0
  11
 158.000
  21
 94.5000
  31
0.0
   0
ARC
   8
LEVEL001
   6
CONTINUOUS
  62
7
  10
 158.000
  20
 67.0000
  30
0.0
  40
 1.50000
  50
 270.000
  51
0.0
   0
LINE
   8
LEVEL001
   6
CONTINUOUS
  62
7
  10
 153.000
  20
 65.5000
  30
0.0
  11
 158.000
  21
 65.5000
  31
0.0
   0
LINE
   8
LEVEL001
   6
CONTINUOUS
  62
7
  10
 159.500
  20
 93.0000
  30
0.0
  11
 159.500
  21
 67.0000
  31
0.0
   0
ARC
   8
LEVEL001
   6
DASHDOT
  62
1
  10
 168.500
  20
 93.0000
  30
0.0
  40
 1.00000
  50
0.0
  51
 90.0000
   0
LINE
   8
LEVEL001
   6
DASHDOT
  62
1
  10
 160.500
  20
 94.0000
  30
0.0
  11
 168.500
  21
 94.0000
  31
0.0
   0
ARC
   8
LEVEL001
   6
DASHDOT
  62
1
  10
 168.500
  20
 67.0000
  30
0.0
  40
 1.00000
  50
 270.000
  51
0.0
   0
LINE
   8
LEVEL001
   6
DASHDOT
  62
1
  10
 160.500
  20
 66.0000
  30
0.0
  11
 168.500
  21
 66.0000
  31
0.0
   0
LINE
   8
LEVEL001
   6
DASHDOT
  62
1
  10
 169.500
  20
 93.0000
  30
0.0
  11
 169.500
  21
 67.0000
  31
0.0
   0
CIRCLE
   8
LEVEL001
   6
DASHDOT
  62
1
  10
 172.500
  20
 80.0000
  30
0.0
  40
 1.50000
   0
ARC
   8
LEVEL001
   6
DASHDOT
  62
1
  10
 160.500
  20
 67.0000
  30
0.0
  40
 1.00000
  50
 180.000
  51
 270.000
   0
ARC
   8
LEVEL001
   6
DASHDOT
  62
1
  10
 160.500
  20
 93.0000
  30
0.0
  40
 1.00000
  50
 90.0000
  51
 180.000
   0
ARC
   8
LEVEL001
   6
DASHDOT
  62
1
  10
 171.500
  20
 85.5000
  30
0.0
  40
 2.00000
  50
 180.000
  51
 270.000
   0
ARC
   8
LEVEL001
   6
DASHDOT
  62
1
  10
 171.500
  20
 74.5000
  30
0.0
  40
 2.00000
  50
 90.0000
  51
 180.000
   0
LINE
   8
LEVEL001
   6
DASHDOT
  62
1
  10
 171.500
  20
 83.5000
  30
0.0
  11
 172.000
  21
 83.5000
  31
0.0
   0
LINE
   8
LEVEL001
   6
DASHDOT
  62
1
  10
 171.500
  20
 76.5000
  30
0.0
  11
 172.000
  21
 76.5000
  31
0.0
   0
ARC
   8
LEVEL001
   6
DASHDOT
  62
1
  10
 172.000
  20
 80.0000
  30
0.0
  40
 3.50000
  50
 270.000
  51
 90.0000
   0
LINE
   8
LEVEL001
   6
CONTINUOUS
  62
7
  10
 119.984
  20
 70.5000
  30
0.0
  11
 119.984
  21
 74.1690
  31
0.0
   0
LINE
   8
LEVEL001
   6
CONTINUOUS
  62
7
  10
 119.984
  20
 85.8309
  30
0.0
  11
 119.984
  21
 89.5000
  31
0.0
   0
LINE
   8
LEVEL001
   6
CONTINUOUS
  62
7
  10
 114.500
  20
 75.9608
  30
0.0
  11
 128.500
  21
 85.8309
  31
0.0
   0
LINE
   8
LEVEL001
   6
CONTINUOUS
  62
7
  10
 114.500
  20
 84.0392
  30
0.0
  11
 128.500
  21
 74.1690
  31
0.0
   0
LINE
   8
LEVEL001
   6
CONTINUOUS
  62
3
  10
 114.884
  20
 87.6745
  30
0.0
  11
 114.884
  21
 84.0392
  31
0.0
   0
LINE
   8
LEVEL001
   6
CONTINUOUS
  62
3
  10
 114.884
  20
 75.9608
  30
0.0
  11
 114.884
  21
 72.3255
  31
0.0
   0
LINE
   8
LEVEL001
   6
CONTINUOUS
  62
7
  10
 118.500
  20
 88.6435
  30
0.0
  11
 118.500
  21
 84.2965
  31
0.0
   0
LINE
   8
LEVEL001
   6
CONTINUOUS
  62
7
  10
 118.500
  20
 75.7035
  30
0.0
  11
 118.500
  21
 71.3565
  31
0.0
   0
LINE
   8
LEVEL001
   6
CONTINUOUS
  62
3
  10
 142.000
  20
 67.0000
  30
0.0
  11
 153.000
  21
 67.0000
  31
0.0
   0
LINE
   8
LEVEL001
   6
CONTINUOUS
  62
3
  10
 142.000
  20
 69.0000
  30
0.0
  11
 153.000
  21
 69.0000
  31
0.0
   0
LINE
   8
LEVEL001
   6
CONTINUOUS
  62
3
  10
 142.000
  20
 71.0000
  30
0.0
  11
 153.000
  21
 71.0000
  31
0.0
   0
LINE
   8
LEVEL001
   6
CONTINUOUS
  62
3
  10
 142.000
  20
 73.0000
  30
0.0
  11
 153.000
  21
 73.0000
  31
0.0
   0
LINE
   8
LEVEL001
   6
CONTINUOUS
  62
3
  10
 142.000
  20
 75.0000
  30
0.0
  11
 153.000
  21
 75.0000
  31
0.0
   0
LINE
   8
LEVEL001
   6
CONTINUOUS
  62
3
  10
 142.000
  20
 77.0000
  30
0.0
  11
 153.000
  21
 77.0000
  31
0.0
   0
LINE
   8
LEVEL001
   6
CONTINUOUS
  62
3
  10
 142.000
  20
 79.0000
  30
0.0
  11
 153.000
  21
 79.0000
  31
0.0
   0
LINE
   8
LEVEL001
   6
CONTINUOUS
  62
3
  10
 142.000
  20
 81.0000
  30
0.0
  11
 153.000
  21
 81.0000
  31
0.0
   0
LINE
   8
LEVEL001
   6
CONTINUOUS
  62
3
  10
 142.000
  20
 83.0000
  30
0.0
  11
 153.000
  21
 83.0000
  31
0.0
   0
LINE
   8
LEVEL001
   6
CONTINUOUS
  62
3
  10
 142.000
  20
 85.0000
  30
0.0
  11
 153.000
  21
 85.0000
  31
0.0
   0
LINE
   8
LEVEL001
   6
CONTINUOUS
  62
3
  10
 142.000
  20
 87.0000
  30
0.0
  11
 153.000
  21
 87.0000
  31
0.0
   0
LINE
   8
LEVEL001
   6
CONTINUOUS
  62
3
  10
 142.000
  20
 89.0000
  30
0.0
  11
 153.000
  21
 89.0000
  31
0.0
   0
LINE
   8
LEVEL001
   6
CONTINUOUS
  62
3
  10
 142.000
  20
 91.0000
  30
0.0
  11
 153.000
  21
 91.0000
  31
0.0
   0
LINE
   8
LEVEL001
   6
CONTINUOUS
  62
3
  10
 142.000
  20
 93.0000
  30
0.0
  11
 153.000
  21
 93.0000
  31
0.0
   0
LINE
   8
LEVEL001
   6
CONTINUOUS
  62
7
  10
 114.500
  20
 75.9608
  30
0.0
  11
 114.500
  21
 84.0392
  31
0.0
   0
LINE
   8
LEVEL001
   6
CONTINUOUS
  62
7
  10
 114.500
  20
 84.0392
  30
0.0
  11
 118.500
  21
 84.2965
  31
0.0
   0
LINE
   8
LEVEL001
   6
CONTINUOUS
  62
7
  10
 118.500
  20
 84.2965
  30
0.0
  11
 119.984
  21
 85.8309
  31
0.0
   0
LINE
   8
LEVEL001
   6
CONTINUOUS
  62
7
  10
 119.984
  20
 85.8309
  30
0.0
  11
 128.500
  21
 85.8309
  31
0.0
   0
LINE
   8
LEVEL001
   6
CONTINUOUS
  62
7
  10
 128.500
  20
 85.8309
  30
0.0
  11
 128.500
  21
 74.1690
  31
0.0
   0
LINE
   8
LEVEL001
   6
CONTINUOUS
  62
7
  10
 128.500
  20
 74.1690
  30
0.0
  11
 119.984
  21
 74.1690
  31
0.0
   0
LINE
   8
LEVEL001
   6
CONTINUOUS
  62
7
  10
 119.984
  20
 74.1690
  30
0.0
  11
 118.500
  21
 75.7035
  31
0.0
   0
LINE
   8
LEVEL001
   6
CONTINUOUS
  62
7
  10
 118.500
  20
 75.7035
  30
0.0
  11
 114.500
  21
 75.9608
  31
0.0
   0
LINE
   8
LEVEL001
   6
CONTINUOUS
  62
7
  10
 142.000
  20
 65.0000
  30
0.0
  11
 142.000
  21
 95.0000
  31
0.0
   0
LINE
   8
LEVEL001
   6
CONTINUOUS
  62
7
  10
 142.000
  20
 95.0000
  30
0.0
  11
 153.000
  21
 95.0000
  31
0.0
   0
LINE
   8
LEVEL001
   6
CONTINUOUS
  62
7
  10
 153.000
  20
 95.0000
  30
0.0
  11
 153.000
  21
 65.0000
  31
0.0
   0
LINE
   8
LEVEL001
   6
CONTINUOUS
  62
7
  10
 153.000
  20
 65.0000
  30
0.0
  11
 142.000
  21
 65.0000
  31
0.0
   0
LINE
   8
LEVEL003
   6
CONTINUOUS
  62
3
  10
 179.500
  20
 80.0000
  30
0.0
  11
 192.000
  21
 80.0000
  31
0.0
   0
LINE
   8
LEVEL003
   6
CONTINUOUS
  62
3
  10
 108.500
  20
 45.0000
  30
0.0
  11
 192.000
  21
 45.0000
  31
0.0
   0
LINE
   8
LEVEL003
   6
CONTINUOUS
  62
3
  10
 190.000
  20
 80.0000
  30
0.0
  11
 190.000
  21
 45.0000
  31
0.0
   0
LINE
   8
LEVEL003
   6
CONTINUOUS
  62
3
  10
 190.000
  20
 80.0000
  30
0.0
  11
 189.471
  21
 77.0000
  31
0.0
   0
LINE
   8
LEVEL003
   6
CONTINUOUS
  62
3
  10
 190.000
  20
 80.0000
  30
0.0
  11
 190.529
  21
 77.0000
  31
0.0
   0
LINE
   8
LEVEL003
   6
CONTINUOUS
  62
3
  10
 190.000
  20
 45.0000
  30
0.0
  11
 190.529
  21
 48.0000
  31
0.0
   0
LINE
   8
LEVEL003
   6
CONTINUOUS
  62
3
  10
 190.000
  20
 45.0000
  30
0.0
  11
 189.471
  21
 48.0000
  31
0.0
   0
TEXT
   8
LEVEL003
  62
3
  10
 189.200
  20
 60.5000
  30
0.0
  40
 4.00000
   1
35
  50
 90.0000
  41
 0.500000
   7
STANDARD
  72
1
  11
 189.200
  21
 62.5000
  31
0.0
   0
LINE
   8
LEVEL003
   6
CONTINUOUS
  62
3
  10
 108.500
  20
 45.0000
  30
0.0
  11
 217.000
  21
 45.0000
  31
0.0
   0
LINE
   8
LEVEL003
   6
CONTINUOUS
  62
3
  10
 215.000
  20
 45.0000
  30
0.0
  11
 215.529
  21
 48.0000
  31
0.0
   0
LINE
   8
LEVEL003
   6
CONTINUOUS
  62
3
  10
 215.000
  20
 45.0000
  30
0.0
  11
 214.471
  21
 48.0000
  31
0.0
   0
LINE
   8
LEVEL001
   6
CONTINUOUS
  62
7
  10
 108.500
  20
 46.0000
  30
0.0
  11
 107.500
  21
 45.0000
  31
0.0
   0
LINE
   8
LEVEL001
   6
CONTINUOUS
  62
7
  10
 41.5000
  20
 46.0000
  30
0.0
  11
 42.5000
  21
 45.0000
  31
0.0
   0
LINE
   8
LEVEL001
   6
CONTINUOUS
  62
7
  10
 107.500
  20
 45.0000
  30
0.0
  11
 42.5000
  21
 45.0000
  31
0.0
   0
LINE
   8
LEVEL003
   6
CONTINUOUS
  62
3
  10
 111.500
  20
 71.5752
  30
0.0
  11
 130.000
  21
 55.0000
  31
0.0
   0
LINE
   8
LEVEL003
   6
CONTINUOUS
  62
3
  10
 111.500
  20
 71.5752
  30
0.0
  11
 113.381
  21
 69.1794
  31
0.0
   0
LINE
   8
LEVEL003
   6
CONTINUOUS
  62
3
  10
 111.500
  20
 71.5752
  30
0.0
  11
 114.087
  21
 69.9673
  31
0.0
   0
TEXT
   8
LEVEL003
  62
3
  10
 130.000
  20
 55.0000
  30
0.0
  40
 4.00000
   1
ＮＰＴ３／８
   7
STANDARD
   0
LINE
   8
LEVEL001
   6
CONTINUOUS
  62
7
  10
 118.500
  20
 71.3565
  30
0.0
  11
 108.500
  21
 71.6690
  31
0.0
   0
LINE
   8
LEVEL001
   6
CONTINUOUS
  62
3
  10
 114.884
  20
 72.3255
  30
0.0
  11
 108.500
  21
 72.5250
  31
0.0
   0
LINE
   8
LEVEL001
   6
CONTINUOUS
  62
3
  10
 114.884
  20
 87.6745
  30
0.0
  11
 108.500
  21
 87.4750
  31
0.0
   0
LINE
   8
LEVEL001
   6
CONTINUOUS
  62
7
  10
 118.500
  20
 88.6435
  30
0.0
  11
 108.500
  21
 88.3310
  31
0.0
   0
LINE
   8
LEVEL001
   6
DASHDOT
  62
1
  10
 178.500
  20
 80.0000
  30
0.0
  11
 100.000
  21
 80.0000
  31
0.0
   0
CIRCLE
   8
LEVEL003
   6
CONTINUOUS
  62
7
  10
 184.718
  20
 17.2707
  30
0.0
  40
 3.00000
   0
LINE
   8
LEVEL003
   6
CONTINUOUS
  62
7
  10
 190.606
  20
 20.2707
  30
0.0
  11
 186.797
  21
 13.6707
  31
0.0
   0
LINE
   8
LEVEL003
   6
CONTINUOUS
  62
7
  10
 186.797
  20
 13.6707
  30
0.0
  11
 179.176
  21
 13.6707
  31
0.0
   0
LINE
   8
LEVEL003
   6
CONTINUOUS
  62
7
  10
 178.309
  20
 12.1707
  30
0.0
  11
 191.930
  21
 12.1707
  31
0.0
   0
LINE
   8
LEVEL003
   6
CONTINUOUS
  62
7
  10
 191.930
  20
 12.1707
  30
0.0
  11
 196.606
  21
 20.2707
  31
0.0
   0
LINE
   8
LEVEL003
   6
CONTINUOUS
  62
7
  10
 196.606
  20
 20.2707
  30
0.0
  11
 190.606
  21
 20.2707
  31
0.0
   0
LINE
   8
LEVEL003
   6
CONTINUOUS
  62
7
  10
 179.176
  20
 13.6707
  30
0.0
  11
 178.309
  21
 12.1707
  31
0.0
   0
TEXT
   8
LEVEL003
  62
7
  10
 196.691
  20
 10.2200
  30
0.0
  40
 10.0000
   1
ＯＳＡＫＡ ＪＡＣＫ
   7
STANDARD
   0
TEXT
   8
LEVEL003
  62
7
  10
 199.602
  20
 27.1134
  30
0.0
  40
 6.00000
   1
Model : Ｅ１０Ｈ８
   7
STANDARD
   0
LINE
   8
LEVEL001
   6
CONTINUOUS
  62
7
  10
 41.5000
  20
 46.0000
  30
0.0
  11
 108.500
  21
 46.0000
  31
0.0
   0
ARC
   8
LEVEL004
   6
DOT
  62
3
  10
 58.0000
  20
 66.0000
  30
0.0
  40
 1.00000
  50
 180.000
  51
 270.000
   0
ARC
   8
LEVEL004
   6
DOT
  62
3
  10
 58.0000
  20
 67.0000
  30
0.0
  40
 1.00000
  50
 90.0000
  51
 180.000
   0
LINE
   8
LEVEL004
   6
DOT
  62
3
  10
 57.0000
  20
 66.0000
  30
0.0
  11
 57.0000
  21
 67.0000
  31
0.0
   0
LINE
   8
LEVEL004
   6
DOT
  62
3
  10
 57.0000
  20
 45.0000
  30
0.0
  11
 58.0000
  21
 46.0000
  31
0.0
   0
LINE
   8
LEVEL004
   6
DOT
  62
3
  10
 58.0000
  20
 46.0000
  30
0.0
  11
 58.0000
  21
 65.0000
  31
0.0
   0
LINE
   8
LEVEL004
   6
DOT
  62
3
  10
 57.0000
  20
 45.0000
  30
0.0
  11
 57.0000
  21
 66.0000
  31
0.0
   0
LINE
   8
LEVEL004
   6
DOT
  62
3
  10
 93.0000
  20
 45.0000
  30
0.0
  11
 92.0000
  21
 46.0000
  31
0.0
   0
LINE
   8
LEVEL004
   6
DOT
  62
3
  10
 92.0000
  20
 46.0000
  30
0.0
  11
 92.0000
  21
 65.0000
  31
0.0
   0
ARC
   8
LEVEL004
   6
DOT
  62
3
  10
 92.0000
  20
 66.0000
  30
0.0
  40
 1.00000
  50
 270.000
  51
0.0
   0
ARC
   8
LEVEL004
   6
DOT
  62
3
  10
 92.0000
  20
 67.0000
  30
0.0
  40
 1.00000
  50
0.0
  51
 90.0000
   0
LINE
   8
LEVEL004
   6
DOT
  62
3
  10
 93.0000
  20
 66.0000
  30
0.0
  11
 93.0000
  21
 67.0000
  31
0.0
   0
LINE
   8
LEVEL004
   6
DOT
  62
3
  10
 93.0000
  20
 45.0000
  30
0.0
  11
 93.0000
  21
 66.0000
  31
0.0
   0
LINE
   8
LEVEL004
   6
DOT
  62
3
  10
 92.0000
  20
 65.0000
  30
0.0
  11
 58.0000
  21
 65.0000
  31
0.0
   0
LINE
   8
LEVEL004
   6
DOT
  62
3
  10
 92.0000
  20
 68.0000
  30
0.0
  11
 58.0000
  21
 68.0000
  31
0.0
   0
LINE
   8
LEVEL004
   6
DOT
  62
3
  10
 92.0000
  20
 46.0000
  30
0.0
  11
 58.0000
  21
 46.0000
  31
0.0
   0
LINE
   8
LEVEL003
   6
CONTINUOUS
  62
3
  10
 130.000
  20
 55.0000
  30
0.0
  11
 158.599
  21
 55.0000
  31
0.0
   0
LINE
   8
LEVEL003
   6
CONTINUOUS
  62
3
  10
 107.500
  20
 245.000
  30
0.0
  11
 122.000
  21
 245.000
  31
0.0
   0
LINE
   8
LEVEL003
   6
CONTINUOUS
  62
3
  10
 112.500
  20
 241.000
  30
0.0
  11
 122.000
  21
 241.000
  31
0.0
   0
LINE
   8
LEVEL003
   6
CONTINUOUS
  62
3
  10
 120.000
  20
 245.000
  30
0.0
  11
 120.000
  21
 241.000
  31
0.0
   0
LINE
   8
LEVEL003
   6
CONTINUOUS
  62
3
  10
 120.000
  20
 241.000
  30
0.0
  11
 120.000
  21
 235.000
  31
0.0
   0
LINE
   8
LEVEL003
   6
CONTINUOUS
  62
3
  10
 120.000
  20
 245.000
  30
0.0
  11
 120.529
  21
 248.000
  31
0.0
   0
LINE
   8
LEVEL003
   6
CONTINUOUS
  62
3
  10
 120.000
  20
 245.000
  30
0.0
  11
 119.471
  21
 248.000
  31
0.0
   0
LINE
   8
LEVEL003
   6
CONTINUOUS
  62
3
  10
 120.000
  20
 241.000
  30
0.0
  11
 119.471
  21
 238.000
  31
0.0
   0
LINE
   8
LEVEL003
   6
CONTINUOUS
  62
3
  10
 120.000
  20
 241.000
  30
0.0
  11
 120.529
  21
 238.000
  31
0.0
   0
LINE
   8
LEVEL003
   6
CONTINUOUS
  62
3
  10
 120.000
  20
 245.000
  30
0.0
  11
 120.000
  21
 248.750
  31
0.0
   0
LINE
   8
LEVEL003
   6
CONTINUOUS
  62
3
  10
 120.000
  20
 241.000
  30
0.0
  11
 120.000
  21
 235.000
  31
0.0
   0
TEXT
   8
LEVEL003
  62
3
  10
 119.200
  20
 236.000
  30
0.0
  40
 4.00000
   1
4
  50
 90.0000
  41
 0.500000
   7
STANDARD
  72
1
  11
 119.200
  21
 237.000
  31
0.0
   0
LINE
   8
LEVEL003
   6
CONTINUOUS
  62
3
  10
 107.750
  20
 225.000
  30
0.0
  11
 135.000
  21
 220.000
  31
0.0
   0
LINE
   8
LEVEL003
   6
CONTINUOUS
  62
3
  10
 107.750
  20
 225.000
  30
0.0
  11
 110.605
  21
 223.938
  31
0.0
   0
LINE
   8
LEVEL003
   6
CONTINUOUS
  62
3
  10
 107.750
  20
 225.000
  30
0.0
  11
 110.796
  21
 224.979
  31
0.0
   0
LINE
   8
LEVEL003
   6
CONTINUOUS
  62
3
  10
 61.5000
  20
 270.000
  30
0.0
  11
 61.5000
  21
 287.000
  31
0.0
   0
LINE
   8
LEVEL003
   6
CONTINUOUS
  62
3
  10
 88.5000
  20
 270.000
  30
0.0
  11
 88.5000
  21
 287.000
  31
0.0
   0
LINE
   8
LEVEL003
   6
CONTINUOUS
  62
3
  10
 61.5000
  20
 285.000
  30
0.0
  11
 88.5000
  21
 285.000
  31
0.0
   0
LINE
   8
LEVEL003
   6
CONTINUOUS
  62
3
  10
 61.5000
  20
 285.000
  30
0.0
  11
 64.5000
  21
 284.471
  31
0.0
   0
LINE
   8
LEVEL003
   6
CONTINUOUS
  62
3
  10
 61.5000
  20
 285.000
  30
0.0
  11
 64.5000
  21
 285.529
  31
0.0
   0
LINE
   8
LEVEL003
   6
CONTINUOUS
  62
3
  10
 88.5000
  20
 285.000
  30
0.0
  11
 85.5000
  21
 285.529
  31
0.0
   0
LINE
   8
LEVEL003
   6
CONTINUOUS
  62
3
  10
 88.5000
  20
 285.000
  30
0.0
  11
 85.5000
  21
 284.471
  31
0.0
   0
TEXT
   8
LEVEL003
  62
3
  10
 69.0000
  20
 285.800
  30
0.0
  40
 4.00000
   1
M27×2
   7
STANDARD
  72
1
  11
 75.0000
  21
 285.800
  31
0.0
   0
LINE
   8
LEVEL003
   6
CONTINUOUS
  62
3
  10
 56.0000
  20
 278.000
  30
0.0
  11
 56.0000
  21
 297.000
  31
0.0
   0
LINE
   8
LEVEL003
   6
CONTINUOUS
  62
3
  10
 94.0000
  20
 278.000
  30
0.0
  11
 94.0000
  21
 297.000
  31
0.0
   0
LINE
   8
LEVEL003
   6
CONTINUOUS
  62
3
  10
 56.0000
  20
 295.000
  30
0.0
  11
 94.0000
  21
 295.000
  31
0.0
   0
LINE
   8
LEVEL003
   6
CONTINUOUS
  62
3
  10
 56.0000
  20
 295.000
  30
0.0
  11
 59.0000
  21
 294.471
  31
0.0
   0
LINE
   8
LEVEL003
   6
CONTINUOUS
  62
3
  10
 56.0000
  20
 295.000
  30
0.0
  11
 59.0000
  21
 295.529
  31
0.0
   0
LINE
   8
LEVEL003
   6
CONTINUOUS
  62
3
  10
 94.0000
  20
 295.000
  30
0.0
  11
 91.0000
  21
 295.529
  31
0.0
   0
LINE
   8
LEVEL003
   6
CONTINUOUS
  62
3
  10
 94.0000
  20
 295.000
  30
0.0
  11
 91.0000
  21
 294.471
  31
0.0
   0
TEXT
   8
LEVEL003
  62
3
  10
 71.0000
  20
 295.800
  30
0.0
  40
 4.00000
   1
%%c38
   7
STANDARD
  72
1
  11
 75.0000
  21
 295.800
  31
0.0
   0
TEXT
   8
LEVEL003
  62
3
  10
 135.000
  20
 220.000
  30
0.0
  40
 4.00000
   1
Ｍ６７×１．５
   7
STANDARD
   0
LINE
   8
LEVEL001
   6
CONTINUOUS
  62
3
  10
 118.500
  20
 186.356
  30
0.0
  11
 114.884
  21
 187.325
  31
0.0
   0
LINE
   8
LEVEL001
   6
CONTINUOUS
  62
7
  10
 118.500
  20
 186.356
  30
0.0
  11
 119.984
  21
 185.500
  31
0.0
   0
LINE
   8
LEVEL001
   6
CONTINUOUS
  62
7
  10
 135.500
  20
 185.500
  30
0.0
  11
 119.984
  21
 185.500
  31
0.0
   0
ARC
   8
LEVEL001
   6
CONTINUOUS
  62
7
  10
 137.000
  20
 182.000
  30
0.0
  40
 1.50000
  50
 180.000
  51
 270.000
   0
LINE
   8
LEVEL001
   6
CONTINUOUS
  62
7
  10
 135.500
  20
 182.000
  30
0.0
  11
 135.500
  21
 208.000
  31
0.0
   0
LINE
   8
LEVEL001
   6
CONTINUOUS
  62
7
  10
 137.000
  20
 180.500
  30
0.0
  11
 142.000
  21
 180.500
  31
0.0
   0
ARC
   8
LEVEL001
   6
CONTINUOUS
  62
7
  10
 158.000
  20
 182.000
  30
0.0
  40
 1.50000
  50
 270.000
  51
0.0
   0
LINE
   8
LEVEL001
   6
CONTINUOUS
  62
7
  10
 153.000
  20
 180.500
  30
0.0
  11
 158.000
  21
 180.500
  31
0.0
   0
LINE
   8
LEVEL001
   6
CONTINUOUS
  62
7
  10
 159.500
  20
 208.000
  30
0.0
  11
 159.500
  21
 182.000
  31
0.0
   0
ARC
   8
LEVEL001
   6
DASHDOT
  62
1
  10
 168.500
  20
 182.000
  30
0.0
  40
 1.00000
  50
 270.000
  51
0.0
   0
LINE
   8
LEVEL001
   6
DASHDOT
  62
1
  10
 160.500
  20
 181.000
  30
0.0
  11
 168.500
  21
 181.000
  31
0.0
   0
LINE
   8
LEVEL001
   6
DASHDOT
  62
1
  10
 169.500
  20
 208.000
  30
0.0
  11
 169.500
  21
 182.000
  31
0.0
   0
CIRCLE
   8
LEVEL001
   6
DASHDOT
  62
1
  10
 172.500
  20
 195.000
  30
0.0
  40
 1.50000
   0
ARC
   8
LEVEL001
   6
DASHDOT
  62
1
  10
 160.500
  20
 182.000
  30
0.0
  40
 1.00000
  50
 180.000
  51
 270.000
   0
ARC
   8
LEVEL001
   6
DASHDOT
  62
1
  10
 171.500
  20
 200.500
  30
0.0
  40
 2.00000
  50
 180.000
  51
 270.000
   0
ARC
   8
LEVEL001
   6
DASHDOT
  62
1
  10
 171.500
  20
 189.500
  30
0.0
  40
 2.00000
  50
 90.0000
  51
 180.000
   0
LINE
   8
LEVEL001
   6
DASHDOT
  62
1
  10
 171.500
  20
 198.500
  30
0.0
  11
 172.000
  21
 198.500
  31
0.0
   0
LINE
   8
LEVEL001
   6
DASHDOT
  62
1
  10
 171.500
  20
 191.500
  30
0.0
  11
 172.000
  21
 191.500
  31
0.0
   0
ARC
   8
LEVEL001
   6
DASHDOT
  62
1
  10
 172.000
  20
 195.000
  30
0.0
  40
 3.50000
  50
 270.000
  51
 90.0000
   0
LINE
   8
LEVEL001
   6
CONTINUOUS
  62
7
  10
 119.984
  20
 185.500
  30
0.0
  11
 119.984
  21
 189.169
  31
0.0
   0
LINE
   8
LEVEL001
   6
CONTINUOUS
  62
7
  10
 114.500
  20
 190.961
  30
0.0
  11
 128.500
  21
 200.831
  31
0.0
   0
LINE
   8
LEVEL001
   6
CONTINUOUS
  62
7
  10
 114.500
  20
 199.039
  30
0.0
  11
 128.500
  21
 189.169
  31
0.0
   0
LINE
   8
LEVEL001
   6
CONTINUOUS
  62
3
  10
 114.884
  20
 202.674
  30
0.0
  11
 114.884
  21
 199.039
  31
0.0
   0
LINE
   8
LEVEL001
   6
CONTINUOUS
  62
3
  10
 114.884
  20
 190.961
  30
0.0
  11
 114.884
  21
 187.325
  31
0.0
   0
LINE
   8
LEVEL001
   6
CONTINUOUS
  62
7
  10
 118.500
  20
 203.643
  30
0.0
  11
 118.500
  21
 199.297
  31
0.0
   0
LINE
   8
LEVEL001
   6
CONTINUOUS
  62
7
  10
 118.500
  20
 190.703
  30
0.0
  11
 118.500
  21
 186.356
  31
0.0
   0
LINE
   8
LEVEL001
   6
CONTINUOUS
  62
3
  10
 142.000
  20
 182.000
  30
0.0
  11
 153.000
  21
 182.000
  31
0.0
   0
LINE
   8
LEVEL001
   6
CONTINUOUS
  62
3
  10
 142.000
  20
 184.000
  30
0.0
  11
 153.000
  21
 184.000
  31
0.0
   0
LINE
   8
LEVEL001
   6
CONTINUOUS
  62
3
  10
 142.000
  20
 186.000
  30
0.0
  11
 153.000
  21
 186.000
  31
0.0
   0
LINE
   8
LEVEL001
   6
CONTINUOUS
  62
3
  10
 142.000
  20
 188.000
  30
0.0
  11
 153.000
  21
 188.000
  31
0.0
   0
LINE
   8
LEVEL001
   6
CONTINUOUS
  62
3
  10
 142.000
  20
 190.000
  30
0.0
  11
 153.000
  21
 190.000
  31
0.0
   0
LINE
   8
LEVEL001
   6
CONTINUOUS
  62
3
  10
 142.000
  20
 192.000
  30
0.0
  11
 153.000
  21
 192.000
  31
0.0
   0
LINE
   8
LEVEL001
   6
CONTINUOUS
  62
3
  10
 142.000
  20
 194.000
  30
0.0
  11
 153.000
  21
 194.000
  31
0.0
   0
LINE
   8
LEVEL001
   6
CONTINUOUS
  62
3
  10
 142.000
  20
 196.000
  30
0.0
  11
 153.000
  21
 196.000
  31
0.0
   0
LINE
   8
LEVEL001
   6
CONTINUOUS
  62
3
  10
 142.000
  20
 198.000
  30
0.0
  11
 153.000
  21
 198.000
  31
0.0
   0
LINE
   8
LEVEL001
   6
CONTINUOUS
  62
7
  10
 114.500
  20
 190.961
  30
0.0
  11
 114.500
  21
 199.039
  31
0.0
   0
LINE
   8
LEVEL001
   6
CONTINUOUS
  62
7
  10
 114.500
  20
 199.039
  30
0.0
  11
 118.500
  21
 199.297
  31
0.0
   0
LINE
   8
LEVEL001
   6
CONTINUOUS
  62
7
  10
 118.500
  20
 199.297
  30
0.0
  11
 119.984
  21
 200.831
  31
0.0
   0
LINE
   8
LEVEL001
   6
CONTINUOUS
  62
7
  10
 119.984
  20
 200.831
  30
0.0
  11
 128.500
  21
 200.831
  31
0.0
   0
LINE
   8
LEVEL001
   6
CONTINUOUS
  62
7
  10
 128.500
  20
 200.831
  30
0.0
  11
 128.500
  21
 189.169
  31
0.0
   0
LINE
   8
LEVEL001
   6
CONTINUOUS
  62
7
  10
 128.500
  20
 189.169
  30
0.0
  11
 119.984
  21
 189.169
  31
0.0
   0
LINE
   8
LEVEL001
   6
CONTINUOUS
  62
7
  10
 119.984
  20
 189.169
  30
0.0
  11
 118.500
  21
 190.703
  31
0.0
   0
LINE
   8
LEVEL001
   6
CONTINUOUS
  62
7
  10
 118.500
  20
 190.703
  30
0.0
  11
 114.500
  21
 190.961
  31
0.0
   0
LINE
   8
LEVEL001
   6
CONTINUOUS
  62
7
  10
 142.000
  20
 180.000
  30
0.0
  11
 142.000
  21
 210.000
  31
0.0
   0
LINE
   8
LEVEL001
   6
CONTINUOUS
  62
7
  10
 142.000
  20
 210.000
  30
0.0
  11
 153.000
  21
 210.000
  31
0.0
   0
LINE
   8
LEVEL001
   6
CONTINUOUS
  62
7
  10
 153.000
  20
 210.000
  30
0.0
  11
 153.000
  21
 180.000
  31
0.0
   0
LINE
   8
LEVEL001
   6
CONTINUOUS
  62
7
  10
 153.000
  20
 180.000
  30
0.0
  11
 142.000
  21
 180.000
  31
0.0
   0
LINE
   8
LEVEL001
   6
CONTINUOUS
  62
3
  10
 118.500
  20
 203.643
  30
0.0
  11
 114.884
  21
 202.674
  31
0.0
   0
LINE
   8
LEVEL001
   6
CONTINUOUS
  62
7
  10
 118.500
  20
 203.643
  30
0.0
  11
 119.984
  21
 204.500
  31
0.0
   0
LINE
   8
LEVEL001
   6
CONTINUOUS
  62
7
  10
 135.500
  20
 204.500
  30
0.0
  11
 119.984
  21
 204.500
  31
0.0
   0
LINE
   8
LEVEL001
   6
CONTINUOUS
  62
7
  10
 119.984
  20
 200.831
  30
0.0
  11
 119.984
  21
 204.500
  31
0.0
   0
LINE
   8
LEVEL001
   6
CONTINUOUS
  62
3
  10
 142.000
  20
 200.000
  30
0.0
  11
 153.000
  21
 200.000
  31
0.0
   0
LINE
   8
LEVEL001
   6
CONTINUOUS
  62
3
  10
 142.000
  20
 202.000
  30
0.0
  11
 153.000
  21
 202.000
  31
0.0
   0
LINE
   8
LEVEL001
   6
CONTINUOUS
  62
3
  10
 142.000
  20
 204.000
  30
0.0
  11
 153.000
  21
 204.000
  31
0.0
   0
LINE
   8
LEVEL001
   6
CONTINUOUS
  62
3
  10
 142.000
  20
 206.000
  30
0.0
  11
 153.000
  21
 206.000
  31
0.0
   0
ARC
   8
LEVEL001
   6
CONTINUOUS
  62
7
  10
 137.000
  20
 208.000
  30
0.0
  40
 1.50000
  50
 90.0000
  51
 180.000
   0
LINE
   8
LEVEL001
   6
CONTINUOUS
  62
7
  10
 137.000
  20
 209.500
  30
0.0
  11
 142.000
  21
 209.500
  31
0.0
   0
LINE
   8
LEVEL001
   6
CONTINUOUS
  62
7
  10
 153.000
  20
 209.500
  30
0.0
  11
 158.000
  21
 209.500
  31
0.0
   0
LINE
   8
LEVEL001
   6
CONTINUOUS
  62
3
  10
 142.000
  20
 208.000
  30
0.0
  11
 153.000
  21
 208.000
  31
0.0
   0
ARC
   8
LEVEL001
   6
CONTINUOUS
  62
7
  10
 158.000
  20
 208.000
  30
0.0
  40
 1.50000
  50
0.0
  51
 90.0000
   0
ARC
   8
LEVEL001
   6
DASHDOT
  62
1
  10
 168.500
  20
 208.000
  30
0.0
  40
 1.00000
  50
0.0
  51
 90.0000
   0
LINE
   8
LEVEL001
   6
DASHDOT
  62
1
  10
 160.500
  20
 209.000
  30
0.0
  11
 168.500
  21
 209.000
  31
0.0
   0
ARC
   8
LEVEL001
   6
DASHDOT
  62
1
  10
 160.500
  20
 208.000
  30
0.0
  40
 1.00000
  50
 90.0000
  51
 180.000
   0
LINE
   8
LEVEL003
   6
CONTINUOUS
  62
3
  10
 107.500
  20
 245.000
  30
0.0
  11
 192.000
  21
 245.000
  31
0.0
   0
LINE
   8
LEVEL003
   6
CONTINUOUS
  62
3
  10
 179.500
  20
 195.000
  30
0.0
  11
 192.000
  21
 195.000
  31
0.0
   0
LINE
   8
LEVEL003
   6
CONTINUOUS
  62
3
  10
 190.000
  20
 245.000
  30
0.0
  11
 190.000
  21
 195.000
  31
0.0
   0
LINE
   8
LEVEL003
   6
CONTINUOUS
  62
3
  10
 190.000
  20
 245.000
  30
0.0
  11
 189.471
  21
 242.000
  31
0.0
   0
LINE
   8
LEVEL003
   6
CONTINUOUS
  62
3
  10
 190.000
  20
 245.000
  30
0.0
  11
 190.529
  21
 242.000
  31
0.0
   0
LINE
   8
LEVEL003
   6
CONTINUOUS
  62
3
  10
 190.000
  20
 195.000
  30
0.0
  11
 190.529
  21
 198.000
  31
0.0
   0
LINE
   8
LEVEL003
   6
CONTINUOUS
  62
3
  10
 190.000
  20
 195.000
  30
0.0
  11
 189.471
  21
 198.000
  31
0.0
   0
TEXT
   8
LEVEL003
  62
3
  10
 189.200
  20
 218.000
  30
0.0
  40
 4.00000
   1
50
  50
 90.0000
  41
 0.500000
   7
STANDARD
  72
1
  11
 189.200
  21
 220.000
  31
0.0
   0
LINE
   8
LEVEL003
   6
CONTINUOUS
  62
3
  10
 94.0000
  20
 278.000
  30
0.0
  11
 192.000
  21
 278.000
  31
0.0
   0
LINE
   8
LEVEL003
   6
CONTINUOUS
  62
3
  10
 107.500
  20
 245.000
  30
0.0
  11
 192.000
  21
 245.000
  31
0.0
   0
LINE
   8
LEVEL003
   6
CONTINUOUS
  62
3
  10
 190.000
  20
 278.000
  30
0.0
  11
 190.000
  21
 245.000
  31
0.0
   0
LINE
   8
LEVEL003
   6
CONTINUOUS
  62
3
  10
 190.000
  20
 278.000
  30
0.0
  11
 189.471
  21
 275.000
  31
0.0
   0
LINE
   8
LEVEL003
   6
CONTINUOUS
  62
3
  10
 190.000
  20
 278.000
  30
0.0
  11
 190.529
  21
 275.000
  31
0.0
   0
LINE
   8
LEVEL003
   6
CONTINUOUS
  62
3
  10
 190.000
  20
 245.000
  30
0.0
  11
 190.529
  21
 248.000
  31
0.0
   0
LINE
   8
LEVEL003
   6
CONTINUOUS
  62
3
  10
 190.000
  20
 245.000
  30
0.0
  11
 189.471
  21
 248.000
  31
0.0
   0
TEXT
   8
LEVEL003
  62
3
  10
 189.200
  20
 259.500
  30
0.0
  40
 4.00000
   1
33
  50
 90.0000
  41
 0.500000
   7
STANDARD
  72
1
  11
 189.200
  21
 261.500
  31
0.0
   0
LINE
   8
LEVEL003
   6
CONTINUOUS
  62
3
  10
 88.5000
  20
 270.000
  30
0.0
  11
 132.000
  21
 270.000
  31
0.0
   0
LINE
   8
LEVEL003
   6
CONTINUOUS
  62
3
  10
 91.2500
  20
 250.000
  30
0.0
  11
 132.000
  21
 250.000
  31
0.0
   0
LINE
   8
LEVEL003
   6
CONTINUOUS
  62
3
  10
 130.000
  20
 270.000
  30
0.0
  11
 130.000
  21
 250.000
  31
0.0
   0
LINE
   8
LEVEL003
   6
CONTINUOUS
  62
3
  10
 130.000
  20
 270.000
  30
0.0
  11
 129.471
  21
 267.000
  31
0.0
   0
LINE
   8
LEVEL003
   6
CONTINUOUS
  62
3
  10
 130.000
  20
 270.000
  30
0.0
  11
 130.529
  21
 267.000
  31
0.0
   0
LINE
   8
LEVEL003
   6
CONTINUOUS
  62
3
  10
 130.000
  20
 250.000
  30
0.0
  11
 130.529
  21
 253.000
  31
0.0
   0
LINE
   8
LEVEL003
   6
CONTINUOUS
  62
3
  10
 130.000
  20
 250.000
  30
0.0
  11
 129.471
  21
 253.000
  31
0.0
   0
TEXT
   8
LEVEL003
  62
3
  10
 129.200
  20
 258.000
  30
0.0
  40
 4.00000
   1
20
  50
 90.0000
  41
 0.500000
   7
STANDARD
  72
1
  11
 129.200
  21
 260.000
  31
0.0
   0
LINE
   8
LEVEL003
   6
CONTINUOUS
  62
3
  10
 94.0000
  20
 278.000
  30
0.0
  11
 132.000
  21
 278.000
  31
0.0
   0
LINE
   8
LEVEL003
   6
CONTINUOUS
  62
3
  10
 88.5000
  20
 270.000
  30
0.0
  11
 132.000
  21
 270.000
  31
0.0
   0
LINE
   8
LEVEL003
   6
CONTINUOUS
  62
3
  10
 130.000
  20
 278.000
  30
0.0
  11
 130.000
  21
 270.000
  31
0.0
   0
LINE
   8
LEVEL003
   6
CONTINUOUS
  62
3
  10
 130.000
  20
 278.000
  30
0.0
  11
 129.471
  21
 275.000
  31
0.0
   0
LINE
   8
LEVEL003
   6
CONTINUOUS
  62
3
  10
 130.000
  20
 278.000
  30
0.0
  11
 130.529
  21
 275.000
  31
0.0
   0
LINE
   8
LEVEL003
   6
CONTINUOUS
  62
3
  10
 130.000
  20
 270.000
  30
0.0
  11
 130.529
  21
 273.000
  31
0.0
   0
LINE
   8
LEVEL003
   6
CONTINUOUS
  62
3
  10
 130.000
  20
 270.000
  30
0.0
  11
 129.471
  21
 273.000
  31
0.0
   0
TEXT
   8
LEVEL003
  62
3
  10
 129.200
  20
 273.000
  30
0.0
  40
 4.00000
   1
8
  50
 90.0000
  41
 0.500000
   7
STANDARD
  72
1
  11
 129.200
  21
 274.000
  31
0.0
   0
LINE
   8
LEVEL003
   6
CONTINUOUS
  62
3
  10
 94.0000
  20
 278.000
  30
0.0
  11
 217.000
  21
 278.000
  31
0.0
   0
LINE
   8
LEVEL003
   6
CONTINUOUS
  62
3
  10
 215.000
  20
 278.000
  30
0.0
  11
 215.000
  21
 45.0000
  31
0.0
   0
LINE
   8
LEVEL003
   6
CONTINUOUS
  62
3
  10
 215.000
  20
 278.000
  30
0.0
  11
 214.471
  21
 275.000
  31
0.0
   0
LINE
   8
LEVEL003
   6
CONTINUOUS
  62
3
  10
 215.000
  20
 278.000
  30
0.0
  11
 215.529
  21
 275.000
  31
0.0
   0
LINE
   8
LEVEL001
   6
CONTINUOUS
  62
3
  10
 107.750
  20
 212.000
  30
0.0
  11
 108.500
  21
 209.201
  31
0.0
   0
LINE
   8
LEVEL001
   6
CONTINUOUS
  62
7
  10
 106.500
  20
 245.000
  30
0.0
  11
 107.500
  21
 244.000
  31
0.0
   0
LINE
   8
LEVEL001
   6
CONTINUOUS
  62
7
  10
 107.500
  20
 244.000
  30
0.0
  11
 107.500
  21
 241.000
  31
0.0
   0
LINE
   8
LEVEL001
   6
CONTINUOUS
  62
7
  10
 90.2500
  20
 250.000
  30
0.0
  11
 91.0000
  21
 247.000
  31
0.0
   0
ARC
   8
LEVEL001
   6
CONTINUOUS
  62
7
  10
 88.5000
  20
 252.000
  30
0.0
  40
 1.00000
  50
 90.0000
  51
 180.000
   0
ARC
   8
LEVEL001
   6
CONTINUOUS
  62
7
  10
 88.5000
  20
 251.000
  30
0.0
  40
 1.00000
  50
 180.000
  51
 270.000
   0
LINE
   8
LEVEL001
   6
CONTINUOUS
  62
7
  10
 87.5000
  20
 252.000
  30
0.0
  11
 87.5000
  21
 251.000
  31
0.0
   0
LINE
   8
LEVEL001
   6
CONTINUOUS
  62
7
  10
 94.0000
  20
 277.000
  30
0.0
  11
 93.0000
  21
 278.000
  31
0.0
   0
LINE
   8
LEVEL001
   6
CONTINUOUS
  62
7
  10
 94.0000
  20
 254.000
  30
0.0
  11
 93.0000
  21
 253.000
  31
0.0
   0
LINE
   8
LEVEL001
   6
CONTINUOUS
  62
7
  10
 94.0000
  20
 277.000
  30
0.0
  11
 94.0000
  21
 254.000
  31
0.0
   0
LINE
   8
LEVEL001
   6
CONTINUOUS
  62
7
  10
 88.5000
  20
 253.000
  30
0.0
  11
 93.0000
  21
 253.000
  31
0.0
   0
LINE
   8
LEVEL001
   6
DASHDOT
  62
1
  10
 111.500
  20
 241.000
  30
0.0
  11
 111.500
  21
 212.000
  31
0.0
   0
LINE
   8
LEVEL001
   6
DASHDOT
  62
1
  10
 111.500
  20
 212.000
  30
0.0
  11
 108.500
  21
 212.000
  31
0.0
   0
LINE
   8
LEVEL001
   6
CONTINUOUS
  62
7
  10
 42.2500
  20
 241.000
  30
0.0
  11
 41.5000
  21
 240.250
  31
0.0
   0
LINE
   8
LEVEL001
   6
CONTINUOUS
  62
7
  10
 41.5000
  20
 240.250
  30
0.0
  11
 41.5000
  21
 209.201
  31
0.0
   0
LINE
   8
LEVEL001
   6
CONTINUOUS
  62
3
  10
 42.2500
  20
 212.000
  30
0.0
  11
 41.5000
  21
 209.201
  31
0.0
   0
LINE
   8
LEVEL001
   6
CONTINUOUS
  62
7
  10
 43.5000
  20
 245.000
  30
0.0
  11
 42.5000
  21
 244.000
  31
0.0
   0
LINE
   8
LEVEL001
   6
CONTINUOUS
  62
7
  10
 42.5000
  20
 244.000
  30
0.0
  11
 42.5000
  21
 241.000
  31
0.0
   0
LINE
   8
LEVEL001
   6
CONTINUOUS
  62
7
  10
 41.5000
  20
 209.201
  30
0.0
  11
 41.5000
  21
 46.0000
  31
0.0
   0
LINE
   8
LEVEL001
   6
CONTINUOUS
  62
7
  10
 59.7500
  20
 250.000
  30
0.0
  11
 59.0000
  21
 247.000
  31
0.0
   0
ARC
   8
LEVEL001
   6
CONTINUOUS
  62
7
  10
 61.5000
  20
 252.000
  30
0.0
  40
 1.00000
  50
0.0
  51
 90.0000
   0
ARC
   8
LEVEL001
   6
CONTINUOUS
  62
7
  10
 61.5000
  20
 251.000
  30
0.0
  40
 1.00000
  50
 270.000
  51
0.0
   0
LINE
   8
LEVEL001
   6
CONTINUOUS
  62
7
  10
 62.5000
  20
 252.000
  30
0.0
  11
 62.5000
  21
 251.000
  31
0.0
   0
LINE
   8
LEVEL001
   6
CONTINUOUS
  62
7
  10
 56.0000
  20
 277.000
  30
0.0
  11
 57.0000
  21
 278.000
  31
0.0
   0
LINE
   8
LEVEL001
   6
CONTINUOUS
  62
7
  10
 56.0000
  20
 254.000
  30
0.0
  11
 57.0000
  21
 253.000
  31
0.0
   0
LINE
   8
LEVEL001
   6
CONTINUOUS
  62
7
  10
 56.0000
  20
 277.000
  30
0.0
  11
 56.0000
  21
 254.000
  31
0.0
   0
LINE
   8
LEVEL001
   6
CONTINUOUS
  62
7
  10
 61.5000
  20
 253.000
  30
0.0
  11
 57.0000
  21
 253.000
  31
0.0
   0
LINE
   8
LEVEL001
   6
DASHDOT
  62
1
  10
 38.5000
  20
 241.000
  30
0.0
  11
 38.5000
  21
 212.000
  31
0.0
   0
LINE
   8
LEVEL001
   6
DASHDOT
  62
1
  10
 38.5000
  20
 212.000
  30
0.0
  11
 41.5000
  21
 212.000
  31
0.0
   0
LINE
   8
LEVEL001
   6
CONTINUOUS
  62
7
  10
 91.0000
  20
 247.000
  30
0.0
  11
 59.0000
  21
 247.000
  31
0.0
   0
LINE
   8
LEVEL001
   6
CONTINUOUS
  62
7
  10
 90.2500
  20
 250.000
  30
0.0
  11
 59.7500
  21
 250.000
  31
0.0
   0
LINE
   8
LEVEL001
   6
CONTINUOUS
  62
7
  10
 88.5000
  20
 253.000
  30
0.0
  11
 61.5000
  21
 253.000
  31
0.0
   0
LINE
   8
LEVEL001
   6
CONTINUOUS
  62
7
  10
 57.0000
  20
 278.000
  30
0.0
  11
 93.0000
  21
 278.000
  31
0.0
   0
LINE
   8
LEVEL003
   6
CONTINUOUS
  62
3
  10
 107.500
  20
 245.000
  30
0.0
  11
 132.000
  21
 245.000
  31
0.0
   0
LINE
   8
LEVEL003
   6
CONTINUOUS
  62
3
  10
 112.500
  20
 212.000
  30
0.0
  11
 132.000
  21
 212.000
  31
0.0
   0
LINE
   8
LEVEL003
   6
CONTINUOUS
  62
3
  10
 130.000
  20
 245.000
  30
0.0
  11
 130.000
  21
 212.000
  31
0.0
   0
LINE
   8
LEVEL003
   6
CONTINUOUS
  62
3
  10
 130.000
  20
 245.000
  30
0.0
  11
 129.471
  21
 242.000
  31
0.0
   0
LINE
   8
LEVEL003
   6
CONTINUOUS
  62
3
  10
 130.000
  20
 245.000
  30
0.0
  11
 130.529
  21
 242.000
  31
0.0
   0
LINE
   8
LEVEL003
   6
CONTINUOUS
  62
3
  10
 130.000
  20
 212.000
  30
0.0
  11
 130.529
  21
 215.000
  31
0.0
   0
LINE
   8
LEVEL003
   6
CONTINUOUS
  62
3
  10
 130.000
  20
 212.000
  30
0.0
  11
 129.471
  21
 215.000
  31
0.0
   0
TEXT
   8
LEVEL003
  62
3
  10
 129.200
  20
 226.500
  30
0.0
  40
 4.00000
   1
33
  50
 90.0000
  41
 0.500000
   7
STANDARD
  72
1
  11
 129.200
  21
 228.500
  31
0.0
   0
LINE
   8
LEVEL001
   6
CONTINUOUS
  62
7
  10
 107.750
  20
 241.000
  30
0.0
  11
 108.500
  21
 240.250
  31
0.0
   0
LINE
   8
LEVEL001
   6
CONTINUOUS
  62
7
  10
 108.500
  20
 240.250
  30
0.0
  11
 108.500
  21
 46.0000
  31
0.0
   0
LINE
   8
LEVEL001
   6
CONTINUOUS
  62
7
  10
 118.500
  20
 186.356
  30
0.0
  11
 108.500
  21
 186.669
  31
0.0
   0
LINE
   8
LEVEL001
   6
CONTINUOUS
  62
3
  10
 114.884
  20
 187.325
  30
0.0
  11
 108.500
  21
 187.525
  31
0.0
   0
LINE
   8
LEVEL001
   6
CONTINUOUS
  62
3
  10
 114.884
  20
 202.674
  30
0.0
  11
 108.500
  21
 202.475
  31
0.0
   0
LINE
   8
LEVEL001
   6
CONTINUOUS
  62
7
  10
 118.500
  20
 203.643
  30
0.0
  11
 108.500
  21
 203.331
  31
0.0
   0
LINE
   8
LEVEL001
   6
CONTINUOUS
  62
3
  10
 107.750
  20
 241.000
  30
0.0
  11
 107.750
  21
 212.000
  31
0.0
   0
LINE
   8
LEVEL001
   6
CONTINUOUS
  62
3
  10
 42.2500
  20
 241.000
  30
0.0
  11
 42.2500
  21
 212.000
  31
0.0
   0
LINE
   8
LEVEL001
   6
DASHDOT
  62
1
  10
 111.500
  20
 241.000
  30
0.0
  11
 107.750
  21
 241.000
  31
0.0
   0
LINE
   8
LEVEL001
   6
DASHDOT
  62
1
  10
 38.5000
  20
 241.000
  30
0.0
  11
 42.2500
  21
 241.000
  31
0.0
   0
LINE
   8
LEVEL001
   6
CONTINUOUS
  62
7
  10
 42.2500
  20
 241.000
  30
0.0
  11
 107.750
  21
 241.000
  31
0.0
   0
LINE
   8
LEVEL001
   6
CONTINUOUS
  62
7
  10
 108.500
  20
 209.201
  30
0.0
  11
 41.5000
  21
 209.201
  31
0.0
   0
LINE
   8
LEVEL001
   6
CONTINUOUS
  62
7
  10
 107.500
  20
 244.000
  30
0.0
  11
 42.5000
  21
 244.000
  31
0.0
   0
LINE
   8
LEVEL001
   6
CONTINUOUS
  62
7
  10
 106.500
  20
 245.000
  30
0.0
  11
 43.5000
  21
 245.000
  31
0.0
   0
LINE
   8
LEVEL001
   6
CONTINUOUS
  62
7
  10
 91.0000
  20
 247.000
  30
0.0
  11
 91.0000
  21
 245.000
  31
0.0
   0
LINE
   8
LEVEL001
   6
CONTINUOUS
  62
7
  10
 59.0000
  20
 247.000
  30
0.0
  11
 59.0000
  21
 245.000
  31
0.0
   0
LINE
   8
LEVEL001
   6
CONTINUOUS
  62
7
  10
 94.0000
  20
 254.000
  30
0.0
  11
 56.0000
  21
 254.000
  31
0.0
   0
LINE
   8
LEVEL001
   6
CONTINUOUS
  62
7
  10
 56.0000
  20
 277.000
  30
0.0
  11
 94.0000
  21
 277.000
  31
0.0
   0
LINE
   8
LEVEL001
   6
DASHDOT
  62
1
  10
 178.500
  20
 195.000
  30
0.0
  11
 100.000
  21
 195.000
  31
0.0
   0
LINE
   8
LEVEL001
   6
CONTINUOUS
  62
3
  10
 41.5000
  20
 240.250
  30
0.0
  11
 108.500
  21
 240.250
  31
0.0
   0
LINE
   8
LEVEL001
   6
CONTINUOUS
  62
3
  10
 41.5000
  20
 212.000
  30
0.0
  11
 108.500
  21
 212.000
  31
0.0
   0
ARC
   8
LEVEL004
   6
DOT
  62
3
  10
 60.0000
  20
 278.000
  30
0.0
  40
 1.50000
  50
 180.000
  51
0.0
   0
ARC
   8
LEVEL004
   6
DOT
  62
3
  10
 67.5000
  20
 278.000
  30
0.0
  40
 1.50000
  50
 180.000
  51
0.0
   0
ARC
   8
LEVEL004
   6
DOT
  62
3
  10
 82.5000
  20
 278.000
  30
0.0
  40
 1.50000
  50
 180.000
  51
0.0
   0
ARC
   8
LEVEL004
   6
DOT
  62
3
  10
 90.0000
  20
 278.000
  30
0.0
  40
 1.50000
  50
 180.000
  51
0.0
   0
ARC
   8
LEVEL004
   6
DOT
  62
3
  10
 87.5000
  20
 269.000
  30
0.0
  40
 1.00000
  50
0.0
  51
 90.0000
   0
LINE
   8
LEVEL004
   6
DOT
  62
3
  10
 87.5000
  20
 270.000
  30
0.0
  11
 87.5000
  21
 266.000
  31
0.0
   0
LINE
   8
LEVEL004
   6
DOT
  62
3
  10
 87.5000
  20
 270.000
  30
0.0
  11
 62.5000
  21
 270.000
  31
0.0
   0
LINE
   8
LEVEL004
   6
DOT
  62
3
  10
 88.5000
  20
 269.000
  30
0.0
  11
 88.5000
  21
 267.000
  31
0.0
   0
ARC
   8
LEVEL004
   6
DOT
  62
3
  10
 87.5000
  20
 267.000
  30
0.0
  40
 1.00000
  50
 270.000
  51
0.0
   0
LINE
   8
LEVEL004
   6
DOT
  62
3
  10
 87.5000
  20
 254.000
  30
0.0
  11
 87.5000
  21
 252.000
  31
0.0
   0
LINE
   8
LEVEL004
   6
DOT
  62
3
  10
 88.5000
  20
 253.000
  30
0.0
  11
 87.5000
  21
 254.000
  31
0.0
   0
LINE
   8
LEVEL004
   6
DOT
  62
3
  10
 87.5000
  20
 254.000
  30
0.0
  11
 87.5000
  21
 266.000
  31
0.0
   0
LINE
   8
LEVEL004
   6
DOT
  62
3
  10
 87.5000
  20
 270.000
  30
0.0
  11
 88.5000
  21
 269.000
  31
0.0
   0
LINE
   8
LEVEL004
   6
DOT
  62
3
  10
 88.5000
  20
 269.000
  30
0.0
  11
 88.5000
  21
 253.000
  31
0.0
   0
ARC
   8
LEVEL004
   6
DOT
  62
3
  10
 62.5000
  20
 269.000
  30
0.0
  40
 1.00000
  50
 90.0000
  51
 180.000
   0
LINE
   8
LEVEL004
   6
DOT
  62
3
  10
 88.5000
  20
 269.000
  30
0.0
  11
 61.5000
  21
 269.000
  31
0.0
   0
LINE
   8
LEVEL004
   6
DOT
  62
3
  10
 61.5000
  20
 253.000
  30
0.0
  11
 62.5000
  21
 254.000
  31
0.0
   0
LINE
   8
LEVEL004
   6
DOT
  62
3
  10
 62.5000
  20
 254.000
  30
0.0
  11
 62.5000
  21
 266.000
  31
0.0
   0
ARC
   8
LEVEL004
   6
DOT
  62
3
  10
 62.5000
  20
 267.000
  30
0.0
  40
 1.00000
  50
 180.000
  51
 270.000
   0
LINE
   8
LEVEL004
   6
DOT
  62
3
  10
 62.5000
  20
 254.000
  30
0.0
  11
 62.5000
  21
 252.000
  31
0.0
   0
LINE
   8
LEVEL004
   6
DOT
  62
3
  10
 62.5000
  20
 270.000
  30
0.0
  11
 61.5000
  21
 269.000
  31
0.0
   0
LINE
   8
LEVEL004
   6
DOT
  62
3
  10
 61.5000
  20
 269.000
  30
0.0
  11
 61.5000
  21
 253.000
  31
0.0
   0
LINE
   8
LEVEL004
   6
DOT
  62
3
  10
 61.5000
  20
 269.000
  30
0.0
  11
 61.5000
  21
 267.000
  31
0.0
   0
LINE
   8
LEVEL004
   6
DOT
  62
3
  10
 62.5000
  20
 270.000
  30
0.0
  11
 62.5000
  21
 266.000
  31
0.0
   0
LINE
   8
LEVEL004
   6
DOT
  62
3
  10
 53.5000
  20
 196.000
  30
0.0
  11
 53.5000
  21
 86.0000
  31
0.0
   0
LINE
   8
LEVEL004
   6
DOT
  62
3
  10
 96.5000
  20
 196.000
  30
0.0
  11
 96.5000
  21
 86.0000
  31
0.0
   0
LINE
   8
LEVEL001
   6
DASHDOT
  62
1
  10
 75.0000
  20
 280.000
  30
0.0
  11
 75.0000
  21
 40.0000
  31
0.0
   0
LINE
   8
LEVEL003
   6
CONTINUOUS
  62
3
  10
 135.000
  20
 220.000
  30
0.0
  11
 168.548
  21
 220.000
  31
0.0
   0
TEXT
   8
LEVEL003
  62
3
  10
 214.200
  20
 159.500
  30
0.0
  40
 4.00000
   1
233
  50
 90.0000
  41
 0.500000
   7
STANDARD
  72
1
  11
 214.200
  21
 162.500
  31
0.0
   0
LINE
   8
LEVEL003
   6
CONTINUOUS
  62
3
  10
 59.0000
  20
 160.000
  30
0.0
  11
 91.0000
  21
 160.000
  31
0.0
   0
LINE
   8
LEVEL003
   6
CONTINUOUS
  62
3
  10
 59.0000
  20
 160.000
  30
0.0
  11
 62.0000
  21
 159.471
  31
0.0
   0
LINE
   8
LEVEL003
   6
CONTINUOUS
  62
3
  10
 59.0000
  20
 160.000
  30
0.0
  11
 62.0000
  21
 160.529
  31
0.0
   0
LINE
   8
LEVEL003
   6
CONTINUOUS
  62
3
  10
 91.0000
  20
 160.000
  30
0.0
  11
 88.0000
  21
 160.529
  31
0.0
   0
LINE
   8
LEVEL003
   6
CONTINUOUS
  62
3
  10
 91.0000
  20
 160.000
  30
0.0
  11
 88.0000
  21
 159.471
  31
0.0
   0
TEXT
   8
LEVEL003
  62
3
  10
 71.0000
  20
 160.800
  30
0.0
  40
 4.00000
   1
%%c32
   7
STANDARD
  72
1
  11
 75.0000
  21
 160.800
  31
0.0
   0
LINE
   8
LEVEL003
   6
CONTINUOUS
  62
3
  10
 53.5000
  20
 150.000
  30
0.0
  11
 96.5000
  21
 150.000
  31
0.0
   0
LINE
   8
LEVEL003
   6
CONTINUOUS
  62
3
  10
 53.5000
  20
 150.000
  30
0.0
  11
 56.5000
  21
 149.471
  31
0.0
   0
LINE
   8
LEVEL003
   6
CONTINUOUS
  62
3
  10
 53.5000
  20
 150.000
  30
0.0
  11
 56.5000
  21
 150.529
  31
0.0
   0
LINE
   8
LEVEL003
   6
CONTINUOUS
  62
3
  10
 96.5000
  20
 150.000
  30
0.0
  11
 93.5000
  21
 150.529
  31
0.0
   0
LINE
   8
LEVEL003
   6
CONTINUOUS
  62
3
  10
 96.5000
  20
 150.000
  30
0.0
  11
 93.5000
  21
 149.471
  31
0.0
   0
TEXT
   8
LEVEL003
  62
3
  10
 71.0000
  20
 150.800
  30
0.0
  40
 4.00000
   1
%%c43
   7
STANDARD
  72
1
  11
 75.0000
  21
 150.800
  31
0.0
   0
LINE
   8
LEVEL004
   6
DOT
  62
3
  10
 91.0000
  20
 147.000
  30
0.0
  11
 91.0000
  21
 245.000
  31
0.0
   0
LINE
   8
LEVEL004
   6
DOT
  62
3
  10
 59.0000
  20
 147.000
  30
0.0
  11
 59.0000
  21
 245.000
  31
0.0
   0
ENDSEC
   0
EOF
