   0
SECTION
   2
HEADER
   9
$LIMMIN
  10
0.0
  20
0.0
   9
$LIMMAX
  10
 840.000
  20
 860.000
   9
$EXTMIN
  10
0.0
  20
0.0
   9
$EXTMAX
  10
 840.000
  20
 860.000
   9
$LTSCALE
  40
 17.2000
   0
ENDSEC
   0
SECTION
   2
TABLES
  0
TABLE
  2
LTYPE
 70
    25
  0
LTYPE
  2
CONTINUOUS
 70
    64
  3
Solid line
 72
    65
 73
     0
 40
0.0
  0
LTYPE
  2
BORDER
 70
    64
  3
__ __ . __ __ . __ __ . __ __ . __ __ . __ __ .
 72
    65
 73
     6
 40
1.75
 49
0.5
 49
-0.25
 49
0.5
 49
-0.25
 49
0.0
 49
-0.25
  0
LTYPE
  2
BORDER2
 70
    64
  3
__.__.__.__.__.__.__.__.__.__.__.__.__.__.__.__
 72
    65
 73
     6
 40
0.875
 49
0.25
 49
-0.125
 49
0.25
 49
-0.125
 49
0.0
 49
-0.125
  0
LTYPE
  2
BORDERX2
 70
    64
  3
____  ____  .  ____  ____  .  ____  ____  .  __
 72
    65
 73
     6
 40
3.5
 49
1.0
 49
-0.5
 49
1.0
 49
-0.5
 49
0.0
 49
-0.5
  0
LTYPE
  2
CENTER
 70
    64
  3
____ _ ____ _ ____ _ ____ _ ____ _ ____ _ ____ 
 72
    65
 73
     4
 40
2.0
 49
1.25
 49
-0.25
 49
0.25
 49
-0.25
  0
LTYPE
  2
CENTER2
 70
    64
  3
___ _ ___ _ ___ _ ___ _ ___ _ ___ _ ___ _ ___ _
 72
    65
 73
     4
 40
1.125
 49
0.75
 49
-0.125
 49
0.125
 49
-0.125
  0
LTYPE
  2
CENTERX2
 70
    64
  3
________  __  ________  __  ________  __  _____
 72
    65
 73
     4
 40
4.0
 49
2.5
 49
-0.5
 49
0.5
 49
-0.5
  0
LTYPE
  2
DASHDOT
 70
    64
  3
__ . __ . __ . __ . __ . __ . __ . __ . __ . __
 72
    65
 73
     4
 40
1.0
 49
0.5
 49
-0.25
 49
0.0
 49
-0.25
  0
LTYPE
  2
DASHDOT2
 70
    64
  3
_._._._._._._._._._._._._._._._._._._._._._._._
 72
    65
 73
     4
 40
0.5
 49
0.25
 49
-0.125
 49
0.0
 49
-0.125
  0
LTYPE
  2
DASHDOTX2
 70
    64
  3
____  .  ____  .  ____  .  ____  .  ____  .  __
 72
    65
 73
     4
 40
2.0
 49
1.0
 49
-0.5
 49
0.0
 49
-0.5
  0
LTYPE
  2
DASHED
 70
    64
  3
__ __ __ __ __ __ __ __ __ __ __ __ __ __ __ __
 72
    65
 73
     2
 40
0.75
 49
0.5
 49
-0.25
  0
LTYPE
  2
DASHED2
 70
    64
  3
_ _ _ _ _ _ _ _ _ _ _ _ _ _ _ _ _ _ _ _ _ _ _ _
 72
    65
 73
     2
 40
0.375
 49
0.25
 49
-0.125
  0
LTYPE
  2
DASHEDX2
 70
    64
  3
____  ____  ____  ____  ____  ____  ____  ____ 
 72
    65
 73
     2
 40
1.5
 49
1.0
 49
-0.5
  0
LTYPE
  2
DIVIDE
 70
    64
  3
____ . . ____ . . ____ . . ____ . . ____ . . __
 72
    65
 73
     6
 40
1.25
 49
0.5
 49
-0.25
 49
0.0
 49
-0.25
 49
0.0
 49
-0.25
  0
LTYPE
  2
DIVIDE2
 70
    64
  3
__..__..__..__..__..__..__..__..__..__..__..__.
 72
    65
 73
     6
 40
0.625
 49
0.25
 49
-0.125
 49
0.0
 49
-0.125
 49
0.0
 49
-0.125
  0
LTYPE
  2
DIVIDEX2
 70
    64
  3
________  .  .  ________  .  .  ________  .  . 
 72
    65
 73
     6
 40
2.5
 49
1.0
 49
-0.5
 49
0.0
 49
-0.5
 49
0.0
 49
-0.5
  0
LTYPE
  2
DOT
 70
    64
  3
. . . . . . . . . . . . . . . . . . . . . . . .
 72
    65
 73
     2
 40
0.25
 49
0.0
 49
-0.25
  0
LTYPE
  2
DOT2
 70
    64
  3
...............................................
 72
    65
 73
     2
 40
0.125
 49
0.0
 49
-0.125
  0
LTYPE
  2
DOTX2
 70
    64
  3
.  .  .  .  .  .  .  .  .  .  .  .  .  .  .  . 
 72
    65
 73
     2
 40
0.5
 49
0.0
 49
-0.5
  0
LTYPE
  2
HIDDEN
 70
    64
  3
__ __ __ __ __ __ __ __ __ __ __ __ __ __ __ __
 72
    65
 73
     2
 40
0.375
 49
0.25
 49
-0.125
  0
LTYPE
  2
HIDDEN2
 70
    64
  3
_ _ _ _ _ _ _ _ _ _ _ _ _ _ _ _ _ _ _ _ _ _ _ _
 72
    65
 73
     2
 40
0.1875
 49
0.125
 49
-0.0625
  0
LTYPE
  2
HIDDENX2
 70
    64
  3
____ ____ ____ ____ ____ ____ ____ ____ ____ __
 72
    65
 73
     2
 40
0.75
 49
0.5
 49
-0.25
  0
LTYPE
  2
PHANTOM
 70
    64
  3
______  __  __  ______  __  __  ______  __  __ 
 72
    65
 73
     6
 40
2.5
 49
1.25
 49
-0.25
 49
0.25
 49
-0.25
 49
0.25
 49
-0.25
  0
LTYPE
  2
PHANTOM2
 70
    64
  3
___ _ _ ___ _ _ ___ _ _ ___ _ _ ___ _ _ ___ _ _
 72
    65
 73
     6
 40
1.25
 49
0.625
 49
-0.125
 49
0.125
 49
-0.125
 49
0.125
 49
-0.125
  0
LTYPE
  2
PHANTOMX2
 70
    64
  3
____________    ____    ____    ____________   
 72
    65
 73
     6
 40
5.0
 49
2.5
 49
-0.5
 49
0.5
 49
-0.5
 49
0.5
 49
-0.5
  0
ENDTAB
  0
TABLE
  2
STYLE
 70
     2
  0
STYLE
  2
STANDARD
 70
0
 40
0.0
 41
1.0
 50
0.0
 71
0
 42
0.2
  3
TXT
  4
BIGFONT
  0
STYLE
  2
STANDARD1
 70
     4
 40
0.0
 41
1.0
 50
0.0
 71
     0
 42
0.2
  3
TXT
  4
BIGFONT
  0
ENDTAB
   0
TABLE
   2
LAYER
  70
4
   0
LAYER
   2
0
  70
0
  62
7
   6
CONTINUOUS
   0
LAYER
   2
LEVEL001
  70
0
  62
7
   6
CONTINUOUS
   0
LAYER
   2
LEVEL003
  70
0
  62
7
   6
CONTINUOUS
   0
LAYER
   2
LEVEL004
  70
0
  62
7
   6
CONTINUOUS
   0
ENDTAB
   0
ENDSEC
   0
SECTION
   2
ENTITIES
   0
LINE
   8
LEVEL001
   6
CONTINUOUS
  62
7
  10
 315.000
  20
 402.000
  30
0.0
  11
 313.000
  21
 400.000
  31
0.0
   0
LINE
   8
LEVEL001
   6
CONTINUOUS
  62
7
  10
 65.0000
  20
 402.000
  30
0.0
  11
 67.0000
  21
 400.000
  31
0.0
   0
LINE
   8
LEVEL001
   6
CONTINUOUS
  62
7
  10
 313.000
  20
 400.000
  30
0.0
  11
 67.0000
  21
 400.000
  31
0.0
   0
LINE
   8
LEVEL001
   6
CONTINUOUS
  62
3
  10
 325.000
  20
 488.643
  30
0.0
  11
 321.384
  21
 487.674
  31
0.0
   0
LINE
   8
LEVEL001
   6
CONTINUOUS
  62
3
  10
 325.000
  20
 471.356
  30
0.0
  11
 321.384
  21
 472.325
  31
0.0
   0
LINE
   8
LEVEL001
   6
CONTINUOUS
  62
3
  10
 321.384
  20
 487.674
  30
0.0
  11
 321.384
  21
 472.325
  31
0.0
   0
ARC
   8
LEVEL001
   6
CONTINUOUS
  62
7
  10
 342.599
  20
 496.187
  30
0.0
  40
 17.6000
  50
 180.609
  51
 203.257
   0
ARC
   8
LEVEL001
   6
CONTINUOUS
  62
7
  10
 342.599
  20
 463.813
  30
0.0
  40
 17.6000
  50
 156.743
  51
 179.391
   0
ARC
   8
LEVEL001
   6
CONTINUOUS
  62
7
  10
 355.571
  20
 480.000
  30
0.0
  40
 30.5710
  50
 162.412
  51
 197.588
   0
LINE
   8
LEVEL001
   6
CONTINUOUS
  62
7
  10
 326.429
  20
 498.475
  30
0.0
  11
 325.000
  21
 496.000
  31
0.0
   0
LINE
   8
LEVEL001
   6
CONTINUOUS
  62
7
  10
 325.000
  20
 496.000
  30
0.0
  11
 325.000
  21
 464.000
  31
0.0
   0
LINE
   8
LEVEL001
   6
CONTINUOUS
  62
7
  10
 325.000
  20
 464.000
  30
0.0
  11
 326.429
  21
 461.525
  31
0.0
   0
LINE
   8
LEVEL001
   6
CONTINUOUS
  62
7
  10
 326.429
  20
 461.525
  30
0.0
  11
 353.571
  21
 461.525
  31
0.0
   0
LINE
   8
LEVEL001
   6
CONTINUOUS
  62
7
  10
 353.571
  20
 461.525
  30
0.0
  11
 355.000
  21
 464.000
  31
0.0
   0
LINE
   8
LEVEL001
   6
CONTINUOUS
  62
7
  10
 355.000
  20
 464.000
  30
0.0
  11
 355.000
  21
 496.000
  31
0.0
   0
LINE
   8
LEVEL001
   6
CONTINUOUS
  62
7
  10
 355.000
  20
 496.000
  30
0.0
  11
 353.571
  21
 498.475
  31
0.0
   0
LINE
   8
LEVEL001
   6
CONTINUOUS
  62
7
  10
 353.571
  20
 498.475
  30
0.0
  11
 326.429
  21
 498.475
  31
0.0
   0
ARC
   8
LEVEL001
   6
CONTINUOUS
  62
7
  10
 337.401
  20
 463.813
  30
0.0
  40
 17.6000
  50
 0.608626
  51
 23.2566
   0
ARC
   8
LEVEL001
   6
CONTINUOUS
  62
7
  10
 337.401
  20
 496.187
  30
0.0
  40
 17.6000
  50
 336.743
  51
 359.391
   0
ARC
   8
LEVEL001
   6
CONTINUOUS
  62
7
  10
 324.429
  20
 480.000
  30
0.0
  40
 30.5710
  50
 342.412
  51
 17.5880
   0
LINE
   8
LEVEL001
   6
CONTINUOUS
  62
7
  10
 326.429
  20
 489.238
  30
0.0
  11
 353.571
  21
 489.238
  31
0.0
   0
LINE
   8
LEVEL001
   6
CONTINUOUS
  62
7
  10
 326.429
  20
 470.762
  30
0.0
  11
 353.571
  21
 470.762
  31
0.0
   0
LINE
   8
LEVEL001
   6
CONTINUOUS
  62
3
  10
 361.091
  20
 470.494
  30
0.0
  11
 361.091
  21
 489.506
  31
0.0
   0
LINE
   8
LEVEL001
   6
CONTINUOUS
  62
3
  10
 366.000
  20
 490.821
  30
0.0
  11
 361.091
  21
 489.506
  31
0.0
   0
LINE
   8
LEVEL001
   6
CONTINUOUS
  62
3
  10
 366.000
  20
 469.179
  30
0.0
  11
 361.091
  21
 470.494
  31
0.0
   0
LINE
   8
LEVEL001
   6
CONTINUOUS
  62
7
  10
 366.000
  20
 490.821
  30
0.0
  11
 366.000
  21
 469.179
  31
0.0
   0
LINE
   8
LEVEL001
   6
CONTINUOUS
  62
7
  10
 368.042
  20
 492.000
  30
0.0
  11
 384.200
  21
 492.000
  31
0.0
   0
LINE
   8
LEVEL001
   6
CONTINUOUS
  62
7
  10
 366.000
  20
 469.179
  30
0.0
  11
 368.042
  21
 468.000
  31
0.0
   0
LINE
   8
LEVEL001
   6
CONTINUOUS
  62
7
  10
 368.042
  20
 468.000
  30
0.0
  11
 384.200
  21
 468.000
  31
0.0
   0
LINE
   8
LEVEL001
   6
CONTINUOUS
  62
7
  10
 366.000
  20
 490.821
  30
0.0
  11
 368.042
  21
 492.000
  31
0.0
   0
ARC
   8
LEVEL001
   6
CONTINUOUS
  62
7
  10
 386.200
  20
 496.000
  30
0.0
  40
 2.00000
  50
 90.0000
  51
 180.000
   0
LINE
   8
LEVEL001
   6
CONTINUOUS
  62
7
  10
 386.200
  20
 498.000
  30
0.0
  11
 392.200
  21
 498.000
  31
0.0
   0
ARC
   8
LEVEL001
   6
CONTINUOUS
  62
7
  10
 408.200
  20
 497.000
  30
0.0
  40
 1.00000
  50
0.0
  51
 90.0000
   0
LINE
   8
LEVEL001
   6
CONTINUOUS
  62
7
  10
 402.200
  20
 498.000
  30
0.0
  11
 408.200
  21
 498.000
  31
0.0
   0
ARC
   8
LEVEL001
   6
CONTINUOUS
  62
7
  10
 386.200
  20
 464.000
  30
0.0
  40
 2.00000
  50
 180.000
  51
 270.000
   0
LINE
   8
LEVEL001
   6
CONTINUOUS
  62
7
  10
 386.200
  20
 462.000
  30
0.0
  11
 392.200
  21
 462.000
  31
0.0
   0
ARC
   8
LEVEL001
   6
CONTINUOUS
  62
7
  10
 408.200
  20
 463.000
  30
0.0
  40
 1.00000
  50
 270.000
  51
 0.377799E-9
   0
LINE
   8
LEVEL001
   6
CONTINUOUS
  62
7
  10
 402.200
  20
 462.000
  30
0.0
  11
 408.200
  21
 462.000
  31
0.0
   0
LINE
   8
LEVEL001
   6
CONTINUOUS
  62
7
  10
 384.200
  20
 464.000
  30
0.0
  11
 384.200
  21
 496.000
  31
0.0
   0
LINE
   8
LEVEL001
   6
CONTINUOUS
  62
7
  10
 409.200
  20
 497.000
  30
0.0
  11
 409.200
  21
 463.000
  31
0.0
   0
LINE
   8
LEVEL001
   6
CONTINUOUS
  62
7
  10
 368.042
  20
 492.000
  30
0.0
  11
 368.042
  21
 485.809
  31
0.0
   0
LINE
   8
LEVEL001
   6
CONTINUOUS
  62
7
  10
 368.042
  20
 474.191
  30
0.0
  11
 368.042
  21
 468.000
  31
0.0
   0
LINE
   8
LEVEL001
   6
CONTINUOUS
  62
7
  10
 368.042
  20
 474.191
  30
0.0
  11
 377.000
  21
 485.809
  31
0.0
   0
LINE
   8
LEVEL001
   6
CONTINUOUS
  62
7
  10
 368.042
  20
 485.809
  30
0.0
  11
 377.000
  21
 474.191
  31
0.0
   0
LINE
   8
LEVEL001
   6
DASHDOT
  62
1
  10
 409.200
  20
 498.000
  30
0.0
  11
 417.200
  21
 498.000
  31
0.0
   0
LINE
   8
LEVEL001
   6
DASHDOT
  62
1
  10
 409.200
  20
 462.000
  30
0.0
  11
 417.200
  21
 462.000
  31
0.0
   0
LINE
   8
LEVEL001
   6
DASHDOT
  62
1
  10
 417.200
  20
 498.000
  30
0.0
  11
 417.200
  21
 462.000
  31
0.0
   0
LINE
   8
LEVEL001
   6
DASHDOT
  62
1
  10
 409.200
  20
 497.000
  30
0.0
  11
 409.200
  21
 498.000
  31
0.0
   0
LINE
   8
LEVEL001
   6
DASHDOT
  62
1
  10
 409.200
  20
 463.000
  30
0.0
  11
 409.200
  21
 462.000
  31
0.0
   0
LINE
   8
LEVEL001
   6
CONTINUOUS
  62
3
  10
 392.200
  20
 463.500
  30
0.0
  11
 402.200
  21
 463.500
  31
0.0
   0
LINE
   8
LEVEL001
   6
CONTINUOUS
  62
3
  10
 392.200
  20
 465.500
  30
0.0
  11
 402.200
  21
 465.500
  31
0.0
   0
LINE
   8
LEVEL001
   6
CONTINUOUS
  62
3
  10
 392.200
  20
 467.500
  30
0.0
  11
 402.200
  21
 467.500
  31
0.0
   0
LINE
   8
LEVEL001
   6
CONTINUOUS
  62
3
  10
 392.200
  20
 469.500
  30
0.0
  11
 402.200
  21
 469.500
  31
0.0
   0
LINE
   8
LEVEL001
   6
CONTINUOUS
  62
3
  10
 392.200
  20
 471.500
  30
0.0
  11
 402.200
  21
 471.500
  31
0.0
   0
LINE
   8
LEVEL001
   6
CONTINUOUS
  62
3
  10
 392.200
  20
 473.500
  30
0.0
  11
 402.200
  21
 473.500
  31
0.0
   0
LINE
   8
LEVEL001
   6
CONTINUOUS
  62
3
  10
 392.200
  20
 475.500
  30
0.0
  11
 402.200
  21
 475.500
  31
0.0
   0
LINE
   8
LEVEL001
   6
CONTINUOUS
  62
3
  10
 392.200
  20
 477.500
  30
0.0
  11
 402.200
  21
 477.500
  31
0.0
   0
LINE
   8
LEVEL001
   6
CONTINUOUS
  62
3
  10
 392.200
  20
 479.500
  30
0.0
  11
 402.200
  21
 479.500
  31
0.0
   0
LINE
   8
LEVEL001
   6
CONTINUOUS
  62
3
  10
 392.200
  20
 481.500
  30
0.0
  11
 402.200
  21
 481.500
  31
0.0
   0
LINE
   8
LEVEL001
   6
CONTINUOUS
  62
3
  10
 392.200
  20
 483.500
  30
0.0
  11
 402.200
  21
 483.500
  31
0.0
   0
LINE
   8
LEVEL001
   6
CONTINUOUS
  62
3
  10
 392.200
  20
 485.500
  30
0.0
  11
 402.200
  21
 485.500
  31
0.0
   0
LINE
   8
LEVEL001
   6
CONTINUOUS
  62
3
  10
 392.200
  20
 487.500
  30
0.0
  11
 402.200
  21
 487.500
  31
0.0
   0
LINE
   8
LEVEL001
   6
CONTINUOUS
  62
3
  10
 392.200
  20
 489.500
  30
0.0
  11
 402.200
  21
 489.500
  31
0.0
   0
LINE
   8
LEVEL001
   6
CONTINUOUS
  62
3
  10
 392.200
  20
 491.500
  30
0.0
  11
 402.200
  21
 491.500
  31
0.0
   0
LINE
   8
LEVEL001
   6
CONTINUOUS
  62
3
  10
 392.200
  20
 493.500
  30
0.0
  11
 402.200
  21
 493.500
  31
0.0
   0
LINE
   8
LEVEL001
   6
CONTINUOUS
  62
3
  10
 392.200
  20
 495.500
  30
0.0
  11
 402.200
  21
 495.500
  31
0.0
   0
LINE
   8
LEVEL001
   6
CONTINUOUS
  62
3
  10
 392.200
  20
 497.500
  30
0.0
  11
 402.200
  21
 497.500
  31
0.0
   0
LINE
   8
LEVEL001
   6
CONTINUOUS
  62
7
  10
 366.000
  20
 490.821
  30
0.0
  11
 355.000
  21
 490.477
  31
0.0
   0
LINE
   8
LEVEL001
   6
CONTINUOUS
  62
7
  10
 366.000
  20
 469.179
  30
0.0
  11
 355.000
  21
 469.522
  31
0.0
   0
LINE
   8
LEVEL001
   6
CONTINUOUS
  62
3
  10
 361.091
  20
 489.506
  30
0.0
  11
 355.000
  21
 489.315
  31
0.0
   0
LINE
   8
LEVEL001
   6
CONTINUOUS
  62
3
  10
 361.091
  20
 470.494
  30
0.0
  11
 355.000
  21
 470.684
  31
0.0
   0
LINE
   8
LEVEL003
   6
CONTINUOUS
  62
3
  10
 65.0000
  20
 400.000
  30
0.0
  11
 6.00000
  21
 400.000
  31
0.0
   0
LINE
   8
LEVEL003
   6
CONTINUOUS
  62
3
  10
 10.0000
  20
 400.000
  30
0.0
  11
 11.0580
  21
 406.000
  31
0.0
   0
LINE
   8
LEVEL003
   6
CONTINUOUS
  62
3
  10
 10.0000
  20
 400.000
  30
0.0
  11
 8.94204
  21
 406.000
  31
0.0
   0
TEXT
   8
LEVEL003
  62
3
  10
 330.000
  20
 420.000
  30
0.0
  40
 8.00000
   1
ＮＰＴ３／８
   7
STANDARD
   0
LINE
   8
LEVEL003
   6
CONTINUOUS
  62
3
  10
 315.000
  20
 400.000
  30
0.0
  11
 444.000
  21
 400.000
  31
0.0
   0
LINE
   8
LEVEL003
   6
CONTINUOUS
  62
3
  10
 422.000
  20
 480.000
  30
0.0
  11
 444.000
  21
 480.000
  31
0.0
   0
LINE
   8
LEVEL003
   6
CONTINUOUS
  62
3
  10
 440.000
  20
 400.000
  30
0.0
  11
 440.000
  21
 480.000
  31
0.0
   0
LINE
   8
LEVEL003
   6
CONTINUOUS
  62
3
  10
 440.000
  20
 400.000
  30
0.0
  11
 441.058
  21
 406.000
  31
0.0
   0
LINE
   8
LEVEL003
   6
CONTINUOUS
  62
3
  10
 440.000
  20
 400.000
  30
0.0
  11
 438.942
  21
 406.000
  31
0.0
   0
LINE
   8
LEVEL003
   6
CONTINUOUS
  62
3
  10
 440.000
  20
 480.000
  30
0.0
  11
 438.942
  21
 474.000
  31
0.0
   0
LINE
   8
LEVEL003
   6
CONTINUOUS
  62
3
  10
 440.000
  20
 480.000
  30
0.0
  11
 441.058
  21
 474.000
  31
0.0
   0
TEXT
   8
LEVEL003
  62
3
  10
 438.400
  20
 436.000
  30
0.0
  40
 8.00000
   1
80
  50
 90.0000
  41
 0.500000
   7
STANDARD
  72
1
  11
 438.400
  21
 440.000
  31
0.0
   0
LINE
   8
LEVEL003
   6
CONTINUOUS
  62
3
  10
 315.000
  20
 400.000
  30
0.0
  11
 464.000
  21
 400.000
  31
0.0
   0
LINE
   8
LEVEL003
   6
CONTINUOUS
  62
3
  10
 460.000
  20
 400.000
  30
0.0
  11
 461.058
  21
 406.000
  31
0.0
   0
LINE
   8
LEVEL003
   6
CONTINUOUS
  62
3
  10
 460.000
  20
 400.000
  30
0.0
  11
 458.942
  21
 406.000
  31
0.0
   0
LINE
   8
LEVEL003
   6
CONTINUOUS
  62
3
  10
 318.623
  20
 471.556
  30
0.0
  11
 330.000
  21
 420.000
  31
0.0
   0
LINE
   8
LEVEL003
   6
CONTINUOUS
  62
3
  10
 318.623
  20
 471.556
  30
0.0
  11
 318.883
  21
 465.469
  31
0.0
   0
LINE
   8
LEVEL003
   6
CONTINUOUS
  62
3
  10
 318.623
  20
 471.556
  30
0.0
  11
 320.949
  21
 465.925
  31
0.0
   0
LINE
   8
LEVEL003
   6
CONTINUOUS
  62
3
  10
 358.511
  20
 469.413
  30
0.0
  11
 390.000
  21
 420.000
  31
0.0
   0
LINE
   8
LEVEL003
   6
CONTINUOUS
  62
3
  10
 358.511
  20
 469.413
  30
0.0
  11
 360.843
  21
 463.784
  31
0.0
   0
LINE
   8
LEVEL003
   6
CONTINUOUS
  62
3
  10
 358.511
  20
 469.413
  30
0.0
  11
 362.628
  21
 464.921
  31
0.0
   0
LINE
   8
LEVEL003
   6
CONTINUOUS
  62
3
  10
 110.000
  20
 395.000
  30
0.0
  11
 110.000
  21
 346.000
  31
0.0
   0
LINE
   8
LEVEL003
   6
CONTINUOUS
  62
3
  10
 270.000
  20
 395.000
  30
0.0
  11
 270.000
  21
 346.000
  31
0.0
   0
LINE
   8
LEVEL003
   6
CONTINUOUS
  62
3
  10
 110.000
  20
 350.000
  30
0.0
  11
 270.000
  21
 350.000
  31
0.0
   0
LINE
   8
LEVEL003
   6
CONTINUOUS
  62
3
  10
 110.000
  20
 350.000
  30
0.0
  11
 116.000
  21
 348.942
  31
0.0
   0
LINE
   8
LEVEL003
   6
CONTINUOUS
  62
3
  10
 110.000
  20
 350.000
  30
0.0
  11
 116.000
  21
 351.058
  31
0.0
   0
LINE
   8
LEVEL003
   6
CONTINUOUS
  62
3
  10
 270.000
  20
 350.000
  30
0.0
  11
 264.000
  21
 351.058
  31
0.0
   0
LINE
   8
LEVEL003
   6
CONTINUOUS
  62
3
  10
 270.000
  20
 350.000
  30
0.0
  11
 264.000
  21
 348.942
  31
0.0
   0
TEXT
   8
LEVEL003
  62
3
  10
 174.000
  20
 351.600
  30
0.0
  40
 8.00000
   1
PCD.160
  41
 0.500000
   7
STANDARD
  72
1
  11
 188.000
  21
 351.600
  31
0.0
   0
TEXT
   8
LEVEL003
  62
3
  10
 390.000
  20
 420.000
  30
0.0
  40
 8.00000
   1
Ｒ　１／２
   7
STANDARD
   0
LINE
   8
LEVEL001
   6
CONTINUOUS
  62
7
  10
 366.000
  20
 482.617
  30
0.0
  11
 368.042
  21
 485.809
  31
0.0
   0
LINE
   8
LEVEL001
   6
CONTINUOUS
  62
7
  10
 368.042
  20
 485.809
  30
0.0
  11
 377.000
  21
 485.809
  31
0.0
   0
LINE
   8
LEVEL001
   6
CONTINUOUS
  62
7
  10
 377.000
  20
 485.809
  30
0.0
  11
 377.000
  21
 474.191
  31
0.0
   0
LINE
   8
LEVEL001
   6
CONTINUOUS
  62
7
  10
 377.000
  20
 474.191
  30
0.0
  11
 368.042
  21
 474.191
  31
0.0
   0
LINE
   8
LEVEL001
   6
CONTINUOUS
  62
7
  10
 368.042
  20
 474.191
  30
0.0
  11
 366.000
  21
 477.383
  31
0.0
   0
LINE
   8
LEVEL001
   6
CONTINUOUS
  62
7
  10
 392.200
  20
 461.500
  30
0.0
  11
 392.200
  21
 498.500
  31
0.0
   0
LINE
   8
LEVEL001
   6
CONTINUOUS
  62
7
  10
 392.200
  20
 498.500
  30
0.0
  11
 402.200
  21
 498.500
  31
0.0
   0
LINE
   8
LEVEL001
   6
CONTINUOUS
  62
7
  10
 402.200
  20
 498.500
  30
0.0
  11
 402.200
  21
 461.500
  31
0.0
   0
LINE
   8
LEVEL001
   6
CONTINUOUS
  62
7
  10
 402.200
  20
 461.500
  30
0.0
  11
 392.200
  21
 461.500
  31
0.0
   0
CIRCLE
   8
LEVEL001
   6
CONTINUOUS
  62
7
  10
 190.000
  20
 170.000
  30
0.0
  40
 125.000
   0
CIRCLE
   8
LEVEL001
   6
CONTINUOUS
  62
7
  10
 190.000
  20
 170.000
  30
0.0
  40
 123.000
   0
CIRCLE
   8
LEVEL001
   6
DASHDOT
  62
1
  10
 190.000
  20
 170.000
  30
0.0
  40
 79.9999
   0
CIRCLE
   8
LEVEL001
   6
CONTINUOUS
  62
7
  10
 190.000
  20
 170.000
  30
0.0
  40
 4.25000
   0
CIRCLE
   8
LEVEL001
   6
CONTINUOUS
  62
3
  10
 190.000
  20
 170.000
  30
0.0
  40
 5.00000
   0
CIRCLE
   8
LEVEL001
   6
CONTINUOUS
  62
7
  10
 190.000
  20
 170.000
  30
0.0
  40
 98.5000
   0
CIRCLE
   8
LEVEL001
   6
CONTINUOUS
  62
3
  10
 190.000
  20
 170.000
  30
0.0
  40
 100.000
   0
LINE
   8
LEVEL003
   6
CONTINUOUS
  62
3
  10
 325.000
  20
 178.643
  30
0.0
  11
 321.384
  21
 177.674
  31
0.0
   0
LINE
   8
LEVEL003
   6
CONTINUOUS
  62
3
  10
 325.000
  20
 161.357
  30
0.0
  11
 321.384
  21
 162.326
  31
0.0
   0
LINE
   8
LEVEL003
   6
CONTINUOUS
  62
3
  10
 321.384
  20
 177.674
  30
0.0
  11
 321.384
  21
 162.326
  31
0.0
   0
ARC
   8
LEVEL003
   6
CONTINUOUS
  62
7
  10
 348.107
  20
 178.000
  30
0.0
  40
 23.1068
  50
 159.744
  51
 200.256
   0
ARC
   8
LEVEL003
   6
CONTINUOUS
  62
7
  10
 348.107
  20
 162.000
  30
0.0
  40
 23.1068
  50
 159.744
  51
 200.256
   0
LINE
   8
LEVEL003
   6
CONTINUOUS
  62
7
  10
 325.000
  20
 154.000
  30
0.0
  11
 325.000
  21
 186.000
  31
0.0
   0
LINE
   8
LEVEL003
   6
CONTINUOUS
  62
7
  10
 325.000
  20
 186.000
  30
0.0
  11
 355.000
  21
 186.000
  31
0.0
   0
LINE
   8
LEVEL003
   6
CONTINUOUS
  62
7
  10
 355.000
  20
 186.000
  30
0.0
  11
 355.000
  21
 154.000
  31
0.0
   0
LINE
   8
LEVEL003
   6
CONTINUOUS
  62
7
  10
 355.000
  20
 154.000
  30
0.0
  11
 325.000
  21
 154.000
  31
0.0
   0
ARC
   8
LEVEL003
   6
CONTINUOUS
  62
7
  10
 331.893
  20
 162.000
  30
0.0
  40
 23.1068
  50
 339.744
  51
 20.2562
   0
ARC
   8
LEVEL003
   6
CONTINUOUS
  62
7
  10
 331.893
  20
 178.000
  30
0.0
  40
 23.1068
  50
 339.744
  51
 20.2562
   0
LINE
   8
LEVEL003
   6
CONTINUOUS
  62
7
  10
 326.429
  20
 170.000
  30
0.0
  11
 353.571
  21
 170.000
  31
0.0
   0
LINE
   8
LEVEL003
   6
CONTINUOUS
  62
7
  10
 325.000
  20
 178.643
  30
0.0
  11
 315.000
  21
 178.331
  31
0.0
   0
LINE
   8
LEVEL003
   6
CONTINUOUS
  62
3
  10
 321.384
  20
 177.674
  30
0.0
  11
 315.000
  21
 177.475
  31
0.0
   0
LINE
   8
LEVEL003
   6
CONTINUOUS
  62
3
  10
 321.384
  20
 162.326
  30
0.0
  11
 315.000
  21
 162.525
  31
0.0
   0
LINE
   8
LEVEL003
   6
CONTINUOUS
  62
7
  10
 325.000
  20
 161.357
  30
0.0
  11
 315.000
  21
 161.669
  31
0.0
   0
ARC
   8
LEVEL003
   6
CONTINUOUS
  62
7
  10
 146.000
  20
 30.0000
  30
0.0
  40
 6.50000
  50
 90.0000
  51
 270.000
   0
ARC
   8
LEVEL003
   6
CONTINUOUS
  62
7
  10
 234.000
  20
 30.0000
  30
0.0
  40
 6.50000
  50
 270.000
  51
 90.0000
   0
LINE
   8
LEVEL003
   6
DASHDOT
  62
1
  10
 135.000
  20
 30.0000
  30
0.0
  11
 245.000
  21
 30.0000
  31
0.0
   0
LINE
   8
LEVEL003
   6
CONTINUOUS
  62
7
  10
 146.000
  20
 36.5000
  30
0.0
  11
 179.000
  21
 36.5000
  31
0.0
   0
LINE
   8
LEVEL003
   6
CONTINUOUS
  62
7
  10
 201.000
  20
 36.5000
  30
0.0
  11
 234.000
  21
 36.5000
  31
0.0
   0
LINE
   8
LEVEL003
   6
CONTINUOUS
  62
7
  10
 200.000
  20
 15.0000
  30
0.0
  11
 180.000
  21
 15.0000
  31
0.0
   0
LINE
   8
LEVEL003
   6
CONTINUOUS
  62
7
  10
 180.000
  20
 15.0000
  30
0.0
  11
 179.000
  21
 16.0000
  31
0.0
   0
LINE
   8
LEVEL003
   6
CONTINUOUS
  62
7
  10
 179.000
  20
 16.0000
  30
0.0
  11
 179.000
  21
 45.0000
  31
0.0
   0
LINE
   8
LEVEL003
   6
CONTINUOUS
  62
7
  10
 179.000
  20
 45.0000
  30
0.0
  11
 201.000
  21
 45.0000
  31
0.0
   0
LINE
   8
LEVEL003
   6
CONTINUOUS
  62
7
  10
 201.000
  20
 45.0000
  30
0.0
  11
 201.000
  21
 16.0000
  31
0.0
   0
LINE
   8
LEVEL003
   6
CONTINUOUS
  62
7
  10
 201.000
  20
 16.0000
  30
0.0
  11
 200.000
  21
 15.0000
  31
0.0
   0
ARC
   8
LEVEL003
   6
CONTINUOUS
  62
7
  10
 146.000
  20
 310.000
  30
0.0
  40
 6.50000
  50
 90.0000
  51
 270.000
   0
ARC
   8
LEVEL003
   6
CONTINUOUS
  62
7
  10
 234.000
  20
 310.000
  30
0.0
  40
 6.50000
  50
 270.000
  51
 90.0000
   0
LINE
   8
LEVEL003
   6
DASHDOT
  62
1
  10
 135.000
  20
 310.000
  30
0.0
  11
 245.000
  21
 310.000
  31
0.0
   0
LINE
   8
LEVEL003
   6
CONTINUOUS
  62
7
  10
 146.000
  20
 303.500
  30
0.0
  11
 179.000
  21
 303.500
  31
0.0
   0
LINE
   8
LEVEL003
   6
CONTINUOUS
  62
7
  10
 201.000
  20
 303.500
  30
0.0
  11
 234.000
  21
 303.500
  31
0.0
   0
LINE
   8
LEVEL003
   6
CONTINUOUS
  62
7
  10
 146.000
  20
 316.500
  30
0.0
  11
 179.000
  21
 316.500
  31
0.0
   0
LINE
   8
LEVEL003
   6
CONTINUOUS
  62
7
  10
 201.000
  20
 316.500
  30
0.0
  11
 234.000
  21
 316.500
  31
0.0
   0
LINE
   8
LEVEL003
   6
CONTINUOUS
  62
7
  10
 179.000
  20
 324.000
  30
0.0
  11
 201.000
  21
 324.000
  31
0.0
   0
LINE
   8
LEVEL003
   6
CONTINUOUS
  62
7
  10
 200.000
  20
 325.000
  30
0.0
  11
 180.000
  21
 325.000
  31
0.0
   0
LINE
   8
LEVEL003
   6
CONTINUOUS
  62
7
  10
 180.000
  20
 325.000
  30
0.0
  11
 179.000
  21
 324.000
  31
0.0
   0
LINE
   8
LEVEL003
   6
CONTINUOUS
  62
7
  10
 179.000
  20
 324.000
  30
0.0
  11
 179.000
  21
 295.000
  31
0.0
   0
LINE
   8
LEVEL003
   6
CONTINUOUS
  62
7
  10
 179.000
  20
 295.000
  30
0.0
  11
 201.000
  21
 295.000
  31
0.0
   0
LINE
   8
LEVEL003
   6
CONTINUOUS
  62
7
  10
 201.000
  20
 295.000
  30
0.0
  11
 201.000
  21
 324.000
  31
0.0
   0
LINE
   8
LEVEL003
   6
CONTINUOUS
  62
7
  10
 201.000
  20
 324.000
  30
0.0
  11
 200.000
  21
 325.000
  31
0.0
   0
LINE
   8
LEVEL001
   6
DASHDOT
  62
1
  10
 190.000
  20
 6.42906
  30
0.0
  11
 190.000
  21
 333.571
  31
0.0
   0
CIRCLE
   8
LEVEL001
   6
CONTINUOUS
  62
7
  10
 133.432
  20
 113.432
  30
0.0
  40
 7.00000
   0
CIRCLE
   8
LEVEL001
   6
CONTINUOUS
  62
3
  10
 133.432
  20
 113.432
  30
0.0
  40
 8.00000
   0
LINE
   8
LEVEL001
   6
DASHDOT
  62
1
  10
 124.371
  20
 104.371
  30
0.0
  11
 142.492
  21
 122.492
  31
0.0
   0
CIRCLE
   8
LEVEL001
   6
CONTINUOUS
  62
7
  10
 246.568
  20
 113.432
  30
0.0
  40
 7.00000
   0
CIRCLE
   8
LEVEL001
   6
CONTINUOUS
  62
3
  10
 246.568
  20
 113.432
  30
0.0
  40
 8.00000
   0
LINE
   8
LEVEL001
   6
DASHDOT
  62
1
  10
 255.629
  20
 104.371
  30
0.0
  11
 237.508
  21
 122.492
  31
0.0
   0
CIRCLE
   8
LEVEL001
   6
CONTINUOUS
  62
7
  10
 246.568
  20
 226.568
  30
0.0
  40
 7.00000
   0
CIRCLE
   8
LEVEL001
   6
CONTINUOUS
  62
3
  10
 246.568
  20
 226.568
  30
0.0
  40
 8.00000
   0
LINE
   8
LEVEL001
   6
DASHDOT
  62
1
  10
 255.629
  20
 235.629
  30
0.0
  11
 237.508
  21
 217.508
  31
0.0
   0
CIRCLE
   8
LEVEL001
   6
CONTINUOUS
  62
7
  10
 133.432
  20
 226.568
  30
0.0
  40
 7.00000
   0
CIRCLE
   8
LEVEL001
   6
CONTINUOUS
  62
3
  10
 133.432
  20
 226.568
  30
0.0
  40
 8.00000
   0
LINE
   8
LEVEL001
   6
DASHDOT
  62
1
  10
 124.371
  20
 235.629
  30
0.0
  11
 142.492
  21
 217.508
  31
0.0
   0
TEXT
   8
LEVEL003
  62
3
  10
 310.000
  20
 380.000
  30
0.0
  40
 8.00000
   1
４－Ｍ１６×２５Ｌ
   7
STANDARD
   0
LINE
   8
LEVEL003
   6
CONTINUOUS
  62
3
  10
 270.000
  20
 400.000
  30
0.0
  11
 300.000
  21
 380.000
  31
0.0
   0
LINE
   8
LEVEL003
   6
CONTINUOUS
  62
3
  10
 270.000
  20
 400.000
  30
0.0
  11
 274.405
  21
 395.792
  31
0.0
   0
LINE
   8
LEVEL003
   6
CONTINUOUS
  62
3
  10
 270.000
  20
 400.000
  30
0.0
  11
 275.579
  21
 397.552
  31
0.0
   0
LINE
   8
LEVEL001
   6
CONTINUOUS
  62
7
  10
 325.000
  20
 488.643
  30
0.0
  11
 315.000
  21
 488.331
  31
0.0
   0
LINE
   8
LEVEL001
   6
CONTINUOUS
  62
7
  10
 325.000
  20
 471.356
  30
0.0
  11
 315.000
  21
 471.669
  31
0.0
   0
LINE
   8
LEVEL001
   6
CONTINUOUS
  62
3
  10
 321.384
  20
 487.674
  30
0.0
  11
 315.000
  21
 487.475
  31
0.0
   0
LINE
   8
LEVEL001
   6
CONTINUOUS
  62
3
  10
 321.384
  20
 472.325
  30
0.0
  11
 315.000
  21
 472.525
  31
0.0
   0
LINE
   8
LEVEL001
   6
DASHDOT
  62
1
  10
 420.000
  20
 480.000
  30
0.0
  11
 310.000
  21
 480.000
  31
0.0
   0
LINE
   8
LEVEL001
   6
CONTINUOUS
  62
7
  10
 315.000
  20
 402.000
  30
0.0
  11
 65.0000
  21
 402.000
  31
0.0
   0
LINE
   8
LEVEL001
   6
DASHDOT
  62
1
  10
 54.7236
  20
 170.000
  30
0.0
  11
 420.000
  21
 170.000
  31
0.0
   0
LINE
   8
LEVEL001
   6
CONTINUOUS
  62
3
  10
 361.091
  20
 160.494
  30
0.0
  11
 361.091
  21
 179.506
  31
0.0
   0
LINE
   8
LEVEL001
   6
CONTINUOUS
  62
3
  10
 366.000
  20
 180.821
  30
0.0
  11
 361.091
  21
 179.506
  31
0.0
   0
LINE
   8
LEVEL001
   6
CONTINUOUS
  62
3
  10
 366.000
  20
 159.179
  30
0.0
  11
 361.091
  21
 160.494
  31
0.0
   0
LINE
   8
LEVEL001
   6
CONTINUOUS
  62
7
  10
 366.000
  20
 180.821
  30
0.0
  11
 366.000
  21
 159.179
  31
0.0
   0
ARC
   8
LEVEL001
   6
CONTINUOUS
  62
7
  10
 386.200
  20
 186.000
  30
0.0
  40
 2.00000
  50
 90.0000
  51
 180.000
   0
LINE
   8
LEVEL001
   6
CONTINUOUS
  62
7
  10
 386.200
  20
 188.000
  30
0.0
  11
 392.200
  21
 188.000
  31
0.0
   0
ARC
   8
LEVEL001
   6
CONTINUOUS
  62
7
  10
 408.200
  20
 187.000
  30
0.0
  40
 1.00000
  50
0.0
  51
 90.0000
   0
LINE
   8
LEVEL001
   6
CONTINUOUS
  62
7
  10
 402.200
  20
 188.000
  30
0.0
  11
 408.200
  21
 188.000
  31
0.0
   0
ARC
   8
LEVEL001
   6
CONTINUOUS
  62
7
  10
 386.200
  20
 154.000
  30
0.0
  40
 2.00000
  50
 180.000
  51
 270.000
   0
LINE
   8
LEVEL001
   6
CONTINUOUS
  62
7
  10
 386.200
  20
 152.000
  30
0.0
  11
 392.200
  21
 152.000
  31
0.0
   0
ARC
   8
LEVEL001
   6
CONTINUOUS
  62
7
  10
 408.200
  20
 153.000
  30
0.0
  40
 1.00000
  50
 270.000
  51
 0.296377E-9
   0
LINE
   8
LEVEL001
   6
CONTINUOUS
  62
7
  10
 402.200
  20
 152.000
  30
0.0
  11
 408.200
  21
 152.000
  31
0.0
   0
LINE
   8
LEVEL001
   6
CONTINUOUS
  62
7
  10
 384.200
  20
 154.000
  30
0.0
  11
 384.200
  21
 186.000
  31
0.0
   0
LINE
   8
LEVEL001
   6
CONTINUOUS
  62
7
  10
 409.200
  20
 187.000
  30
0.0
  11
 409.200
  21
 153.000
  31
0.0
   0
LINE
   8
LEVEL001
   6
CONTINUOUS
  62
7
  10
 368.042
  20
 180.500
  30
0.0
  11
 368.042
  21
 159.500
  31
0.0
   0
LINE
   8
LEVEL001
   6
CONTINUOUS
  62
3
  10
 392.200
  20
 153.500
  30
0.0
  11
 402.200
  21
 153.500
  31
0.0
   0
LINE
   8
LEVEL001
   6
CONTINUOUS
  62
3
  10
 392.200
  20
 155.500
  30
0.0
  11
 402.200
  21
 155.500
  31
0.0
   0
LINE
   8
LEVEL001
   6
CONTINUOUS
  62
3
  10
 392.200
  20
 157.500
  30
0.0
  11
 402.200
  21
 157.500
  31
0.0
   0
LINE
   8
LEVEL001
   6
CONTINUOUS
  62
3
  10
 392.200
  20
 159.500
  30
0.0
  11
 402.200
  21
 159.500
  31
0.0
   0
LINE
   8
LEVEL001
   6
CONTINUOUS
  62
3
  10
 392.200
  20
 161.500
  30
0.0
  11
 402.200
  21
 161.500
  31
0.0
   0
LINE
   8
LEVEL001
   6
CONTINUOUS
  62
3
  10
 392.200
  20
 163.500
  30
0.0
  11
 402.200
  21
 163.500
  31
0.0
   0
LINE
   8
LEVEL001
   6
CONTINUOUS
  62
3
  10
 392.200
  20
 165.500
  30
0.0
  11
 402.200
  21
 165.500
  31
0.0
   0
LINE
   8
LEVEL001
   6
CONTINUOUS
  62
3
  10
 392.200
  20
 167.500
  30
0.0
  11
 402.200
  21
 167.500
  31
0.0
   0
LINE
   8
LEVEL001
   6
CONTINUOUS
  62
3
  10
 392.200
  20
 169.500
  30
0.0
  11
 402.200
  21
 169.500
  31
0.0
   0
LINE
   8
LEVEL001
   6
CONTINUOUS
  62
3
  10
 392.200
  20
 171.500
  30
0.0
  11
 402.200
  21
 171.500
  31
0.0
   0
LINE
   8
LEVEL001
   6
CONTINUOUS
  62
3
  10
 392.200
  20
 173.500
  30
0.0
  11
 402.200
  21
 173.500
  31
0.0
   0
LINE
   8
LEVEL001
   6
CONTINUOUS
  62
3
  10
 392.200
  20
 175.500
  30
0.0
  11
 402.200
  21
 175.500
  31
0.0
   0
LINE
   8
LEVEL001
   6
CONTINUOUS
  62
3
  10
 392.200
  20
 177.500
  30
0.0
  11
 402.200
  21
 177.500
  31
0.0
   0
LINE
   8
LEVEL001
   6
CONTINUOUS
  62
3
  10
 392.200
  20
 179.500
  30
0.0
  11
 402.200
  21
 179.500
  31
0.0
   0
LINE
   8
LEVEL001
   6
CONTINUOUS
  62
3
  10
 392.200
  20
 181.500
  30
0.0
  11
 402.200
  21
 181.500
  31
0.0
   0
LINE
   8
LEVEL001
   6
CONTINUOUS
  62
3
  10
 392.200
  20
 183.500
  30
0.0
  11
 402.200
  21
 183.500
  31
0.0
   0
LINE
   8
LEVEL001
   6
CONTINUOUS
  62
3
  10
 392.200
  20
 185.500
  30
0.0
  11
 402.200
  21
 185.500
  31
0.0
   0
LINE
   8
LEVEL001
   6
CONTINUOUS
  62
3
  10
 392.200
  20
 187.500
  30
0.0
  11
 402.200
  21
 187.500
  31
0.0
   0
LINE
   8
LEVEL001
   6
CONTINUOUS
  62
7
  10
 366.000
  20
 180.821
  30
0.0
  11
 355.000
  21
 180.477
  31
0.0
   0
LINE
   8
LEVEL001
   6
CONTINUOUS
  62
7
  10
 366.000
  20
 159.179
  30
0.0
  11
 355.000
  21
 159.523
  31
0.0
   0
LINE
   8
LEVEL001
   6
CONTINUOUS
  62
3
  10
 361.091
  20
 179.506
  30
0.0
  11
 355.000
  21
 179.316
  31
0.0
   0
LINE
   8
LEVEL001
   6
CONTINUOUS
  62
3
  10
 361.091
  20
 160.494
  30
0.0
  11
 355.000
  21
 160.685
  31
0.0
   0
LINE
   8
LEVEL001
   6
CONTINUOUS
  62
7
  10
 366.000
  20
 180.500
  30
0.0
  11
 377.000
  21
 180.500
  31
0.0
   0
LINE
   8
LEVEL001
   6
CONTINUOUS
  62
7
  10
 377.000
  20
 180.500
  30
0.0
  11
 377.000
  21
 182.000
  31
0.0
   0
LINE
   8
LEVEL001
   6
CONTINUOUS
  62
7
  10
 377.000
  20
 182.000
  30
0.0
  11
 384.200
  21
 182.000
  31
0.0
   0
LINE
   8
LEVEL001
   6
CONTINUOUS
  62
7
  10
 366.000
  20
 159.500
  30
0.0
  11
 377.000
  21
 159.500
  31
0.0
   0
LINE
   8
LEVEL001
   6
CONTINUOUS
  62
7
  10
 377.000
  20
 159.500
  30
0.0
  11
 377.000
  21
 158.000
  31
0.0
   0
LINE
   8
LEVEL001
   6
CONTINUOUS
  62
7
  10
 377.000
  20
 158.000
  30
0.0
  11
 384.200
  21
 158.000
  31
0.0
   0
LINE
   8
LEVEL001
   6
CONTINUOUS
  62
7
  10
 392.200
  20
 151.500
  30
0.0
  11
 392.200
  21
 188.500
  31
0.0
   0
LINE
   8
LEVEL001
   6
CONTINUOUS
  62
7
  10
 392.200
  20
 188.500
  30
0.0
  11
 402.200
  21
 188.500
  31
0.0
   0
LINE
   8
LEVEL001
   6
CONTINUOUS
  62
7
  10
 402.200
  20
 188.500
  30
0.0
  11
 402.200
  21
 151.500
  31
0.0
   0
LINE
   8
LEVEL001
   6
CONTINUOUS
  62
7
  10
 402.200
  20
 151.500
  30
0.0
  11
 392.200
  21
 151.500
  31
0.0
   0
LINE
   8
LEVEL001
   6
DASHDOT
  62
1
  10
 409.200
  20
 187.000
  30
0.0
  11
 409.200
  21
 188.000
  31
0.0
   0
LINE
   8
LEVEL001
   6
DASHDOT
  62
1
  10
 409.200
  20
 188.000
  30
0.0
  11
 417.200
  21
 188.000
  31
0.0
   0
LINE
   8
LEVEL001
   6
DASHDOT
  62
1
  10
 417.200
  20
 188.000
  30
0.0
  11
 417.200
  21
 152.000
  31
0.0
   0
LINE
   8
LEVEL001
   6
DASHDOT
  62
1
  10
 417.200
  20
 152.000
  30
0.0
  11
 409.200
  21
 152.000
  31
0.0
   0
LINE
   8
LEVEL001
   6
DASHDOT
  62
1
  10
 409.200
  20
 152.000
  30
0.0
  11
 409.200
  21
 153.000
  31
0.0
   0
LINE
   8
LEVEL003
   6
CONTINUOUS
  62
7
  10
 146.000
  20
 23.5000
  30
0.0
  11
 179.000
  21
 23.5000
  31
0.0
   0
LINE
   8
LEVEL003
   6
CONTINUOUS
  62
7
  10
 201.000
  20
 23.5000
  30
0.0
  11
 234.000
  21
 23.5000
  31
0.0
   0
LINE
   8
LEVEL003
   6
CONTINUOUS
  62
7
  10
 179.000
  20
 16.0000
  30
0.0
  11
 201.000
  21
 16.0000
  31
0.0
   0
CIRCLE
   8
LEVEL003
   6
CONTINUOUS
  62
7
  10
 339.718
  20
 37.2707
  30
0.0
  40
 3.00000
   0
LINE
   8
LEVEL003
   6
CONTINUOUS
  62
7
  10
 345.606
  20
 40.2707
  30
0.0
  11
 341.797
  21
 33.6707
  31
0.0
   0
LINE
   8
LEVEL003
   6
CONTINUOUS
  62
7
  10
 341.797
  20
 33.6707
  30
0.0
  11
 334.176
  21
 33.6707
  31
0.0
   0
LINE
   8
LEVEL003
   6
CONTINUOUS
  62
7
  10
 333.309
  20
 32.1707
  30
0.0
  11
 346.930
  21
 32.1707
  31
0.0
   0
LINE
   8
LEVEL003
   6
CONTINUOUS
  62
7
  10
 346.930
  20
 32.1707
  30
0.0
  11
 351.606
  21
 40.2707
  31
0.0
   0
LINE
   8
LEVEL003
   6
CONTINUOUS
  62
7
  10
 351.606
  20
 40.2707
  30
0.0
  11
 345.606
  21
 40.2707
  31
0.0
   0
LINE
   8
LEVEL003
   6
CONTINUOUS
  62
7
  10
 334.176
  20
 33.6707
  30
0.0
  11
 333.309
  21
 32.1707
  31
0.0
   0
TEXT
   8
LEVEL003
  62
7
  10
 351.691
  20
 30.2200
  30
0.0
  40
 10.0000
   1
ＯＳＡＫＡ ＪＡＣＫ
   7
STANDARD
   0
LINE
   8
LEVEL003
   6
CONTINUOUS
  62
3
  10
 390.000
  20
 420.000
  30
0.0
  11
 435.011
  21
 420.000
  31
0.0
   0
LINE
   8
LEVEL003
   6
CONTINUOUS
  62
3
  10
 330.000
  20
 420.000
  30
0.0
  11
 384.470
  21
 420.000
  31
0.0
   0
LINE
   8
LEVEL003
   6
CONTINUOUS
  62
3
  10
 300.000
  20
 380.000
  30
0.0
  11
 393.757
  21
 380.000
  31
0.0
   0
LINE
   8
LEVEL001
   6
CONTINUOUS
  62
7
  10
 311.500
  20
 1000.00
  30
0.0
  11
 310.500
  21
 1001.00
  31
0.0
   0
LINE
   8
LEVEL001
   6
CONTINUOUS
  62
7
  10
 311.500
  20
 1000.00
  30
0.0
  11
 311.500
  21
 996.000
  31
0.0
   0
LINE
   8
LEVEL001
   6
CONTINUOUS
  62
7
  10
 313.000
  20
 996.000
  30
0.0
  11
 315.000
  21
 994.000
  31
0.0
   0
LINE
   8
LEVEL001
   6
CONTINUOUS
  62
7
  10
 315.000
  20
 994.000
  30
0.0
  11
 315.000
  21
 913.536
  31
0.0
   0
LINE
   8
LEVEL001
   6
CONTINUOUS
  62
3
  10
 313.000
  20
 921.000
  30
0.0
  11
 315.000
  21
 913.536
  31
0.0
   0
LINE
   8
LEVEL001
   6
DASHDOT
  62
1
  10
 313.000
  20
 996.000
  30
0.0
  11
 318.000
  21
 996.000
  31
0.0
   0
LINE
   8
LEVEL001
   6
DASHDOT
  62
1
  10
 318.000
  20
 996.000
  30
0.0
  11
 318.000
  21
 921.000
  31
0.0
   0
LINE
   8
LEVEL001
   6
DASHDOT
  62
1
  10
 318.000
  20
 921.000
  30
0.0
  11
 315.000
  21
 921.000
  31
0.0
   0
LINE
   8
LEVEL001
   6
CONTINUOUS
  62
7
  10
 251.500
  20
 1020.00
  30
0.0
  11
 253.500
  21
 1018.00
  31
0.0
   0
LINE
   8
LEVEL001
   6
CONTINUOUS
  62
7
  10
 253.500
  20
 1018.00
  30
0.0
  11
 253.500
  21
 1001.00
  31
0.0
   0
LINE
   8
LEVEL001
   6
CONTINUOUS
  62
7
  10
 68.5000
  20
 1000.00
  30
0.0
  11
 69.5000
  21
 1001.00
  31
0.0
   0
LINE
   8
LEVEL001
   6
CONTINUOUS
  62
7
  10
 68.5000
  20
 1000.00
  30
0.0
  11
 68.5000
  21
 996.000
  31
0.0
   0
LINE
   8
LEVEL001
   6
CONTINUOUS
  62
7
  10
 65.0000
  20
 913.536
  30
0.0
  11
 65.0000
  21
 402.000
  31
0.0
   0
LINE
   8
LEVEL001
   6
CONTINUOUS
  62
7
  10
 67.0000
  20
 996.000
  30
0.0
  11
 65.0000
  21
 994.000
  31
0.0
   0
LINE
   8
LEVEL001
   6
CONTINUOUS
  62
7
  10
 65.0000
  20
 994.000
  30
0.0
  11
 65.0000
  21
 913.536
  31
0.0
   0
LINE
   8
LEVEL001
   6
CONTINUOUS
  62
3
  10
 67.0000
  20
 921.000
  30
0.0
  11
 65.0000
  21
 913.536
  31
0.0
   0
LINE
   8
LEVEL001
   6
DASHDOT
  62
1
  10
 67.0000
  20
 996.000
  30
0.0
  11
 62.0000
  21
 996.000
  31
0.0
   0
LINE
   8
LEVEL001
   6
DASHDOT
  62
1
  10
 62.0000
  20
 996.000
  30
0.0
  11
 62.0000
  21
 921.000
  31
0.0
   0
LINE
   8
LEVEL001
   6
DASHDOT
  62
1
  10
 62.0000
  20
 921.000
  30
0.0
  11
 65.0000
  21
 921.000
  31
0.0
   0
LINE
   8
LEVEL001
   6
CONTINUOUS
  62
7
  10
 128.500
  20
 1020.00
  30
0.0
  11
 126.500
  21
 1018.00
  31
0.0
   0
LINE
   8
LEVEL001
   6
CONTINUOUS
  62
7
  10
 126.500
  20
 1018.00
  30
0.0
  11
 126.500
  21
 1001.00
  31
0.0
   0
LINE
   8
LEVEL001
   6
CONTINUOUS
  62
7
  10
 128.500
  20
 1020.00
  30
0.0
  11
 251.500
  21
 1020.00
  31
0.0
   0
LINE
   8
LEVEL001
   6
DASHDOT
  62
1
  10
 190.000
  20
 1030.00
  30
0.0
  11
 190.000
  21
 390.000
  31
0.0
   0
LINE
   8
LEVEL001
   6
CONTINUOUS
  62
3
  10
 325.000
  20
 904.643
  30
0.0
  11
 321.384
  21
 903.674
  31
0.0
   0
LINE
   8
LEVEL001
   6
CONTINUOUS
  62
3
  10
 325.000
  20
 887.356
  30
0.0
  11
 321.384
  21
 888.325
  31
0.0
   0
LINE
   8
LEVEL001
   6
CONTINUOUS
  62
3
  10
 321.384
  20
 903.674
  30
0.0
  11
 321.384
  21
 888.325
  31
0.0
   0
ARC
   8
LEVEL001
   6
CONTINUOUS
  62
7
  10
 342.599
  20
 912.187
  30
0.0
  40
 17.6000
  50
 180.609
  51
 203.257
   0
ARC
   8
LEVEL001
   6
CONTINUOUS
  62
7
  10
 342.599
  20
 879.813
  30
0.0
  40
 17.6000
  50
 156.743
  51
 179.391
   0
ARC
   8
LEVEL001
   6
CONTINUOUS
  62
7
  10
 355.571
  20
 896.000
  30
0.0
  40
 30.5710
  50
 162.412
  51
 197.588
   0
LINE
   8
LEVEL001
   6
CONTINUOUS
  62
7
  10
 326.429
  20
 914.475
  30
0.0
  11
 325.000
  21
 912.000
  31
0.0
   0
LINE
   8
LEVEL001
   6
CONTINUOUS
  62
7
  10
 325.000
  20
 912.000
  30
0.0
  11
 325.000
  21
 880.000
  31
0.0
   0
LINE
   8
LEVEL001
   6
CONTINUOUS
  62
7
  10
 325.000
  20
 880.000
  30
0.0
  11
 326.429
  21
 877.525
  31
0.0
   0
LINE
   8
LEVEL001
   6
CONTINUOUS
  62
7
  10
 326.429
  20
 877.525
  30
0.0
  11
 353.571
  21
 877.525
  31
0.0
   0
LINE
   8
LEVEL001
   6
CONTINUOUS
  62
7
  10
 353.571
  20
 877.525
  30
0.0
  11
 355.000
  21
 880.000
  31
0.0
   0
LINE
   8
LEVEL001
   6
CONTINUOUS
  62
7
  10
 355.000
  20
 880.000
  30
0.0
  11
 355.000
  21
 912.000
  31
0.0
   0
LINE
   8
LEVEL001
   6
CONTINUOUS
  62
7
  10
 355.000
  20
 912.000
  30
0.0
  11
 353.571
  21
 914.475
  31
0.0
   0
LINE
   8
LEVEL001
   6
CONTINUOUS
  62
7
  10
 353.571
  20
 914.475
  30
0.0
  11
 326.429
  21
 914.475
  31
0.0
   0
ARC
   8
LEVEL001
   6
CONTINUOUS
  62
7
  10
 337.401
  20
 879.813
  30
0.0
  40
 17.6000
  50
 0.608626
  51
 23.2566
   0
ARC
   8
LEVEL001
   6
CONTINUOUS
  62
7
  10
 337.401
  20
 912.187
  30
0.0
  40
 17.6000
  50
 336.743
  51
 359.391
   0
ARC
   8
LEVEL001
   6
CONTINUOUS
  62
7
  10
 324.429
  20
 896.000
  30
0.0
  40
 30.5710
  50
 342.412
  51
 17.5880
   0
LINE
   8
LEVEL001
   6
CONTINUOUS
  62
7
  10
 326.429
  20
 905.238
  30
0.0
  11
 353.571
  21
 905.238
  31
0.0
   0
LINE
   8
LEVEL001
   6
CONTINUOUS
  62
7
  10
 326.429
  20
 886.762
  30
0.0
  11
 353.571
  21
 886.762
  31
0.0
   0
LINE
   8
LEVEL001
   6
CONTINUOUS
  62
3
  10
 361.091
  20
 886.494
  30
0.0
  11
 361.091
  21
 905.506
  31
0.0
   0
LINE
   8
LEVEL001
   6
CONTINUOUS
  62
3
  10
 366.000
  20
 906.821
  30
0.0
  11
 361.091
  21
 905.506
  31
0.0
   0
LINE
   8
LEVEL001
   6
CONTINUOUS
  62
3
  10
 366.000
  20
 885.179
  30
0.0
  11
 361.091
  21
 886.494
  31
0.0
   0
LINE
   8
LEVEL001
   6
CONTINUOUS
  62
7
  10
 366.000
  20
 906.821
  30
0.0
  11
 366.000
  21
 885.179
  31
0.0
   0
LINE
   8
LEVEL001
   6
CONTINUOUS
  62
7
  10
 368.042
  20
 908.000
  30
0.0
  11
 384.200
  21
 908.000
  31
0.0
   0
LINE
   8
LEVEL001
   6
CONTINUOUS
  62
7
  10
 366.000
  20
 885.179
  30
0.0
  11
 368.042
  21
 884.000
  31
0.0
   0
LINE
   8
LEVEL001
   6
CONTINUOUS
  62
7
  10
 368.042
  20
 884.000
  30
0.0
  11
 384.200
  21
 884.000
  31
0.0
   0
LINE
   8
LEVEL001
   6
CONTINUOUS
  62
7
  10
 366.000
  20
 906.821
  30
0.0
  11
 368.042
  21
 908.000
  31
0.0
   0
ARC
   8
LEVEL001
   6
CONTINUOUS
  62
7
  10
 386.200
  20
 912.000
  30
0.0
  40
 2.00000
  50
 90.0000
  51
 180.000
   0
LINE
   8
LEVEL001
   6
CONTINUOUS
  62
7
  10
 386.200
  20
 914.000
  30
0.0
  11
 392.200
  21
 914.000
  31
0.0
   0
ARC
   8
LEVEL001
   6
CONTINUOUS
  62
7
  10
 408.200
  20
 913.000
  30
0.0
  40
 1.00000
  50
0.0
  51
 90.0000
   0
LINE
   8
LEVEL001
   6
CONTINUOUS
  62
7
  10
 402.200
  20
 914.000
  30
0.0
  11
 408.200
  21
 914.000
  31
0.0
   0
ARC
   8
LEVEL001
   6
CONTINUOUS
  62
7
  10
 386.200
  20
 880.000
  30
0.0
  40
 2.00000
  50
 180.000
  51
 270.000
   0
LINE
   8
LEVEL001
   6
CONTINUOUS
  62
7
  10
 386.200
  20
 878.000
  30
0.0
  11
 392.200
  21
 878.000
  31
0.0
   0
ARC
   8
LEVEL001
   6
CONTINUOUS
  62
7
  10
 408.200
  20
 879.000
  30
0.0
  40
 1.00000
  50
 270.000
  51
0.0
   0
LINE
   8
LEVEL001
   6
CONTINUOUS
  62
7
  10
 402.200
  20
 878.000
  30
0.0
  11
 408.200
  21
 878.000
  31
0.0
   0
LINE
   8
LEVEL001
   6
CONTINUOUS
  62
7
  10
 384.200
  20
 880.000
  30
0.0
  11
 384.200
  21
 912.000
  31
0.0
   0
LINE
   8
LEVEL001
   6
CONTINUOUS
  62
7
  10
 409.200
  20
 913.000
  30
0.0
  11
 409.200
  21
 879.000
  31
0.0
   0
LINE
   8
LEVEL001
   6
CONTINUOUS
  62
7
  10
 368.042
  20
 908.000
  30
0.0
  11
 368.042
  21
 901.809
  31
0.0
   0
LINE
   8
LEVEL001
   6
CONTINUOUS
  62
7
  10
 368.042
  20
 890.190
  30
0.0
  11
 368.042
  21
 884.000
  31
0.0
   0
LINE
   8
LEVEL001
   6
CONTINUOUS
  62
7
  10
 368.042
  20
 890.190
  30
0.0
  11
 377.000
  21
 901.809
  31
0.0
   0
LINE
   8
LEVEL001
   6
CONTINUOUS
  62
7
  10
 368.042
  20
 901.809
  30
0.0
  11
 377.000
  21
 890.190
  31
0.0
   0
LINE
   8
LEVEL001
   6
DASHDOT
  62
1
  10
 409.200
  20
 914.000
  30
0.0
  11
 417.200
  21
 914.000
  31
0.0
   0
LINE
   8
LEVEL001
   6
DASHDOT
  62
1
  10
 409.200
  20
 878.000
  30
0.0
  11
 417.200
  21
 878.000
  31
0.0
   0
LINE
   8
LEVEL001
   6
DASHDOT
  62
1
  10
 417.200
  20
 914.000
  30
0.0
  11
 417.200
  21
 878.000
  31
0.0
   0
LINE
   8
LEVEL001
   6
DASHDOT
  62
1
  10
 409.200
  20
 913.000
  30
0.0
  11
 409.200
  21
 914.000
  31
0.0
   0
LINE
   8
LEVEL001
   6
DASHDOT
  62
1
  10
 409.200
  20
 879.000
  30
0.0
  11
 409.200
  21
 878.000
  31
0.0
   0
LINE
   8
LEVEL001
   6
CONTINUOUS
  62
3
  10
 392.200
  20
 879.500
  30
0.0
  11
 402.200
  21
 879.500
  31
0.0
   0
LINE
   8
LEVEL001
   6
CONTINUOUS
  62
3
  10
 392.200
  20
 881.500
  30
0.0
  11
 402.200
  21
 881.500
  31
0.0
   0
LINE
   8
LEVEL001
   6
CONTINUOUS
  62
3
  10
 392.200
  20
 883.500
  30
0.0
  11
 402.200
  21
 883.500
  31
0.0
   0
LINE
   8
LEVEL001
   6
CONTINUOUS
  62
3
  10
 392.200
  20
 885.500
  30
0.0
  11
 402.200
  21
 885.500
  31
0.0
   0
LINE
   8
LEVEL001
   6
CONTINUOUS
  62
3
  10
 392.200
  20
 887.500
  30
0.0
  11
 402.200
  21
 887.500
  31
0.0
   0
LINE
   8
LEVEL001
   6
CONTINUOUS
  62
3
  10
 392.200
  20
 889.500
  30
0.0
  11
 402.200
  21
 889.500
  31
0.0
   0
LINE
   8
LEVEL001
   6
CONTINUOUS
  62
3
  10
 392.200
  20
 891.500
  30
0.0
  11
 402.200
  21
 891.500
  31
0.0
   0
LINE
   8
LEVEL001
   6
CONTINUOUS
  62
3
  10
 392.200
  20
 893.500
  30
0.0
  11
 402.200
  21
 893.500
  31
0.0
   0
LINE
   8
LEVEL001
   6
CONTINUOUS
  62
3
  10
 392.200
  20
 895.500
  30
0.0
  11
 402.200
  21
 895.500
  31
0.0
   0
LINE
   8
LEVEL001
   6
CONTINUOUS
  62
3
  10
 392.200
  20
 897.500
  30
0.0
  11
 402.200
  21
 897.500
  31
0.0
   0
LINE
   8
LEVEL001
   6
CONTINUOUS
  62
3
  10
 392.200
  20
 899.500
  30
0.0
  11
 402.200
  21
 899.500
  31
0.0
   0
LINE
   8
LEVEL001
   6
CONTINUOUS
  62
3
  10
 392.200
  20
 901.500
  30
0.0
  11
 402.200
  21
 901.500
  31
0.0
   0
LINE
   8
LEVEL001
   6
CONTINUOUS
  62
3
  10
 392.200
  20
 903.500
  30
0.0
  11
 402.200
  21
 903.500
  31
0.0
   0
LINE
   8
LEVEL001
   6
CONTINUOUS
  62
3
  10
 392.200
  20
 905.500
  30
0.0
  11
 402.200
  21
 905.500
  31
0.0
   0
LINE
   8
LEVEL001
   6
CONTINUOUS
  62
3
  10
 392.200
  20
 907.500
  30
0.0
  11
 402.200
  21
 907.500
  31
0.0
   0
LINE
   8
LEVEL001
   6
CONTINUOUS
  62
3
  10
 392.200
  20
 909.500
  30
0.0
  11
 402.200
  21
 909.500
  31
0.0
   0
LINE
   8
LEVEL001
   6
CONTINUOUS
  62
3
  10
 392.200
  20
 911.500
  30
0.0
  11
 402.200
  21
 911.500
  31
0.0
   0
LINE
   8
LEVEL001
   6
CONTINUOUS
  62
3
  10
 392.200
  20
 913.500
  30
0.0
  11
 402.200
  21
 913.500
  31
0.0
   0
LINE
   8
LEVEL001
   6
CONTINUOUS
  62
7
  10
 366.000
  20
 906.821
  30
0.0
  11
 355.000
  21
 906.477
  31
0.0
   0
LINE
   8
LEVEL001
   6
CONTINUOUS
  62
7
  10
 366.000
  20
 885.179
  30
0.0
  11
 355.000
  21
 885.522
  31
0.0
   0
LINE
   8
LEVEL001
   6
CONTINUOUS
  62
3
  10
 361.091
  20
 905.506
  30
0.0
  11
 355.000
  21
 905.315
  31
0.0
   0
LINE
   8
LEVEL001
   6
CONTINUOUS
  62
3
  10
 361.091
  20
 886.494
  30
0.0
  11
 355.000
  21
 886.684
  31
0.0
   0
LINE
   8
LEVEL003
   6
CONTINUOUS
  62
3
  10
 232.750
  20
 1001.00
  30
0.0
  11
 216.000
  21
 1001.00
  31
0.0
   0
LINE
   8
LEVEL003
   6
CONTINUOUS
  62
3
  10
 220.000
  20
 946.000
  30
0.0
  11
 220.000
  21
 1001.00
  31
0.0
   0
LINE
   8
LEVEL003
   6
CONTINUOUS
  62
3
  10
 220.000
  20
 946.000
  30
0.0
  11
 221.058
  21
 952.000
  31
0.0
   0
LINE
   8
LEVEL003
   6
CONTINUOUS
  62
3
  10
 220.000
  20
 946.000
  30
0.0
  11
 218.942
  21
 952.000
  31
0.0
   0
LINE
   8
LEVEL003
   6
CONTINUOUS
  62
3
  10
 220.000
  20
 1001.00
  30
0.0
  11
 218.942
  21
 995.000
  31
0.0
   0
LINE
   8
LEVEL003
   6
CONTINUOUS
  62
3
  10
 220.000
  20
 1001.00
  30
0.0
  11
 221.058
  21
 995.000
  31
0.0
   0
TEXT
   8
LEVEL003
  62
3
  10
 218.400
  20
 974.500
  30
0.0
  40
 8.00000
   1
55
  50
 90.0000
  41
 0.500000
   7
STANDARD
  72
1
  11
 218.400
  21
 978.500
  31
0.0
   0
TEXT
   8
LEVEL003
  62
3
  10
 270.000
  20
 1030.00
  30
0.0
  40
 8.00000
   1
Ｍ９０×３
   7
STANDARD
   0
LINE
   8
LEVEL003
   6
CONTINUOUS
  62
3
  10
 253.500
  20
 1020.00
  30
0.0
  11
 464.000
  21
 1020.00
  31
0.0
   0
LINE
   8
LEVEL003
   6
CONTINUOUS
  62
3
  10
 460.000
  20
 400.000
  30
0.0
  11
 460.000
  21
 1020.00
  31
0.0
   0
LINE
   8
LEVEL003
   6
CONTINUOUS
  62
3
  10
 460.000
  20
 1020.00
  30
0.0
  11
 458.942
  21
 1014.00
  31
0.0
   0
LINE
   8
LEVEL003
   6
CONTINUOUS
  62
3
  10
 460.000
  20
 1020.00
  30
0.0
  11
 461.058
  21
 1014.00
  31
0.0
   0
LINE
   8
LEVEL003
   6
CONTINUOUS
  62
3
  10
 253.500
  20
 1020.00
  30
0.0
  11
 444.000
  21
 1020.00
  31
0.0
   0
LINE
   8
LEVEL003
   6
CONTINUOUS
  62
3
  10
 312.500
  20
 1001.00
  30
0.0
  11
 444.000
  21
 1001.00
  31
0.0
   0
LINE
   8
LEVEL003
   6
CONTINUOUS
  62
3
  10
 440.000
  20
 1020.00
  30
0.0
  11
 440.000
  21
 1001.00
  31
0.0
   0
LINE
   8
LEVEL003
   6
CONTINUOUS
  62
3
  10
 440.000
  20
 1020.00
  30
0.0
  11
 438.942
  21
 1014.00
  31
0.0
   0
LINE
   8
LEVEL003
   6
CONTINUOUS
  62
3
  10
 440.000
  20
 1020.00
  30
0.0
  11
 441.058
  21
 1014.00
  31
0.0
   0
LINE
   8
LEVEL003
   6
CONTINUOUS
  62
3
  10
 440.000
  20
 1001.00
  30
0.0
  11
 441.058
  21
 1007.00
  31
0.0
   0
LINE
   8
LEVEL003
   6
CONTINUOUS
  62
3
  10
 440.000
  20
 1001.00
  30
0.0
  11
 438.942
  21
 1007.00
  31
0.0
   0
TEXT
   8
LEVEL003
  62
3
  10
 438.400
  20
 1006.50
  30
0.0
  40
 8.00000
   1
19
  50
 90.0000
  41
 0.500000
   7
STANDARD
  72
1
  11
 438.400
  21
 1010.50
  31
0.0
   0
LINE
   8
LEVEL003
   6
CONTINUOUS
  62
3
  10
 312.500
  20
 1001.00
  30
0.0
  11
 444.000
  21
 1001.00
  31
0.0
   0
LINE
   8
LEVEL003
   6
CONTINUOUS
  62
3
  10
 422.000
  20
 896.000
  30
0.0
  11
 444.000
  21
 896.000
  31
0.0
   0
LINE
   8
LEVEL003
   6
CONTINUOUS
  62
3
  10
 440.000
  20
 1001.00
  30
0.0
  11
 440.000
  21
 896.000
  31
0.0
   0
LINE
   8
LEVEL003
   6
CONTINUOUS
  62
3
  10
 440.000
  20
 1001.00
  30
0.0
  11
 438.942
  21
 995.000
  31
0.0
   0
LINE
   8
LEVEL003
   6
CONTINUOUS
  62
3
  10
 440.000
  20
 1001.00
  30
0.0
  11
 441.058
  21
 995.000
  31
0.0
   0
LINE
   8
LEVEL003
   6
CONTINUOUS
  62
3
  10
 440.000
  20
 896.000
  30
0.0
  11
 441.058
  21
 902.000
  31
0.0
   0
LINE
   8
LEVEL003
   6
CONTINUOUS
  62
3
  10
 440.000
  20
 896.000
  30
0.0
  11
 438.942
  21
 902.000
  31
0.0
   0
TEXT
   8
LEVEL003
  62
3
  10
 438.400
  20
 942.500
  30
0.0
  40
 8.00000
   1
105
  50
 90.0000
  41
 0.500000
   7
STANDARD
  72
1
  11
 438.400
  21
 948.500
  31
0.0
   0
LINE
   8
LEVEL003
   6
CONTINUOUS
  62
3
  10
 312.500
  20
 1001.00
  30
0.0
  11
 404.000
  21
 1001.00
  31
0.0
   0
LINE
   8
LEVEL003
   6
CONTINUOUS
  62
3
  10
 320.000
  20
 921.000
  30
0.0
  11
 404.000
  21
 921.000
  31
0.0
   0
LINE
   8
LEVEL003
   6
CONTINUOUS
  62
3
  10
 400.000
  20
 1001.00
  30
0.0
  11
 400.000
  21
 921.000
  31
0.0
   0
LINE
   8
LEVEL003
   6
CONTINUOUS
  62
3
  10
 400.000
  20
 1001.00
  30
0.0
  11
 398.942
  21
 995.000
  31
0.0
   0
LINE
   8
LEVEL003
   6
CONTINUOUS
  62
3
  10
 400.000
  20
 1001.00
  30
0.0
  11
 401.058
  21
 995.000
  31
0.0
   0
LINE
   8
LEVEL003
   6
CONTINUOUS
  62
3
  10
 400.000
  20
 921.000
  30
0.0
  11
 401.058
  21
 927.000
  31
0.0
   0
LINE
   8
LEVEL003
   6
CONTINUOUS
  62
3
  10
 400.000
  20
 921.000
  30
0.0
  11
 398.942
  21
 927.000
  31
0.0
   0
TEXT
   8
LEVEL003
  62
3
  10
 398.400
  20
 957.000
  30
0.0
  40
 8.00000
   1
80
  50
 90.0000
  41
 0.500000
   7
STANDARD
  72
1
  11
 398.400
  21
 961.000
  31
0.0
   0
LINE
   8
LEVEL003
   6
CONTINUOUS
  62
3
  10
 312.500
  20
 1001.00
  30
0.0
  11
 384.000
  21
 1001.00
  31
0.0
   0
LINE
   8
LEVEL003
   6
CONTINUOUS
  62
3
  10
 320.000
  20
 996.000
  30
0.0
  11
 384.000
  21
 996.000
  31
0.0
   0
LINE
   8
LEVEL003
   6
CONTINUOUS
  62
3
  10
 380.000
  20
 1001.00
  30
0.0
  11
 380.000
  21
 996.000
  31
0.0
   0
LINE
   8
LEVEL003
   6
CONTINUOUS
  62
3
  10
 380.000
  20
 996.000
  30
0.0
  11
 380.000
  21
 980.000
  31
0.0
   0
LINE
   8
LEVEL003
   6
CONTINUOUS
  62
3
  10
 380.000
  20
 1001.00
  30
0.0
  11
 381.058
  21
 1007.00
  31
0.0
   0
LINE
   8
LEVEL003
   6
CONTINUOUS
  62
3
  10
 380.000
  20
 1001.00
  30
0.0
  11
 378.942
  21
 1007.00
  31
0.0
   0
LINE
   8
LEVEL003
   6
CONTINUOUS
  62
3
  10
 380.000
  20
 996.000
  30
0.0
  11
 378.942
  21
 990.000
  31
0.0
   0
LINE
   8
LEVEL003
   6
CONTINUOUS
  62
3
  10
 380.000
  20
 996.000
  30
0.0
  11
 381.058
  21
 990.000
  31
0.0
   0
LINE
   8
LEVEL003
   6
CONTINUOUS
  62
3
  10
 380.000
  20
 1001.00
  30
0.0
  11
 380.000
  21
 1008.50
  31
0.0
   0
LINE
   8
LEVEL003
   6
CONTINUOUS
  62
3
  10
 380.000
  20
 996.000
  30
0.0
  11
 380.000
  21
 980.000
  31
0.0
   0
TEXT
   8
LEVEL003
  62
3
  10
 378.400
  20
 982.000
  30
0.0
  40
 8.00000
   1
5
  50
 90.0000
  41
 0.500000
   7
STANDARD
  72
1
  11
 378.400
  21
 984.000
  31
0.0
   0
TEXT
   8
LEVEL003
  62
3
  10
 340.000
  20
 940.000
  30
0.0
  40
 8.00000
   1
Ｍ２５０×４
   7
STANDARD
   0
LINE
   8
LEVEL003
   6
CONTINUOUS
  62
3
  10
 315.000
  20
 960.000
  30
0.0
  11
 340.000
  21
 940.000
  31
0.0
   0
LINE
   8
LEVEL003
   6
CONTINUOUS
  62
3
  10
 315.000
  20
 960.000
  30
0.0
  11
 319.024
  21
 955.426
  31
0.0
   0
LINE
   8
LEVEL003
   6
CONTINUOUS
  62
3
  10
 315.000
  20
 960.000
  30
0.0
  11
 320.346
  21
 957.078
  31
0.0
   0
LINE
   8
LEVEL003
   6
CONTINUOUS
  62
3
  10
 235.000
  20
 960.000
  30
0.0
  11
 270.000
  21
 1030.00
  31
0.0
   0
LINE
   8
LEVEL003
   6
CONTINUOUS
  62
3
  10
 235.000
  20
 960.000
  30
0.0
  11
 238.630
  21
 964.893
  31
0.0
   0
LINE
   8
LEVEL003
   6
CONTINUOUS
  62
3
  10
 235.000
  20
 960.000
  30
0.0
  11
 236.737
  21
 965.840
  31
0.0
   0
LINE
   8
LEVEL003
   6
CONTINUOUS
  62
3
  10
 126.500
  20
 1020.00
  30
0.0
  11
 126.500
  21
 1064.00
  31
0.0
   0
LINE
   8
LEVEL003
   6
CONTINUOUS
  62
3
  10
 253.500
  20
 1020.00
  30
0.0
  11
 253.500
  21
 1064.00
  31
0.0
   0
LINE
   8
LEVEL003
   6
CONTINUOUS
  62
3
  10
 126.500
  20
 1060.00
  30
0.0
  11
 253.500
  21
 1060.00
  31
0.0
   0
LINE
   8
LEVEL003
   6
CONTINUOUS
  62
3
  10
 126.500
  20
 1060.00
  30
0.0
  11
 132.500
  21
 1058.94
  31
0.0
   0
LINE
   8
LEVEL003
   6
CONTINUOUS
  62
3
  10
 126.500
  20
 1060.00
  30
0.0
  11
 132.500
  21
 1061.06
  31
0.0
   0
LINE
   8
LEVEL003
   6
CONTINUOUS
  62
3
  10
 253.500
  20
 1060.00
  30
0.0
  11
 247.500
  21
 1061.06
  31
0.0
   0
LINE
   8
LEVEL003
   6
CONTINUOUS
  62
3
  10
 253.500
  20
 1060.00
  30
0.0
  11
 247.500
  21
 1058.94
  31
0.0
   0
TEXT
   8
LEVEL003
  62
3
  10
 180.000
  20
 1061.60
  30
0.0
  40
 8.00000
   1
%%c127
   7
STANDARD
  72
1
  11
 190.000
  21
 1061.60
  31
0.0
   0
LINE
   8
LEVEL001
   6
CONTINUOUS
  62
7
  10
 366.000
  20
 898.617
  30
0.0
  11
 368.042
  21
 901.809
  31
0.0
   0
LINE
   8
LEVEL001
   6
CONTINUOUS
  62
7
  10
 368.042
  20
 901.809
  30
0.0
  11
 377.000
  21
 901.809
  31
0.0
   0
LINE
   8
LEVEL001
   6
CONTINUOUS
  62
7
  10
 377.000
  20
 901.809
  30
0.0
  11
 377.000
  21
 890.190
  31
0.0
   0
LINE
   8
LEVEL001
   6
CONTINUOUS
  62
7
  10
 377.000
  20
 890.190
  30
0.0
  11
 368.042
  21
 890.190
  31
0.0
   0
LINE
   8
LEVEL001
   6
CONTINUOUS
  62
7
  10
 368.042
  20
 890.190
  30
0.0
  11
 366.000
  21
 893.383
  31
0.0
   0
LINE
   8
LEVEL001
   6
CONTINUOUS
  62
7
  10
 392.200
  20
 877.500
  30
0.0
  11
 392.200
  21
 914.500
  31
0.0
   0
LINE
   8
LEVEL001
   6
CONTINUOUS
  62
7
  10
 392.200
  20
 914.500
  30
0.0
  11
 402.200
  21
 914.500
  31
0.0
   0
LINE
   8
LEVEL001
   6
CONTINUOUS
  62
7
  10
 402.200
  20
 914.500
  30
0.0
  11
 402.200
  21
 877.500
  31
0.0
   0
LINE
   8
LEVEL001
   6
CONTINUOUS
  62
7
  10
 402.200
  20
 877.500
  30
0.0
  11
 392.200
  21
 877.500
  31
0.0
   0
LINE
   8
LEVEL001
   6
CONTINUOUS
  62
7
  10
 315.000
  20
 913.536
  30
0.0
  11
 315.000
  21
 402.000
  31
0.0
   0
LINE
   8
LEVEL001
   6
CONTINUOUS
  62
7
  10
 325.000
  20
 904.643
  30
0.0
  11
 315.000
  21
 904.331
  31
0.0
   0
LINE
   8
LEVEL001
   6
CONTINUOUS
  62
7
  10
 325.000
  20
 887.356
  30
0.0
  11
 315.000
  21
 887.669
  31
0.0
   0
LINE
   8
LEVEL001
   6
CONTINUOUS
  62
3
  10
 321.384
  20
 888.325
  30
0.0
  11
 315.000
  21
 888.525
  31
0.0
   0
LINE
   8
LEVEL001
   6
CONTINUOUS
  62
3
  10
 321.384
  20
 903.674
  30
0.0
  11
 315.000
  21
 903.475
  31
0.0
   0
LINE
   8
LEVEL001
   6
DASHDOT
  62
1
  10
 420.000
  20
 896.000
  30
0.0
  11
 310.000
  21
 896.000
  31
0.0
   0
LINE
   8
LEVEL001
   6
CONTINUOUS
  62
7
  10
 310.500
  20
 1001.00
  30
0.0
  11
 69.5000
  21
 1001.00
  31
0.0
   0
LINE
   8
LEVEL001
   6
CONTINUOUS
  62
7
  10
 126.500
  20
 1018.00
  30
0.0
  11
 253.500
  21
 1018.00
  31
0.0
   0
LINE
   8
LEVEL001
   6
CONTINUOUS
  62
7
  10
 313.000
  20
 996.000
  30
0.0
  11
 67.0000
  21
 996.000
  31
0.0
   0
LINE
   8
LEVEL001
   6
CONTINUOUS
  62
7
  10
 311.500
  20
 1000.00
  30
0.0
  11
 68.5000
  21
 1000.00
  31
0.0
   0
LINE
   8
LEVEL001
   6
CONTINUOUS
  62
3
  10
 313.000
  20
 996.000
  30
0.0
  11
 313.000
  21
 921.000
  31
0.0
   0
LINE
   8
LEVEL001
   6
CONTINUOUS
  62
3
  10
 67.0000
  20
 996.000
  30
0.0
  11
 67.0000
  21
 921.000
  31
0.0
   0
LINE
   8
LEVEL001
   6
CONTINUOUS
  62
7
  10
 315.000
  20
 913.536
  30
0.0
  11
 65.0000
  21
 913.536
  31
0.0
   0
LINE
   8
LEVEL001
   6
CONTINUOUS
  62
3
  10
 65.0000
  20
 921.000
  30
0.0
  11
 315.000
  21
 921.000
  31
0.0
   0
LINE
   8
LEVEL001
   6
CONTINUOUS
  62
3
  10
 65.0000
  20
 994.000
  30
0.0
  11
 315.000
  21
 994.000
  31
0.0
   0
LINE
   8
LEVEL003
   6
CONTINUOUS
  62
3
  10
 340.000
  20
 940.000
  30
0.0
  11
 396.187
  21
 940.000
  31
0.0
   0
LINE
   8
LEVEL003
   6
CONTINUOUS
  62
3
  10
 270.000
  20
 1030.00
  30
0.0
  11
 317.027
  21
 1030.00
  31
0.0
   0
TEXT
   8
LEVEL003
  62
3
  10
 458.400
  20
 704.000
  30
0.0
  40
 8.00000
   1
620
  50
 90.0000
  41
 0.500000
   7
STANDARD
  72
1
  11
 458.400
  21
 710.000
  31
0.0
   0
LINE
   8
LEVEL003
   6
CONTINUOUS
  62
3
  10
 120.000
  20
 790.000
  30
0.0
  11
 260.000
  21
 790.000
  31
0.0
   0
LINE
   8
LEVEL003
   6
CONTINUOUS
  62
3
  10
 120.000
  20
 790.000
  30
0.0
  11
 126.000
  21
 788.942
  31
0.0
   0
LINE
   8
LEVEL003
   6
CONTINUOUS
  62
3
  10
 120.000
  20
 790.000
  30
0.0
  11
 126.000
  21
 791.058
  31
0.0
   0
LINE
   8
LEVEL003
   6
CONTINUOUS
  62
3
  10
 260.000
  20
 790.000
  30
0.0
  11
 254.000
  21
 791.058
  31
0.0
   0
LINE
   8
LEVEL003
   6
CONTINUOUS
  62
3
  10
 260.000
  20
 790.000
  30
0.0
  11
 254.000
  21
 788.942
  31
0.0
   0
TEXT
   8
LEVEL003
  62
3
  10
 180.000
  20
 791.600
  30
0.0
  40
 8.00000
   1
%%c140
   7
STANDARD
  72
1
  11
 190.000
  21
 791.600
  31
0.0
   0
LINE
   8
LEVEL003
   6
CONTINUOUS
  62
3
  10
 95.0000
  20
 770.000
  30
0.0
  11
 285.000
  21
 770.000
  31
0.0
   0
LINE
   8
LEVEL003
   6
CONTINUOUS
  62
3
  10
 95.0000
  20
 770.000
  30
0.0
  11
 101.000
  21
 768.942
  31
0.0
   0
LINE
   8
LEVEL003
   6
CONTINUOUS
  62
3
  10
 95.0000
  20
 770.000
  30
0.0
  11
 101.000
  21
 771.058
  31
0.0
   0
LINE
   8
LEVEL003
   6
CONTINUOUS
  62
3
  10
 285.000
  20
 770.000
  30
0.0
  11
 279.000
  21
 771.058
  31
0.0
   0
LINE
   8
LEVEL003
   6
CONTINUOUS
  62
3
  10
 285.000
  20
 770.000
  30
0.0
  11
 279.000
  21
 768.942
  31
0.0
   0
TEXT
   8
LEVEL003
  62
3
  10
 180.000
  20
 771.600
  30
0.0
  40
 8.00000
   1
%%c190
   7
STANDARD
  72
1
  11
 190.000
  21
 771.600
  31
0.0
   0
LINE
   8
LEVEL003
   6
CONTINUOUS
  62
3
  10
 65.0000
  20
 720.000
  30
0.0
  11
 315.000
  21
 720.000
  31
0.0
   0
LINE
   8
LEVEL003
   6
CONTINUOUS
  62
3
  10
 65.0000
  20
 720.000
  30
0.0
  11
 71.0000
  21
 718.942
  31
0.0
   0
LINE
   8
LEVEL003
   6
CONTINUOUS
  62
3
  10
 65.0000
  20
 720.000
  30
0.0
  11
 71.0000
  21
 721.058
  31
0.0
   0
LINE
   8
LEVEL003
   6
CONTINUOUS
  62
3
  10
 315.000
  20
 720.000
  30
0.0
  11
 309.000
  21
 721.058
  31
0.0
   0
LINE
   8
LEVEL003
   6
CONTINUOUS
  62
3
  10
 315.000
  20
 720.000
  30
0.0
  11
 309.000
  21
 718.942
  31
0.0
   0
TEXT
   8
LEVEL003
  62
3
  10
 180.000
  20
 721.600
  30
0.0
  40
 8.00000
   1
%%c250
   7
STANDARD
  72
1
  11
 190.000
  21
 721.600
  31
0.0
   0
LINE
   8
LEVEL003
   6
CONTINUOUS
  62
3
  10
 188.000
  20
 830.000
  30
0.0
  11
 6.00000
  21
 830.000
  31
0.0
   0
LINE
   8
LEVEL003
   6
CONTINUOUS
  62
3
  10
 10.0000
  20
 830.000
  30
0.0
  11
 10.0000
  21
 400.000
  31
0.0
   0
LINE
   8
LEVEL003
   6
CONTINUOUS
  62
3
  10
 10.0000
  20
 830.000
  30
0.0
  11
 8.94204
  21
 824.000
  31
0.0
   0
LINE
   8
LEVEL003
   6
CONTINUOUS
  62
3
  10
 10.0000
  20
 830.000
  30
0.0
  11
 11.0580
  21
 824.000
  31
0.0
   0
TEXT
   8
LEVEL003
  62
3
  10
 8.40000
  20
 610.500
  30
0.0
  40
 8.00000
   1
430
  50
 90.0000
  41
 0.500000
   7
STANDARD
  72
1
  11
 8.40000
  21
 616.500
  31
0.0
   0
LINE
   8
LEVEL004
   6
DOT
  62
7
  10
 277.000
  20
 401.000
  30
0.0
  11
 263.000
  21
 401.000
  31
0.0
   0
LINE
   8
LEVEL004
   6
DOT
  62
3
  10
 262.000
  20
 420.000
  30
0.0
  11
 262.000
  21
 400.000
  31
0.0
   0
LINE
   8
LEVEL004
   6
DOT
  62
7
  10
 263.000
  20
 420.000
  30
0.0
  11
 263.000
  21
 401.000
  31
0.0
   0
LINE
   8
LEVEL004
   6
DOT
  62
7
  10
 263.000
  20
 401.000
  30
0.0
  11
 262.000
  21
 400.000
  31
0.0
   0
LINE
   8
LEVEL004
   6
DOT
  62
3
  10
 278.000
  20
 400.000
  30
0.0
  11
 278.000
  21
 420.000
  31
0.0
   0
LINE
   8
LEVEL004
   6
DOT
  62
7
  10
 278.000
  20
 400.000
  30
0.0
  11
 277.000
  21
 401.000
  31
0.0
   0
LINE
   8
LEVEL004
   6
DOT
  62
7
  10
 277.000
  20
 401.000
  30
0.0
  11
 277.000
  21
 420.000
  31
0.0
   0
LINE
   8
LEVEL004
   6
DOT
  62
3
  10
 120.000
  20
 998.000
  30
0.0
  11
 120.000
  21
 526.000
  31
0.0
   0
LINE
   8
LEVEL004
   6
DOT
  62
3
  10
 285.000
  20
 930.000
  30
0.0
  11
 285.000
  21
 456.000
  31
0.0
   0
LINE
   8
LEVEL004
   6
DOT
  62
3
  10
 260.000
  20
 998.000
  30
0.0
  11
 260.000
  21
 526.000
  31
0.0
   0
LINE
   8
LEVEL004
   6
DOT
  62
3
  10
 235.000
  20
 946.000
  30
0.0
  11
 233.500
  21
 941.000
  31
0.0
   0
LINE
   8
LEVEL004
   6
DOT
  62
3
  10
 235.500
  20
 1001.00
  30
0.0
  11
 235.000
  21
 1000.50
  31
0.0
   0
LINE
   8
LEVEL004
   6
DOT
  62
3
  10
 235.000
  20
 998.000
  30
0.0
  11
 235.000
  21
 1000.50
  31
0.0
   0
LINE
   8
LEVEL004
   6
DOT
  62
3
  10
 233.250
  20
 998.000
  30
0.0
  11
 235.000
  21
 998.000
  31
0.0
   0
ARC
   8
LEVEL004
   6
DOT
  62
3
  10
 234.750
  20
 999.500
  30
0.0
  40
 1.50000
  50
 90.0000
  51
 180.000
   0
LINE
   8
LEVEL004
   6
DOT
  62
3
  10
 233.500
  20
 996.500
  30
0.0
  11
 233.250
  21
 996.500
  31
0.0
   0
LINE
   8
LEVEL004
   6
DOT
  62
3
  10
 235.000
  20
 998.000
  30
0.0
  11
 235.000
  21
 946.000
  31
0.0
   0
LINE
   8
LEVEL004
   6
DOT
  62
3
  10
 233.250
  20
 971.000
  30
0.0
  11
 232.250
  21
 970.000
  31
0.0
   0
LINE
   8
LEVEL004
   6
DOT
  62
3
  10
 233.250
  20
 999.500
  30
0.0
  11
 233.250
  21
 971.000
  31
0.0
   0
LINE
   8
LEVEL004
   6
DOT
  62
3
  10
 235.000
  20
 998.000
  30
0.0
  11
 233.500
  21
 996.500
  31
0.0
   0
LINE
   8
LEVEL004
   6
DOT
  62
3
  10
 233.500
  20
 996.500
  30
0.0
  11
 233.500
  21
 941.000
  31
0.0
   0
LINE
   8
LEVEL004
   6
DOT
  62
3
  10
 145.000
  20
 946.000
  30
0.0
  11
 146.500
  21
 941.000
  31
0.0
   0
LINE
   8
LEVEL004
   6
DOT
  62
3
  10
 146.750
  20
 971.000
  30
0.0
  11
 147.750
  21
 970.000
  31
0.0
   0
LINE
   8
LEVEL004
   6
DOT
  62
3
  10
 233.500
  20
 941.000
  30
0.0
  11
 146.500
  21
 941.000
  31
0.0
   0
LINE
   8
LEVEL004
   6
DOT
  62
3
  10
 146.500
  20
 941.000
  30
0.0
  11
 190.000
  21
 915.885
  31
0.0
   0
LINE
   8
LEVEL004
   6
DOT
  62
3
  10
 190.000
  20
 915.885
  30
0.0
  11
 233.500
  21
 941.000
  31
0.0
   0
LINE
   8
LEVEL004
   6
DOT
  62
3
  10
 145.000
  20
 946.000
  30
0.0
  11
 235.000
  21
 946.000
  31
0.0
   0
LINE
   8
LEVEL004
   6
DOT
  62
3
  10
 232.250
  20
 970.000
  30
0.0
  11
 147.750
  21
 970.000
  31
0.0
   0
LINE
   8
LEVEL004
   6
DOT
  62
3
  10
 144.500
  20
 1001.00
  30
0.0
  11
 145.000
  21
 1000.50
  31
0.0
   0
LINE
   8
LEVEL004
   6
DOT
  62
3
  10
 145.000
  20
 998.000
  30
0.0
  11
 145.000
  21
 1000.50
  31
0.0
   0
LINE
   8
LEVEL004
   6
DOT
  62
3
  10
 146.500
  20
 996.500
  30
0.0
  11
 146.750
  21
 996.500
  31
0.0
   0
LINE
   8
LEVEL004
   6
DOT
  62
3
  10
 146.750
  20
 998.000
  30
0.0
  11
 145.000
  21
 998.000
  31
0.0
   0
ARC
   8
LEVEL004
   6
DOT
  62
3
  10
 145.250
  20
 999.500
  30
0.0
  40
 1.50000
  50
0.0
  51
 90.0000
   0
LINE
   8
LEVEL004
   6
DOT
  62
3
  10
 146.750
  20
 982.200
  30
0.0
  11
 164.750
  21
 982.200
  31
0.0
   0
LINE
   8
LEVEL004
   6
DOT
  62
3
  10
 164.750
  20
 982.200
  30
0.0
  11
 166.367
  21
 985.000
  31
0.0
   0
LINE
   8
LEVEL004
   6
DOT
  62
3
  10
 166.367
  20
 985.000
  30
0.0
  11
 164.750
  21
 987.800
  31
0.0
   0
LINE
   8
LEVEL004
   6
DOT
  62
3
  10
 164.750
  20
 987.800
  30
0.0
  11
 146.750
  21
 987.800
  31
0.0
   0
LINE
   8
LEVEL004
   6
DOT
  62
3
  10
 164.750
  20
 987.800
  30
0.0
  11
 164.750
  21
 982.200
  31
0.0
   0
CIRCLE
   8
LEVEL004
   6
DOT
  62
3
  10
 149.250
  20
 985.000
  30
0.0
  40
 2.75000
   0
LINE
   8
LEVEL004
   6
DOT
  62
3
  10
 146.750
  20
 999.500
  30
0.0
  11
 146.750
  21
 986.146
  31
0.0
   0
LINE
   8
LEVEL004
   6
DOT
  62
3
  10
 145.000
  20
 998.000
  30
0.0
  11
 146.500
  21
 996.500
  31
0.0
   0
LINE
   8
LEVEL004
   6
DOT
  62
3
  10
 146.500
  20
 996.500
  30
0.0
  11
 146.500
  21
 941.000
  31
0.0
   0
LINE
   8
LEVEL004
   6
DOT
  62
3
  10
 146.750
  20
 983.854
  30
0.0
  11
 146.750
  21
 971.000
  31
0.0
   0
LINE
   8
LEVEL004
   6
DOT
  62
3
  10
 145.000
  20
 998.000
  30
0.0
  11
 145.000
  21
 946.000
  31
0.0
   0
ARC
   8
LEVEL004
   6
DOT
  62
3
  10
 211.000
  20
 1020.00
  30
0.0
  40
 1.00000
  50
 180.000
  51
0.0
   0
ARC
   8
LEVEL004
   6
DOT
  62
3
  10
 232.500
  20
 1020.00
  30
0.0
  40
 1.00000
  50
 180.000
  51
0.0
   0
ARC
   8
LEVEL004
   6
DOT
  62
3
  10
 169.000
  20
 1020.00
  30
0.0
  40
 1.00000
  50
 180.000
  51
0.0
   0
ARC
   8
LEVEL004
   6
DOT
  62
3
  10
 147.500
  20
 1020.00
  30
0.0
  40
 1.00000
  50
 180.000
  51
0.0
   0
LINE
   8
LEVEL004
   6
DOT
  62
3
  10
 95.0000
  20
 930.000
  30
0.0
  11
 95.0000
  21
 456.000
  31
0.0
   0
ARC
   8
LEVEL004
   6
DOT
  62
3
  10
 190.000
  20
 786.000
  30
0.0
  40
 37.5000
  50
 107.058
  51
 72.9424
   0
ARC
   8
LEVEL004
   6
DOT
  62
3
  10
 190.000
  20
 786.000
  30
0.0
  40
 50.5000
  50
 102.581
  51
 77.4188
   0
LINE
   8
LEVEL004
   6
DOT
  62
3
  10
 200.000
  20
 848.000
  30
0.0
  11
 201.000
  21
 849.000
  31
0.0
   0
LINE
   8
LEVEL004
   6
DOT
  62
3
  10
 180.000
  20
 848.000
  30
0.0
  11
 179.000
  21
 849.000
  31
0.0
   0
LINE
   8
LEVEL004
   6
DOT
  62
3
  10
 180.000
  20
 812.000
  30
0.0
  11
 179.000
  21
 811.000
  31
0.0
   0
LINE
   8
LEVEL004
   6
DOT
  62
3
  10
 200.000
  20
 812.000
  30
0.0
  11
 201.000
  21
 811.000
  31
0.0
   0
LINE
   8
LEVEL004
   6
DOT
  62
3
  10
 180.000
  20
 848.000
  30
0.0
  11
 180.000
  21
 812.000
  31
0.0
   0
LINE
   8
LEVEL004
   6
DOT
  62
3
  10
 180.000
  20
 812.000
  30
0.0
  11
 200.000
  21
 812.000
  31
0.0
   0
LINE
   8
LEVEL004
   6
DOT
  62
3
  10
 200.000
  20
 812.000
  30
0.0
  11
 200.000
  21
 848.000
  31
0.0
   0
LINE
   8
LEVEL004
   6
DOT
  62
3
  10
 200.000
  20
 848.000
  30
0.0
  11
 180.000
  21
 848.000
  31
0.0
   0
LINE
   8
LEVEL004
   6
DOT
  62
3
  10
 179.000
  20
 849.000
  30
0.0
  11
 179.000
  21
 811.000
  31
0.0
   0
LINE
   8
LEVEL004
   6
DOT
  62
3
  10
 179.000
  20
 811.000
  30
0.0
  11
 201.000
  21
 811.000
  31
0.0
   0
LINE
   8
LEVEL004
   6
DOT
  62
3
  10
 201.000
  20
 811.000
  30
0.0
  11
 201.000
  21
 849.000
  31
0.0
   0
LINE
   8
LEVEL004
   6
DOT
  62
3
  10
 201.000
  20
 849.000
  30
0.0
  11
 179.000
  21
 849.000
  31
0.0
   0
CIRCLE
   8
LEVEL004
   6
DASHDOT
  62
1
  10
 190.000
  20
 786.000
  30
0.0
  40
 44.0000
   0
LINE
   8
LEVEL004
   6
DASHDOT
  62
1
  10
 270.000
  20
 397.000
  30
0.0
  11
 270.000
  21
 420.000
  31
0.0
   0
LINE
   8
LEVEL004
   6
DASHDOT
  62
1
  10
 110.000
  20
 397.000
  30
0.0
  11
 110.000
  21
 420.000
  31
0.0
   0
LINE
   8
LEVEL004
   6
DASHDOT
  62
1
  10
 151.137
  20
 983.000
  30
0.0
  11
 151.640
  21
 987.000
  31
0.0
   0
LINE
   8
LEVEL004
   6
DASHDOT
  62
1
  10
 151.640
  20
 987.000
  30
0.0
  11
 152.143
  21
 983.000
  31
0.0
   0
LINE
   8
LEVEL004
   6
DASHDOT
  62
1
  10
 152.143
  20
 983.000
  30
0.0
  11
 152.645
  21
 987.000
  31
0.0
   0
LINE
   8
LEVEL004
   6
DASHDOT
  62
1
  10
 152.645
  20
 987.000
  30
0.0
  11
 153.148
  21
 983.000
  31
0.0
   0
LINE
   8
LEVEL004
   6
DASHDOT
  62
1
  10
 153.148
  20
 983.000
  30
0.0
  11
 153.651
  21
 987.000
  31
0.0
   0
LINE
   8
LEVEL004
   6
DASHDOT
  62
1
  10
 153.651
  20
 987.000
  30
0.0
  11
 154.153
  21
 983.000
  31
0.0
   0
LINE
   8
LEVEL004
   6
DASHDOT
  62
1
  10
 154.153
  20
 983.000
  30
0.0
  11
 154.656
  21
 987.000
  31
0.0
   0
LINE
   8
LEVEL004
   6
DASHDOT
  62
1
  10
 154.656
  20
 987.000
  30
0.0
  11
 155.159
  21
 983.000
  31
0.0
   0
LINE
   8
LEVEL004
   6
DASHDOT
  62
1
  10
 155.159
  20
 983.000
  30
0.0
  11
 155.661
  21
 987.000
  31
0.0
   0
LINE
   8
LEVEL004
   6
DASHDOT
  62
1
  10
 155.661
  20
 987.000
  30
0.0
  11
 156.164
  21
 983.000
  31
0.0
   0
LINE
   8
LEVEL004
   6
DASHDOT
  62
1
  10
 156.164
  20
 983.000
  30
0.0
  11
 156.667
  21
 987.000
  31
0.0
   0
LINE
   8
LEVEL004
   6
DASHDOT
  62
1
  10
 156.667
  20
 987.000
  30
0.0
  11
 157.169
  21
 983.000
  31
0.0
   0
LINE
   8
LEVEL004
   6
DASHDOT
  62
1
  10
 157.169
  20
 983.000
  30
0.0
  11
 157.672
  21
 987.000
  31
0.0
   0
LINE
   8
LEVEL004
   6
DASHDOT
  62
1
  10
 157.672
  20
 987.000
  30
0.0
  11
 158.175
  21
 983.000
  31
0.0
   0
LINE
   8
LEVEL004
   6
DASHDOT
  62
1
  10
 158.175
  20
 983.000
  30
0.0
  11
 158.677
  21
 987.000
  31
0.0
   0
LINE
   8
LEVEL004
   6
DASHDOT
  62
1
  10
 158.677
  20
 987.000
  30
0.0
  11
 159.180
  21
 983.000
  31
0.0
   0
LINE
   8
LEVEL004
   6
DASHDOT
  62
1
  10
 159.180
  20
 983.000
  30
0.0
  11
 159.683
  21
 987.000
  31
0.0
   0
LINE
   8
LEVEL004
   6
DASHDOT
  62
1
  10
 159.683
  20
 987.000
  30
0.0
  11
 160.185
  21
 983.000
  31
0.0
   0
LINE
   8
LEVEL004
   6
DASHDOT
  62
1
  10
 160.185
  20
 983.000
  30
0.0
  11
 160.688
  21
 987.000
  31
0.0
   0
LINE
   8
LEVEL004
   6
DASHDOT
  62
1
  10
 160.688
  20
 987.000
  30
0.0
  11
 161.191
  21
 983.000
  31
0.0
   0
LINE
   8
LEVEL004
   6
DASHDOT
  62
1
  10
 161.191
  20
 983.000
  30
0.0
  11
 161.693
  21
 987.000
  31
0.0
   0
LINE
   8
LEVEL004
   6
DASHDOT
  62
1
  10
 161.693
  20
 987.000
  30
0.0
  11
 162.196
  21
 983.000
  31
0.0
   0
LINE
   8
LEVEL004
   6
DASHDOT
  62
1
  10
 162.196
  20
 983.000
  30
0.0
  11
 162.699
  21
 987.000
  31
0.0
   0
LINE
   8
LEVEL004
   6
DASHDOT
  62
1
  10
 162.699
  20
 987.000
  30
0.0
  11
 163.201
  21
 983.000
  31
0.0
   0
LINE
   8
LEVEL004
   6
DASHDOT
  62
1
  10
 163.201
  20
 983.000
  30
0.0
  11
 163.704
  21
 987.000
  31
0.0
   0
LINE
   8
LEVEL004
   6
DASHDOT
  62
1
  10
 163.704
  20
 987.000
  30
0.0
  11
 164.207
  21
 983.000
  31
0.0
   0
LINE
   8
LEVEL004
   6
DASHDOT
  62
1
  10
 164.207
  20
 983.000
  30
0.0
  11
 164.709
  21
 987.000
  31
0.0
   0
LINE
   8
LEVEL004
   6
DASHDOT
  62
1
  10
 164.709
  20
 987.000
  30
0.0
  11
 165.212
  21
 983.000
  31
0.0
   0
LINE
   8
LEVEL004
   6
DASHDOT
  62
1
  10
 141.750
  20
 985.000
  30
0.0
  11
 171.750
  21
 985.000
  31
0.0
   0
TEXT
   8
LEVEL003
  62
7
  10
 354.602
  20
 47.1134
  30
0.0
  40
 6.00000
   1
Model : Ｅ２００Ｈ３５
   7
STANDARD
   0
ENDSEC
   0
EOF
