   0
SECTION
   2
HEADER
   9
$LIMMIN
  10
0.0
  20
0.0
   9
$LIMMAX
  10
 840.000
  20
 1070.00
   9
$EXTMIN
  10
0.0
  20
0.0
   9
$EXTMAX
  10
 840.000
  20
 1070.00
   9
$LTSCALE
  40
 21.4000
   0
ENDSEC
   0
SECTION
   2
TABLES
  0
TABLE
  2
LTYPE
 70
    25
  0
LTYPE
  2
CONTINUOUS
 70
    64
  3
Solid line
 72
    65
 73
     0
 40
0.0
  0
LTYPE
  2
BORDER
 70
    64
  3
__ __ . __ __ . __ __ . __ __ . __ __ . __ __ .
 72
    65
 73
     6
 40
1.75
 49
0.5
 49
-0.25
 49
0.5
 49
-0.25
 49
0.0
 49
-0.25
  0
LTYPE
  2
BORDER2
 70
    64
  3
__.__.__.__.__.__.__.__.__.__.__.__.__.__.__.__
 72
    65
 73
     6
 40
0.875
 49
0.25
 49
-0.125
 49
0.25
 49
-0.125
 49
0.0
 49
-0.125
  0
LTYPE
  2
BORDERX2
 70
    64
  3
____  ____  .  ____  ____  .  ____  ____  .  __
 72
    65
 73
     6
 40
3.5
 49
1.0
 49
-0.5
 49
1.0
 49
-0.5
 49
0.0
 49
-0.5
  0
LTYPE
  2
CENTER
 70
    64
  3
____ _ ____ _ ____ _ ____ _ ____ _ ____ _ ____ 
 72
    65
 73
     4
 40
2.0
 49
1.25
 49
-0.25
 49
0.25
 49
-0.25
  0
LTYPE
  2
CENTER2
 70
    64
  3
___ _ ___ _ ___ _ ___ _ ___ _ ___ _ ___ _ ___ _
 72
    65
 73
     4
 40
1.125
 49
0.75
 49
-0.125
 49
0.125
 49
-0.125
  0
LTYPE
  2
CENTERX2
 70
    64
  3
________  __  ________  __  ________  __  _____
 72
    65
 73
     4
 40
4.0
 49
2.5
 49
-0.5
 49
0.5
 49
-0.5
  0
LTYPE
  2
DASHDOT
 70
    64
  3
__ . __ . __ . __ . __ . __ . __ . __ . __ . __
 72
    65
 73
     4
 40
1.0
 49
0.5
 49
-0.25
 49
0.0
 49
-0.25
  0
LTYPE
  2
DASHDOT2
 70
    64
  3
_._._._._._._._._._._._._._._._._._._._._._._._
 72
    65
 73
     4
 40
0.5
 49
0.25
 49
-0.125
 49
0.0
 49
-0.125
  0
LTYPE
  2
DASHDOTX2
 70
    64
  3
____  .  ____  .  ____  .  ____  .  ____  .  __
 72
    65
 73
     4
 40
2.0
 49
1.0
 49
-0.5
 49
0.0
 49
-0.5
  0
LTYPE
  2
DASHED
 70
    64
  3
__ __ __ __ __ __ __ __ __ __ __ __ __ __ __ __
 72
    65
 73
     2
 40
0.75
 49
0.5
 49
-0.25
  0
LTYPE
  2
DASHED2
 70
    64
  3
_ _ _ _ _ _ _ _ _ _ _ _ _ _ _ _ _ _ _ _ _ _ _ _
 72
    65
 73
     2
 40
0.375
 49
0.25
 49
-0.125
  0
LTYPE
  2
DASHEDX2
 70
    64
  3
____  ____  ____  ____  ____  ____  ____  ____ 
 72
    65
 73
     2
 40
1.5
 49
1.0
 49
-0.5
  0
LTYPE
  2
DIVIDE
 70
    64
  3
____ . . ____ . . ____ . . ____ . . ____ . . __
 72
    65
 73
     6
 40
1.25
 49
0.5
 49
-0.25
 49
0.0
 49
-0.25
 49
0.0
 49
-0.25
  0
LTYPE
  2
DIVIDE2
 70
    64
  3
__..__..__..__..__..__..__..__..__..__..__..__.
 72
    65
 73
     6
 40
0.625
 49
0.25
 49
-0.125
 49
0.0
 49
-0.125
 49
0.0
 49
-0.125
  0
LTYPE
  2
DIVIDEX2
 70
    64
  3
________  .  .  ________  .  .  ________  .  . 
 72
    65
 73
     6
 40
2.5
 49
1.0
 49
-0.5
 49
0.0
 49
-0.5
 49
0.0
 49
-0.5
  0
LTYPE
  2
DOT
 70
    64
  3
. . . . . . . . . . . . . . . . . . . . . . . .
 72
    65
 73
     2
 40
0.25
 49
0.0
 49
-0.25
  0
LTYPE
  2
DOT2
 70
    64
  3
...............................................
 72
    65
 73
     2
 40
0.125
 49
0.0
 49
-0.125
  0
LTYPE
  2
DOTX2
 70
    64
  3
.  .  .  .  .  .  .  .  .  .  .  .  .  .  .  . 
 72
    65
 73
     2
 40
0.5
 49
0.0
 49
-0.5
  0
LTYPE
  2
HIDDEN
 70
    64
  3
__ __ __ __ __ __ __ __ __ __ __ __ __ __ __ __
 72
    65
 73
     2
 40
0.375
 49
0.25
 49
-0.125
  0
LTYPE
  2
HIDDEN2
 70
    64
  3
_ _ _ _ _ _ _ _ _ _ _ _ _ _ _ _ _ _ _ _ _ _ _ _
 72
    65
 73
     2
 40
0.1875
 49
0.125
 49
-0.0625
  0
LTYPE
  2
HIDDENX2
 70
    64
  3
____ ____ ____ ____ ____ ____ ____ ____ ____ __
 72
    65
 73
     2
 40
0.75
 49
0.5
 49
-0.25
  0
LTYPE
  2
PHANTOM
 70
    64
  3
______  __  __  ______  __  __  ______  __  __ 
 72
    65
 73
     6
 40
2.5
 49
1.25
 49
-0.25
 49
0.25
 49
-0.25
 49
0.25
 49
-0.25
  0
LTYPE
  2
PHANTOM2
 70
    64
  3
___ _ _ ___ _ _ ___ _ _ ___ _ _ ___ _ _ ___ _ _
 72
    65
 73
     6
 40
1.25
 49
0.625
 49
-0.125
 49
0.125
 49
-0.125
 49
0.125
 49
-0.125
  0
LTYPE
  2
PHANTOMX2
 70
    64
  3
____________    ____    ____    ____________   
 72
    65
 73
     6
 40
5.0
 49
2.5
 49
-0.5
 49
0.5
 49
-0.5
 49
0.5
 49
-0.5
  0
ENDTAB
  0
TABLE
  2
STYLE
 70
     2
  0
STYLE
  2
STANDARD
 70
0
 40
0.0
 41
1.0
 50
0.0
 71
0
 42
0.2
  3
TXT
  4
BIGFONT
  0
STYLE
  2
STANDARD1
 70
     4
 40
0.0
 41
1.0
 50
0.0
 71
     0
 42
0.2
  3
TXT
  4
BIGFONT
  0
ENDTAB
   0
TABLE
   2
LAYER
  70
4
   0
LAYER
   2
0
  70
0
  62
7
   6
CONTINUOUS
   0
LAYER
   2
LEVEL001
  70
0
  62
7
   6
CONTINUOUS
   0
LAYER
   2
LEVEL003
  70
0
  62
7
   6
CONTINUOUS
   0
LAYER
   2
LEVEL004
  70
0
  62
7
   6
CONTINUOUS
   0
ENDTAB
   0
ENDSEC
   0
SECTION
   2
ENTITIES
   0
LINE
   8
LEVEL001
   6
CONTINUOUS
  62
7
  10
 315.000
  20
 402.000
  30
0.0
  11
 313.000
  21
 400.000
  31
0.0
   0
LINE
   8
LEVEL001
   6
CONTINUOUS
  62
7
  10
 65.0000
  20
 402.000
  30
0.0
  11
 67.0000
  21
 400.000
  31
0.0
   0
LINE
   8
LEVEL001
   6
CONTINUOUS
  62
7
  10
 313.000
  20
 400.000
  30
0.0
  11
 67.0000
  21
 400.000
  31
0.0
   0
LINE
   8
LEVEL001
   6
CONTINUOUS
  62
3
  10
 325.000
  20
 488.643
  30
0.0
  11
 321.384
  21
 487.674
  31
0.0
   0
LINE
   8
LEVEL001
   6
CONTINUOUS
  62
3
  10
 325.000
  20
 471.356
  30
0.0
  11
 321.384
  21
 472.325
  31
0.0
   0
LINE
   8
LEVEL001
   6
CONTINUOUS
  62
3
  10
 321.384
  20
 487.674
  30
0.0
  11
 321.384
  21
 472.325
  31
0.0
   0
ARC
   8
LEVEL001
   6
CONTINUOUS
  62
7
  10
 342.599
  20
 496.187
  30
0.0
  40
 17.6000
  50
 180.609
  51
 203.257
   0
ARC
   8
LEVEL001
   6
CONTINUOUS
  62
7
  10
 342.599
  20
 463.813
  30
0.0
  40
 17.6000
  50
 156.743
  51
 179.391
   0
ARC
   8
LEVEL001
   6
CONTINUOUS
  62
7
  10
 355.571
  20
 480.000
  30
0.0
  40
 30.5710
  50
 162.412
  51
 197.588
   0
LINE
   8
LEVEL001
   6
CONTINUOUS
  62
7
  10
 326.429
  20
 498.475
  30
0.0
  11
 325.000
  21
 496.000
  31
0.0
   0
LINE
   8
LEVEL001
   6
CONTINUOUS
  62
7
  10
 325.000
  20
 496.000
  30
0.0
  11
 325.000
  21
 464.000
  31
0.0
   0
LINE
   8
LEVEL001
   6
CONTINUOUS
  62
7
  10
 325.000
  20
 464.000
  30
0.0
  11
 326.429
  21
 461.525
  31
0.0
   0
LINE
   8
LEVEL001
   6
CONTINUOUS
  62
7
  10
 326.429
  20
 461.525
  30
0.0
  11
 353.571
  21
 461.525
  31
0.0
   0
LINE
   8
LEVEL001
   6
CONTINUOUS
  62
7
  10
 353.571
  20
 461.525
  30
0.0
  11
 355.000
  21
 464.000
  31
0.0
   0
LINE
   8
LEVEL001
   6
CONTINUOUS
  62
7
  10
 355.000
  20
 464.000
  30
0.0
  11
 355.000
  21
 496.000
  31
0.0
   0
LINE
   8
LEVEL001
   6
CONTINUOUS
  62
7
  10
 355.000
  20
 496.000
  30
0.0
  11
 353.571
  21
 498.475
  31
0.0
   0
LINE
   8
LEVEL001
   6
CONTINUOUS
  62
7
  10
 353.571
  20
 498.475
  30
0.0
  11
 326.429
  21
 498.475
  31
0.0
   0
ARC
   8
LEVEL001
   6
CONTINUOUS
  62
7
  10
 337.401
  20
 463.813
  30
0.0
  40
 17.6000
  50
 0.608626
  51
 23.2566
   0
ARC
   8
LEVEL001
   6
CONTINUOUS
  62
7
  10
 337.401
  20
 496.187
  30
0.0
  40
 17.6000
  50
 336.743
  51
 359.391
   0
ARC
   8
LEVEL001
   6
CONTINUOUS
  62
7
  10
 324.429
  20
 480.000
  30
0.0
  40
 30.5710
  50
 342.412
  51
 17.5880
   0
LINE
   8
LEVEL001
   6
CONTINUOUS
  62
7
  10
 326.429
  20
 489.238
  30
0.0
  11
 353.571
  21
 489.238
  31
0.0
   0
LINE
   8
LEVEL001
   6
CONTINUOUS
  62
7
  10
 326.429
  20
 470.762
  30
0.0
  11
 353.571
  21
 470.762
  31
0.0
   0
LINE
   8
LEVEL001
   6
CONTINUOUS
  62
3
  10
 361.091
  20
 470.494
  30
0.0
  11
 361.091
  21
 489.506
  31
0.0
   0
LINE
   8
LEVEL001
   6
CONTINUOUS
  62
3
  10
 366.000
  20
 490.821
  30
0.0
  11
 361.091
  21
 489.506
  31
0.0
   0
LINE
   8
LEVEL001
   6
CONTINUOUS
  62
3
  10
 366.000
  20
 469.179
  30
0.0
  11
 361.091
  21
 470.494
  31
0.0
   0
LINE
   8
LEVEL001
   6
CONTINUOUS
  62
7
  10
 366.000
  20
 490.821
  30
0.0
  11
 366.000
  21
 469.179
  31
0.0
   0
LINE
   8
LEVEL001
   6
CONTINUOUS
  62
7
  10
 368.042
  20
 492.000
  30
0.0
  11
 384.200
  21
 492.000
  31
0.0
   0
LINE
   8
LEVEL001
   6
CONTINUOUS
  62
7
  10
 366.000
  20
 469.179
  30
0.0
  11
 368.042
  21
 468.000
  31
0.0
   0
LINE
   8
LEVEL001
   6
CONTINUOUS
  62
7
  10
 368.042
  20
 468.000
  30
0.0
  11
 384.200
  21
 468.000
  31
0.0
   0
LINE
   8
LEVEL001
   6
CONTINUOUS
  62
7
  10
 366.000
  20
 490.821
  30
0.0
  11
 368.042
  21
 492.000
  31
0.0
   0
ARC
   8
LEVEL001
   6
CONTINUOUS
  62
7
  10
 386.200
  20
 496.000
  30
0.0
  40
 2.00000
  50
 90.0000
  51
 180.000
   0
LINE
   8
LEVEL001
   6
CONTINUOUS
  62
7
  10
 386.200
  20
 498.000
  30
0.0
  11
 392.200
  21
 498.000
  31
0.0
   0
ARC
   8
LEVEL001
   6
CONTINUOUS
  62
7
  10
 408.200
  20
 497.000
  30
0.0
  40
 1.00000
  50
0.0
  51
 90.0000
   0
LINE
   8
LEVEL001
   6
CONTINUOUS
  62
7
  10
 402.200
  20
 498.000
  30
0.0
  11
 408.200
  21
 498.000
  31
0.0
   0
ARC
   8
LEVEL001
   6
CONTINUOUS
  62
7
  10
 386.200
  20
 464.000
  30
0.0
  40
 2.00000
  50
 180.000
  51
 270.000
   0
LINE
   8
LEVEL001
   6
CONTINUOUS
  62
7
  10
 386.200
  20
 462.000
  30
0.0
  11
 392.200
  21
 462.000
  31
0.0
   0
ARC
   8
LEVEL001
   6
CONTINUOUS
  62
7
  10
 408.200
  20
 463.000
  30
0.0
  40
 1.00000
  50
 270.000
  51
 0.371285E-9
   0
LINE
   8
LEVEL001
   6
CONTINUOUS
  62
7
  10
 402.200
  20
 462.000
  30
0.0
  11
 408.200
  21
 462.000
  31
0.0
   0
LINE
   8
LEVEL001
   6
CONTINUOUS
  62
7
  10
 384.200
  20
 464.000
  30
0.0
  11
 384.200
  21
 496.000
  31
0.0
   0
LINE
   8
LEVEL001
   6
CONTINUOUS
  62
7
  10
 409.200
  20
 497.000
  30
0.0
  11
 409.200
  21
 463.000
  31
0.0
   0
LINE
   8
LEVEL001
   6
CONTINUOUS
  62
7
  10
 368.042
  20
 492.000
  30
0.0
  11
 368.042
  21
 485.809
  31
0.0
   0
LINE
   8
LEVEL001
   6
CONTINUOUS
  62
7
  10
 368.042
  20
 474.191
  30
0.0
  11
 368.042
  21
 468.000
  31
0.0
   0
LINE
   8
LEVEL001
   6
CONTINUOUS
  62
7
  10
 368.042
  20
 474.191
  30
0.0
  11
 377.000
  21
 485.809
  31
0.0
   0
LINE
   8
LEVEL001
   6
CONTINUOUS
  62
7
  10
 368.042
  20
 485.809
  30
0.0
  11
 377.000
  21
 474.191
  31
0.0
   0
LINE
   8
LEVEL001
   6
DASHDOT
  62
1
  10
 409.200
  20
 498.000
  30
0.0
  11
 417.200
  21
 498.000
  31
0.0
   0
LINE
   8
LEVEL001
   6
DASHDOT
  62
1
  10
 409.200
  20
 462.000
  30
0.0
  11
 417.200
  21
 462.000
  31
0.0
   0
LINE
   8
LEVEL001
   6
DASHDOT
  62
1
  10
 417.200
  20
 498.000
  30
0.0
  11
 417.200
  21
 462.000
  31
0.0
   0
LINE
   8
LEVEL001
   6
DASHDOT
  62
1
  10
 409.200
  20
 497.000
  30
0.0
  11
 409.200
  21
 498.000
  31
0.0
   0
LINE
   8
LEVEL001
   6
DASHDOT
  62
1
  10
 409.200
  20
 463.000
  30
0.0
  11
 409.200
  21
 462.000
  31
0.0
   0
LINE
   8
LEVEL001
   6
CONTINUOUS
  62
3
  10
 392.200
  20
 463.500
  30
0.0
  11
 402.200
  21
 463.500
  31
0.0
   0
LINE
   8
LEVEL001
   6
CONTINUOUS
  62
3
  10
 392.200
  20
 465.500
  30
0.0
  11
 402.200
  21
 465.500
  31
0.0
   0
LINE
   8
LEVEL001
   6
CONTINUOUS
  62
3
  10
 392.200
  20
 467.500
  30
0.0
  11
 402.200
  21
 467.500
  31
0.0
   0
LINE
   8
LEVEL001
   6
CONTINUOUS
  62
3
  10
 392.200
  20
 469.500
  30
0.0
  11
 402.200
  21
 469.500
  31
0.0
   0
LINE
   8
LEVEL001
   6
CONTINUOUS
  62
3
  10
 392.200
  20
 471.500
  30
0.0
  11
 402.200
  21
 471.500
  31
0.0
   0
LINE
   8
LEVEL001
   6
CONTINUOUS
  62
3
  10
 392.200
  20
 473.500
  30
0.0
  11
 402.200
  21
 473.500
  31
0.0
   0
LINE
   8
LEVEL001
   6
CONTINUOUS
  62
3
  10
 392.200
  20
 475.500
  30
0.0
  11
 402.200
  21
 475.500
  31
0.0
   0
LINE
   8
LEVEL001
   6
CONTINUOUS
  62
3
  10
 392.200
  20
 477.500
  30
0.0
  11
 402.200
  21
 477.500
  31
0.0
   0
LINE
   8
LEVEL001
   6
CONTINUOUS
  62
3
  10
 392.200
  20
 479.500
  30
0.0
  11
 402.200
  21
 479.500
  31
0.0
   0
LINE
   8
LEVEL001
   6
CONTINUOUS
  62
3
  10
 392.200
  20
 481.500
  30
0.0
  11
 402.200
  21
 481.500
  31
0.0
   0
LINE
   8
LEVEL001
   6
CONTINUOUS
  62
3
  10
 392.200
  20
 483.500
  30
0.0
  11
 402.200
  21
 483.500
  31
0.0
   0
LINE
   8
LEVEL001
   6
CONTINUOUS
  62
3
  10
 392.200
  20
 485.500
  30
0.0
  11
 402.200
  21
 485.500
  31
0.0
   0
LINE
   8
LEVEL001
   6
CONTINUOUS
  62
3
  10
 392.200
  20
 487.500
  30
0.0
  11
 402.200
  21
 487.500
  31
0.0
   0
LINE
   8
LEVEL001
   6
CONTINUOUS
  62
3
  10
 392.200
  20
 489.500
  30
0.0
  11
 402.200
  21
 489.500
  31
0.0
   0
LINE
   8
LEVEL001
   6
CONTINUOUS
  62
3
  10
 392.200
  20
 491.500
  30
0.0
  11
 402.200
  21
 491.500
  31
0.0
   0
LINE
   8
LEVEL001
   6
CONTINUOUS
  62
3
  10
 392.200
  20
 493.500
  30
0.0
  11
 402.200
  21
 493.500
  31
0.0
   0
LINE
   8
LEVEL001
   6
CONTINUOUS
  62
3
  10
 392.200
  20
 495.500
  30
0.0
  11
 402.200
  21
 495.500
  31
0.0
   0
LINE
   8
LEVEL001
   6
CONTINUOUS
  62
3
  10
 392.200
  20
 497.500
  30
0.0
  11
 402.200
  21
 497.500
  31
0.0
   0
LINE
   8
LEVEL001
   6
CONTINUOUS
  62
7
  10
 366.000
  20
 490.821
  30
0.0
  11
 355.000
  21
 490.477
  31
0.0
   0
LINE
   8
LEVEL001
   6
CONTINUOUS
  62
7
  10
 366.000
  20
 469.179
  30
0.0
  11
 355.000
  21
 469.522
  31
0.0
   0
LINE
   8
LEVEL001
   6
CONTINUOUS
  62
3
  10
 361.091
  20
 489.506
  30
0.0
  11
 355.000
  21
 489.315
  31
0.0
   0
LINE
   8
LEVEL001
   6
CONTINUOUS
  62
3
  10
 361.091
  20
 470.494
  30
0.0
  11
 355.000
  21
 470.684
  31
0.0
   0
LINE
   8
LEVEL003
   6
CONTINUOUS
  62
3
  10
 65.0000
  20
 400.000
  30
0.0
  11
 6.00000
  21
 400.000
  31
0.0
   0
LINE
   8
LEVEL003
   6
CONTINUOUS
  62
3
  10
 10.0000
  20
 400.000
  30
0.0
  11
 11.0580
  21
 406.000
  31
0.0
   0
LINE
   8
LEVEL003
   6
CONTINUOUS
  62
3
  10
 10.0000
  20
 400.000
  30
0.0
  11
 8.94204
  21
 406.000
  31
0.0
   0
TEXT
   8
LEVEL003
  62
3
  10
 330.000
  20
 420.000
  30
0.0
  40
 8.00000
   1
ＮＰＴ３／８
   7
STANDARD
   0
LINE
   8
LEVEL003
   6
CONTINUOUS
  62
3
  10
 315.000
  20
 400.000
  30
0.0
  11
 444.000
  21
 400.000
  31
0.0
   0
LINE
   8
LEVEL003
   6
CONTINUOUS
  62
3
  10
 422.000
  20
 480.000
  30
0.0
  11
 444.000
  21
 480.000
  31
0.0
   0
LINE
   8
LEVEL003
   6
CONTINUOUS
  62
3
  10
 440.000
  20
 400.000
  30
0.0
  11
 440.000
  21
 480.000
  31
0.0
   0
LINE
   8
LEVEL003
   6
CONTINUOUS
  62
3
  10
 440.000
  20
 400.000
  30
0.0
  11
 441.058
  21
 406.000
  31
0.0
   0
LINE
   8
LEVEL003
   6
CONTINUOUS
  62
3
  10
 440.000
  20
 400.000
  30
0.0
  11
 438.942
  21
 406.000
  31
0.0
   0
LINE
   8
LEVEL003
   6
CONTINUOUS
  62
3
  10
 440.000
  20
 480.000
  30
0.0
  11
 438.942
  21
 474.000
  31
0.0
   0
LINE
   8
LEVEL003
   6
CONTINUOUS
  62
3
  10
 440.000
  20
 480.000
  30
0.0
  11
 441.058
  21
 474.000
  31
0.0
   0
TEXT
   8
LEVEL003
  62
3
  10
 438.400
  20
 436.000
  30
0.0
  40
 8.00000
   1
80
  50
 90.0000
  41
 0.500000
   7
STANDARD
  72
1
  11
 438.400
  21
 440.000
  31
0.0
   0
LINE
   8
LEVEL003
   6
CONTINUOUS
  62
3
  10
 315.000
  20
 400.000
  30
0.0
  11
 464.000
  21
 400.000
  31
0.0
   0
LINE
   8
LEVEL003
   6
CONTINUOUS
  62
3
  10
 460.000
  20
 400.000
  30
0.0
  11
 461.058
  21
 406.000
  31
0.0
   0
LINE
   8
LEVEL003
   6
CONTINUOUS
  62
3
  10
 460.000
  20
 400.000
  30
0.0
  11
 458.942
  21
 406.000
  31
0.0
   0
LINE
   8
LEVEL003
   6
CONTINUOUS
  62
3
  10
 318.623
  20
 471.556
  30
0.0
  11
 330.000
  21
 420.000
  31
0.0
   0
LINE
   8
LEVEL003
   6
CONTINUOUS
  62
3
  10
 318.623
  20
 471.556
  30
0.0
  11
 318.883
  21
 465.469
  31
0.0
   0
LINE
   8
LEVEL003
   6
CONTINUOUS
  62
3
  10
 318.623
  20
 471.556
  30
0.0
  11
 320.949
  21
 465.925
  31
0.0
   0
LINE
   8
LEVEL003
   6
CONTINUOUS
  62
3
  10
 358.511
  20
 469.413
  30
0.0
  11
 390.000
  21
 420.000
  31
0.0
   0
LINE
   8
LEVEL003
   6
CONTINUOUS
  62
3
  10
 358.511
  20
 469.413
  30
0.0
  11
 360.843
  21
 463.784
  31
0.0
   0
LINE
   8
LEVEL003
   6
CONTINUOUS
  62
3
  10
 358.511
  20
 469.413
  30
0.0
  11
 362.628
  21
 464.921
  31
0.0
   0
LINE
   8
LEVEL003
   6
CONTINUOUS
  62
3
  10
 110.000
  20
 395.000
  30
0.0
  11
 110.000
  21
 346.000
  31
0.0
   0
LINE
   8
LEVEL003
   6
CONTINUOUS
  62
3
  10
 270.000
  20
 395.000
  30
0.0
  11
 270.000
  21
 346.000
  31
0.0
   0
LINE
   8
LEVEL003
   6
CONTINUOUS
  62
3
  10
 110.000
  20
 350.000
  30
0.0
  11
 270.000
  21
 350.000
  31
0.0
   0
LINE
   8
LEVEL003
   6
CONTINUOUS
  62
3
  10
 110.000
  20
 350.000
  30
0.0
  11
 116.000
  21
 348.942
  31
0.0
   0
LINE
   8
LEVEL003
   6
CONTINUOUS
  62
3
  10
 110.000
  20
 350.000
  30
0.0
  11
 116.000
  21
 351.058
  31
0.0
   0
LINE
   8
LEVEL003
   6
CONTINUOUS
  62
3
  10
 270.000
  20
 350.000
  30
0.0
  11
 264.000
  21
 351.058
  31
0.0
   0
LINE
   8
LEVEL003
   6
CONTINUOUS
  62
3
  10
 270.000
  20
 350.000
  30
0.0
  11
 264.000
  21
 348.942
  31
0.0
   0
TEXT
   8
LEVEL003
  62
3
  10
 174.000
  20
 351.600
  30
0.0
  40
 8.00000
   1
PCD.160
  41
 0.500000
   7
STANDARD
  72
1
  11
 188.000
  21
 351.600
  31
0.0
   0
TEXT
   8
LEVEL003
  62
3
  10
 390.000
  20
 420.000
  30
0.0
  40
 8.00000
   1
Ｒ　１／２
   7
STANDARD
   0
LINE
   8
LEVEL001
   6
CONTINUOUS
  62
7
  10
 366.000
  20
 482.617
  30
0.0
  11
 368.042
  21
 485.809
  31
0.0
   0
LINE
   8
LEVEL001
   6
CONTINUOUS
  62
7
  10
 368.042
  20
 485.809
  30
0.0
  11
 377.000
  21
 485.809
  31
0.0
   0
LINE
   8
LEVEL001
   6
CONTINUOUS
  62
7
  10
 377.000
  20
 485.809
  30
0.0
  11
 377.000
  21
 474.191
  31
0.0
   0
LINE
   8
LEVEL001
   6
CONTINUOUS
  62
7
  10
 377.000
  20
 474.191
  30
0.0
  11
 368.042
  21
 474.191
  31
0.0
   0
LINE
   8
LEVEL001
   6
CONTINUOUS
  62
7
  10
 368.042
  20
 474.191
  30
0.0
  11
 366.000
  21
 477.383
  31
0.0
   0
LINE
   8
LEVEL001
   6
CONTINUOUS
  62
7
  10
 392.200
  20
 461.500
  30
0.0
  11
 392.200
  21
 498.500
  31
0.0
   0
LINE
   8
LEVEL001
   6
CONTINUOUS
  62
7
  10
 392.200
  20
 498.500
  30
0.0
  11
 402.200
  21
 498.500
  31
0.0
   0
LINE
   8
LEVEL001
   6
CONTINUOUS
  62
7
  10
 402.200
  20
 498.500
  30
0.0
  11
 402.200
  21
 461.500
  31
0.0
   0
LINE
   8
LEVEL001
   6
CONTINUOUS
  62
7
  10
 402.200
  20
 461.500
  30
0.0
  11
 392.200
  21
 461.500
  31
0.0
   0
CIRCLE
   8
LEVEL001
   6
CONTINUOUS
  62
7
  10
 190.000
  20
 170.000
  30
0.0
  40
 125.000
   0
CIRCLE
   8
LEVEL001
   6
CONTINUOUS
  62
7
  10
 190.000
  20
 170.000
  30
0.0
  40
 123.000
   0
CIRCLE
   8
LEVEL001
   6
DASHDOT
  62
1
  10
 190.000
  20
 170.000
  30
0.0
  40
 79.9999
   0
CIRCLE
   8
LEVEL001
   6
CONTINUOUS
  62
7
  10
 190.000
  20
 170.000
  30
0.0
  40
 4.25000
   0
CIRCLE
   8
LEVEL001
   6
CONTINUOUS
  62
3
  10
 190.000
  20
 170.000
  30
0.0
  40
 5.00000
   0
CIRCLE
   8
LEVEL001
   6
CONTINUOUS
  62
7
  10
 190.000
  20
 170.000
  30
0.0
  40
 98.5000
   0
CIRCLE
   8
LEVEL001
   6
CONTINUOUS
  62
3
  10
 190.000
  20
 170.000
  30
0.0
  40
 100.000
   0
LINE
   8
LEVEL003
   6
CONTINUOUS
  62
3
  10
 325.000
  20
 178.643
  30
0.0
  11
 321.384
  21
 177.674
  31
0.0
   0
LINE
   8
LEVEL003
   6
CONTINUOUS
  62
3
  10
 325.000
  20
 161.357
  30
0.0
  11
 321.384
  21
 162.326
  31
0.0
   0
LINE
   8
LEVEL003
   6
CONTINUOUS
  62
3
  10
 321.384
  20
 177.674
  30
0.0
  11
 321.384
  21
 162.326
  31
0.0
   0
ARC
   8
LEVEL003
   6
CONTINUOUS
  62
7
  10
 348.107
  20
 178.000
  30
0.0
  40
 23.1068
  50
 159.744
  51
 200.256
   0
ARC
   8
LEVEL003
   6
CONTINUOUS
  62
7
  10
 348.107
  20
 162.000
  30
0.0
  40
 23.1068
  50
 159.744
  51
 200.256
   0
LINE
   8
LEVEL003
   6
CONTINUOUS
  62
7
  10
 325.000
  20
 154.000
  30
0.0
  11
 325.000
  21
 186.000
  31
0.0
   0
LINE
   8
LEVEL003
   6
CONTINUOUS
  62
7
  10
 325.000
  20
 186.000
  30
0.0
  11
 355.000
  21
 186.000
  31
0.0
   0
LINE
   8
LEVEL003
   6
CONTINUOUS
  62
7
  10
 355.000
  20
 186.000
  30
0.0
  11
 355.000
  21
 154.000
  31
0.0
   0
LINE
   8
LEVEL003
   6
CONTINUOUS
  62
7
  10
 355.000
  20
 154.000
  30
0.0
  11
 325.000
  21
 154.000
  31
0.0
   0
ARC
   8
LEVEL003
   6
CONTINUOUS
  62
7
  10
 331.893
  20
 162.000
  30
0.0
  40
 23.1068
  50
 339.744
  51
 20.2562
   0
ARC
   8
LEVEL003
   6
CONTINUOUS
  62
7
  10
 331.893
  20
 178.000
  30
0.0
  40
 23.1068
  50
 339.744
  51
 20.2562
   0
LINE
   8
LEVEL003
   6
CONTINUOUS
  62
7
  10
 326.429
  20
 170.000
  30
0.0
  11
 353.571
  21
 170.000
  31
0.0
   0
LINE
   8
LEVEL003
   6
CONTINUOUS
  62
7
  10
 325.000
  20
 178.643
  30
0.0
  11
 315.000
  21
 178.331
  31
0.0
   0
LINE
   8
LEVEL003
   6
CONTINUOUS
  62
3
  10
 321.384
  20
 177.674
  30
0.0
  11
 315.000
  21
 177.475
  31
0.0
   0
LINE
   8
LEVEL003
   6
CONTINUOUS
  62
3
  10
 321.384
  20
 162.326
  30
0.0
  11
 315.000
  21
 162.525
  31
0.0
   0
LINE
   8
LEVEL003
   6
CONTINUOUS
  62
7
  10
 325.000
  20
 161.357
  30
0.0
  11
 315.000
  21
 161.669
  31
0.0
   0
ARC
   8
LEVEL003
   6
CONTINUOUS
  62
7
  10
 146.000
  20
 30.0000
  30
0.0
  40
 6.50000
  50
 90.0000
  51
 270.000
   0
ARC
   8
LEVEL003
   6
CONTINUOUS
  62
7
  10
 234.000
  20
 30.0000
  30
0.0
  40
 6.50000
  50
 270.000
  51
 90.0000
   0
LINE
   8
LEVEL003
   6
DASHDOT
  62
1
  10
 135.000
  20
 30.0000
  30
0.0
  11
 245.000
  21
 30.0000
  31
0.0
   0
LINE
   8
LEVEL003
   6
CONTINUOUS
  62
7
  10
 146.000
  20
 36.5000
  30
0.0
  11
 179.000
  21
 36.5000
  31
0.0
   0
LINE
   8
LEVEL003
   6
CONTINUOUS
  62
7
  10
 201.000
  20
 36.5000
  30
0.0
  11
 234.000
  21
 36.5000
  31
0.0
   0
LINE
   8
LEVEL003
   6
CONTINUOUS
  62
7
  10
 200.000
  20
 15.0000
  30
0.0
  11
 180.000
  21
 15.0000
  31
0.0
   0
LINE
   8
LEVEL003
   6
CONTINUOUS
  62
7
  10
 180.000
  20
 15.0000
  30
0.0
  11
 179.000
  21
 16.0000
  31
0.0
   0
LINE
   8
LEVEL003
   6
CONTINUOUS
  62
7
  10
 179.000
  20
 16.0000
  30
0.0
  11
 179.000
  21
 45.0000
  31
0.0
   0
LINE
   8
LEVEL003
   6
CONTINUOUS
  62
7
  10
 179.000
  20
 45.0000
  30
0.0
  11
 201.000
  21
 45.0000
  31
0.0
   0
LINE
   8
LEVEL003
   6
CONTINUOUS
  62
7
  10
 201.000
  20
 45.0000
  30
0.0
  11
 201.000
  21
 16.0000
  31
0.0
   0
LINE
   8
LEVEL003
   6
CONTINUOUS
  62
7
  10
 201.000
  20
 16.0000
  30
0.0
  11
 200.000
  21
 15.0000
  31
0.0
   0
ARC
   8
LEVEL003
   6
CONTINUOUS
  62
7
  10
 146.000
  20
 310.000
  30
0.0
  40
 6.50000
  50
 90.0000
  51
 270.000
   0
ARC
   8
LEVEL003
   6
CONTINUOUS
  62
7
  10
 234.000
  20
 310.000
  30
0.0
  40
 6.50000
  50
 270.000
  51
 90.0000
   0
LINE
   8
LEVEL003
   6
DASHDOT
  62
1
  10
 135.000
  20
 310.000
  30
0.0
  11
 245.000
  21
 310.000
  31
0.0
   0
LINE
   8
LEVEL003
   6
CONTINUOUS
  62
7
  10
 146.000
  20
 303.500
  30
0.0
  11
 179.000
  21
 303.500
  31
0.0
   0
LINE
   8
LEVEL003
   6
CONTINUOUS
  62
7
  10
 201.000
  20
 303.500
  30
0.0
  11
 234.000
  21
 303.500
  31
0.0
   0
LINE
   8
LEVEL003
   6
CONTINUOUS
  62
7
  10
 146.000
  20
 316.500
  30
0.0
  11
 179.000
  21
 316.500
  31
0.0
   0
LINE
   8
LEVEL003
   6
CONTINUOUS
  62
7
  10
 201.000
  20
 316.500
  30
0.0
  11
 234.000
  21
 316.500
  31
0.0
   0
LINE
   8
LEVEL003
   6
CONTINUOUS
  62
7
  10
 179.000
  20
 324.000
  30
0.0
  11
 201.000
  21
 324.000
  31
0.0
   0
LINE
   8
LEVEL003
   6
CONTINUOUS
  62
7
  10
 200.000
  20
 325.000
  30
0.0
  11
 180.000
  21
 325.000
  31
0.0
   0
LINE
   8
LEVEL003
   6
CONTINUOUS
  62
7
  10
 180.000
  20
 325.000
  30
0.0
  11
 179.000
  21
 324.000
  31
0.0
   0
LINE
   8
LEVEL003
   6
CONTINUOUS
  62
7
  10
 179.000
  20
 324.000
  30
0.0
  11
 179.000
  21
 295.000
  31
0.0
   0
LINE
   8
LEVEL003
   6
CONTINUOUS
  62
7
  10
 179.000
  20
 295.000
  30
0.0
  11
 201.000
  21
 295.000
  31
0.0
   0
LINE
   8
LEVEL003
   6
CONTINUOUS
  62
7
  10
 201.000
  20
 295.000
  30
0.0
  11
 201.000
  21
 324.000
  31
0.0
   0
LINE
   8
LEVEL003
   6
CONTINUOUS
  62
7
  10
 201.000
  20
 324.000
  30
0.0
  11
 200.000
  21
 325.000
  31
0.0
   0
LINE
   8
LEVEL001
   6
DASHDOT
  62
1
  10
 190.000
  20
 6.42906
  30
0.0
  11
 190.000
  21
 333.571
  31
0.0
   0
CIRCLE
   8
LEVEL001
   6
CONTINUOUS
  62
7
  10
 133.432
  20
 113.432
  30
0.0
  40
 7.00000
   0
CIRCLE
   8
LEVEL001
   6
CONTINUOUS
  62
3
  10
 133.432
  20
 113.432
  30
0.0
  40
 8.00000
   0
LINE
   8
LEVEL001
   6
DASHDOT
  62
1
  10
 124.371
  20
 104.371
  30
0.0
  11
 142.492
  21
 122.492
  31
0.0
   0
CIRCLE
   8
LEVEL001
   6
CONTINUOUS
  62
7
  10
 246.568
  20
 113.432
  30
0.0
  40
 7.00000
   0
CIRCLE
   8
LEVEL001
   6
CONTINUOUS
  62
3
  10
 246.568
  20
 113.432
  30
0.0
  40
 8.00000
   0
LINE
   8
LEVEL001
   6
DASHDOT
  62
1
  10
 255.629
  20
 104.371
  30
0.0
  11
 237.508
  21
 122.492
  31
0.0
   0
CIRCLE
   8
LEVEL001
   6
CONTINUOUS
  62
7
  10
 246.568
  20
 226.568
  30
0.0
  40
 7.00000
   0
CIRCLE
   8
LEVEL001
   6
CONTINUOUS
  62
3
  10
 246.568
  20
 226.568
  30
0.0
  40
 8.00000
   0
LINE
   8
LEVEL001
   6
DASHDOT
  62
1
  10
 255.629
  20
 235.629
  30
0.0
  11
 237.508
  21
 217.508
  31
0.0
   0
CIRCLE
   8
LEVEL001
   6
CONTINUOUS
  62
7
  10
 133.432
  20
 226.568
  30
0.0
  40
 7.00000
   0
CIRCLE
   8
LEVEL001
   6
CONTINUOUS
  62
3
  10
 133.432
  20
 226.568
  30
0.0
  40
 8.00000
   0
LINE
   8
LEVEL001
   6
DASHDOT
  62
1
  10
 124.371
  20
 235.629
  30
0.0
  11
 142.492
  21
 217.508
  31
0.0
   0
TEXT
   8
LEVEL003
  62
3
  10
 310.000
  20
 380.000
  30
0.0
  40
 8.00000
   1
４－Ｍ１６×２５Ｌ
   7
STANDARD
   0
LINE
   8
LEVEL003
   6
CONTINUOUS
  62
3
  10
 270.000
  20
 400.000
  30
0.0
  11
 300.000
  21
 380.000
  31
0.0
   0
LINE
   8
LEVEL003
   6
CONTINUOUS
  62
3
  10
 270.000
  20
 400.000
  30
0.0
  11
 274.405
  21
 395.792
  31
0.0
   0
LINE
   8
LEVEL003
   6
CONTINUOUS
  62
3
  10
 270.000
  20
 400.000
  30
0.0
  11
 275.579
  21
 397.552
  31
0.0
   0
LINE
   8
LEVEL001
   6
CONTINUOUS
  62
7
  10
 325.000
  20
 488.643
  30
0.0
  11
 315.000
  21
 488.331
  31
0.0
   0
LINE
   8
LEVEL001
   6
CONTINUOUS
  62
7
  10
 325.000
  20
 471.356
  30
0.0
  11
 315.000
  21
 471.669
  31
0.0
   0
LINE
   8
LEVEL001
   6
CONTINUOUS
  62
3
  10
 321.384
  20
 487.674
  30
0.0
  11
 315.000
  21
 487.475
  31
0.0
   0
LINE
   8
LEVEL001
   6
CONTINUOUS
  62
3
  10
 321.384
  20
 472.325
  30
0.0
  11
 315.000
  21
 472.525
  31
0.0
   0
LINE
   8
LEVEL001
   6
DASHDOT
  62
1
  10
 420.000
  20
 480.000
  30
0.0
  11
 310.000
  21
 480.000
  31
0.0
   0
LINE
   8
LEVEL001
   6
CONTINUOUS
  62
7
  10
 315.000
  20
 402.000
  30
0.0
  11
 65.0000
  21
 402.000
  31
0.0
   0
LINE
   8
LEVEL001
   6
DASHDOT
  62
1
  10
 54.7236
  20
 170.000
  30
0.0
  11
 420.000
  21
 170.000
  31
0.0
   0
LINE
   8
LEVEL001
   6
CONTINUOUS
  62
3
  10
 361.091
  20
 160.494
  30
0.0
  11
 361.091
  21
 179.506
  31
0.0
   0
LINE
   8
LEVEL001
   6
CONTINUOUS
  62
3
  10
 366.000
  20
 180.821
  30
0.0
  11
 361.091
  21
 179.506
  31
0.0
   0
LINE
   8
LEVEL001
   6
CONTINUOUS
  62
3
  10
 366.000
  20
 159.179
  30
0.0
  11
 361.091
  21
 160.494
  31
0.0
   0
LINE
   8
LEVEL001
   6
CONTINUOUS
  62
7
  10
 366.000
  20
 180.821
  30
0.0
  11
 366.000
  21
 159.179
  31
0.0
   0
ARC
   8
LEVEL001
   6
CONTINUOUS
  62
7
  10
 386.200
  20
 186.000
  30
0.0
  40
 2.00000
  50
 90.0000
  51
 180.000
   0
LINE
   8
LEVEL001
   6
CONTINUOUS
  62
7
  10
 386.200
  20
 188.000
  30
0.0
  11
 392.200
  21
 188.000
  31
0.0
   0
ARC
   8
LEVEL001
   6
CONTINUOUS
  62
7
  10
 408.200
  20
 187.000
  30
0.0
  40
 1.00000
  50
0.0
  51
 90.0000
   0
LINE
   8
LEVEL001
   6
CONTINUOUS
  62
7
  10
 402.200
  20
 188.000
  30
0.0
  11
 408.200
  21
 188.000
  31
0.0
   0
ARC
   8
LEVEL001
   6
CONTINUOUS
  62
7
  10
 386.200
  20
 154.000
  30
0.0
  40
 2.00000
  50
 180.000
  51
 270.000
   0
LINE
   8
LEVEL001
   6
CONTINUOUS
  62
7
  10
 386.200
  20
 152.000
  30
0.0
  11
 392.200
  21
 152.000
  31
0.0
   0
ARC
   8
LEVEL001
   6
CONTINUOUS
  62
7
  10
 408.200
  20
 153.000
  30
0.0
  40
 1.00000
  50
 270.000
  51
 0.475506E-9
   0
LINE
   8
LEVEL001
   6
CONTINUOUS
  62
7
  10
 402.200
  20
 152.000
  30
0.0
  11
 408.200
  21
 152.000
  31
0.0
   0
LINE
   8
LEVEL001
   6
CONTINUOUS
  62
7
  10
 384.200
  20
 154.000
  30
0.0
  11
 384.200
  21
 186.000
  31
0.0
   0
LINE
   8
LEVEL001
   6
CONTINUOUS
  62
7
  10
 409.200
  20
 187.000
  30
0.0
  11
 409.200
  21
 153.000
  31
0.0
   0
LINE
   8
LEVEL001
   6
CONTINUOUS
  62
7
  10
 368.042
  20
 180.500
  30
0.0
  11
 368.042
  21
 159.500
  31
0.0
   0
LINE
   8
LEVEL001
   6
CONTINUOUS
  62
3
  10
 392.200
  20
 153.500
  30
0.0
  11
 402.200
  21
 153.500
  31
0.0
   0
LINE
   8
LEVEL001
   6
CONTINUOUS
  62
3
  10
 392.200
  20
 155.500
  30
0.0
  11
 402.200
  21
 155.500
  31
0.0
   0
LINE
   8
LEVEL001
   6
CONTINUOUS
  62
3
  10
 392.200
  20
 157.500
  30
0.0
  11
 402.200
  21
 157.500
  31
0.0
   0
LINE
   8
LEVEL001
   6
CONTINUOUS
  62
3
  10
 392.200
  20
 159.500
  30
0.0
  11
 402.200
  21
 159.500
  31
0.0
   0
LINE
   8
LEVEL001
   6
CONTINUOUS
  62
3
  10
 392.200
  20
 161.500
  30
0.0
  11
 402.200
  21
 161.500
  31
0.0
   0
LINE
   8
LEVEL001
   6
CONTINUOUS
  62
3
  10
 392.200
  20
 163.500
  30
0.0
  11
 402.200
  21
 163.500
  31
0.0
   0
LINE
   8
LEVEL001
   6
CONTINUOUS
  62
3
  10
 392.200
  20
 165.500
  30
0.0
  11
 402.200
  21
 165.500
  31
0.0
   0
LINE
   8
LEVEL001
   6
CONTINUOUS
  62
3
  10
 392.200
  20
 167.500
  30
0.0
  11
 402.200
  21
 167.500
  31
0.0
   0
LINE
   8
LEVEL001
   6
CONTINUOUS
  62
3
  10
 392.200
  20
 169.500
  30
0.0
  11
 402.200
  21
 169.500
  31
0.0
   0
LINE
   8
LEVEL001
   6
CONTINUOUS
  62
3
  10
 392.200
  20
 171.500
  30
0.0
  11
 402.200
  21
 171.500
  31
0.0
   0
LINE
   8
LEVEL001
   6
CONTINUOUS
  62
3
  10
 392.200
  20
 173.500
  30
0.0
  11
 402.200
  21
 173.500
  31
0.0
   0
LINE
   8
LEVEL001
   6
CONTINUOUS
  62
3
  10
 392.200
  20
 175.500
  30
0.0
  11
 402.200
  21
 175.500
  31
0.0
   0
LINE
   8
LEVEL001
   6
CONTINUOUS
  62
3
  10
 392.200
  20
 177.500
  30
0.0
  11
 402.200
  21
 177.500
  31
0.0
   0
LINE
   8
LEVEL001
   6
CONTINUOUS
  62
3
  10
 392.200
  20
 179.500
  30
0.0
  11
 402.200
  21
 179.500
  31
0.0
   0
LINE
   8
LEVEL001
   6
CONTINUOUS
  62
3
  10
 392.200
  20
 181.500
  30
0.0
  11
 402.200
  21
 181.500
  31
0.0
   0
LINE
   8
LEVEL001
   6
CONTINUOUS
  62
3
  10
 392.200
  20
 183.500
  30
0.0
  11
 402.200
  21
 183.500
  31
0.0
   0
LINE
   8
LEVEL001
   6
CONTINUOUS
  62
3
  10
 392.200
  20
 185.500
  30
0.0
  11
 402.200
  21
 185.500
  31
0.0
   0
LINE
   8
LEVEL001
   6
CONTINUOUS
  62
3
  10
 392.200
  20
 187.500
  30
0.0
  11
 402.200
  21
 187.500
  31
0.0
   0
LINE
   8
LEVEL001
   6
CONTINUOUS
  62
7
  10
 366.000
  20
 180.821
  30
0.0
  11
 355.000
  21
 180.477
  31
0.0
   0
LINE
   8
LEVEL001
   6
CONTINUOUS
  62
7
  10
 366.000
  20
 159.179
  30
0.0
  11
 355.000
  21
 159.523
  31
0.0
   0
LINE
   8
LEVEL001
   6
CONTINUOUS
  62
3
  10
 361.091
  20
 179.506
  30
0.0
  11
 355.000
  21
 179.316
  31
0.0
   0
LINE
   8
LEVEL001
   6
CONTINUOUS
  62
3
  10
 361.091
  20
 160.494
  30
0.0
  11
 355.000
  21
 160.685
  31
0.0
   0
LINE
   8
LEVEL001
   6
CONTINUOUS
  62
7
  10
 366.000
  20
 180.500
  30
0.0
  11
 377.000
  21
 180.500
  31
0.0
   0
LINE
   8
LEVEL001
   6
CONTINUOUS
  62
7
  10
 377.000
  20
 180.500
  30
0.0
  11
 377.000
  21
 182.000
  31
0.0
   0
LINE
   8
LEVEL001
   6
CONTINUOUS
  62
7
  10
 377.000
  20
 182.000
  30
0.0
  11
 384.200
  21
 182.000
  31
0.0
   0
LINE
   8
LEVEL001
   6
CONTINUOUS
  62
7
  10
 366.000
  20
 159.500
  30
0.0
  11
 377.000
  21
 159.500
  31
0.0
   0
LINE
   8
LEVEL001
   6
CONTINUOUS
  62
7
  10
 377.000
  20
 159.500
  30
0.0
  11
 377.000
  21
 158.000
  31
0.0
   0
LINE
   8
LEVEL001
   6
CONTINUOUS
  62
7
  10
 377.000
  20
 158.000
  30
0.0
  11
 384.200
  21
 158.000
  31
0.0
   0
LINE
   8
LEVEL001
   6
CONTINUOUS
  62
7
  10
 392.200
  20
 151.500
  30
0.0
  11
 392.200
  21
 188.500
  31
0.0
   0
LINE
   8
LEVEL001
   6
CONTINUOUS
  62
7
  10
 392.200
  20
 188.500
  30
0.0
  11
 402.200
  21
 188.500
  31
0.0
   0
LINE
   8
LEVEL001
   6
CONTINUOUS
  62
7
  10
 402.200
  20
 188.500
  30
0.0
  11
 402.200
  21
 151.500
  31
0.0
   0
LINE
   8
LEVEL001
   6
CONTINUOUS
  62
7
  10
 402.200
  20
 151.500
  30
0.0
  11
 392.200
  21
 151.500
  31
0.0
   0
LINE
   8
LEVEL001
   6
DASHDOT
  62
1
  10
 409.200
  20
 187.000
  30
0.0
  11
 409.200
  21
 188.000
  31
0.0
   0
LINE
   8
LEVEL001
   6
DASHDOT
  62
1
  10
 409.200
  20
 188.000
  30
0.0
  11
 417.200
  21
 188.000
  31
0.0
   0
LINE
   8
LEVEL001
   6
DASHDOT
  62
1
  10
 417.200
  20
 188.000
  30
0.0
  11
 417.200
  21
 152.000
  31
0.0
   0
LINE
   8
LEVEL001
   6
DASHDOT
  62
1
  10
 417.200
  20
 152.000
  30
0.0
  11
 409.200
  21
 152.000
  31
0.0
   0
LINE
   8
LEVEL001
   6
DASHDOT
  62
1
  10
 409.200
  20
 152.000
  30
0.0
  11
 409.200
  21
 153.000
  31
0.0
   0
LINE
   8
LEVEL003
   6
CONTINUOUS
  62
7
  10
 146.000
  20
 23.5000
  30
0.0
  11
 179.000
  21
 23.5000
  31
0.0
   0
LINE
   8
LEVEL003
   6
CONTINUOUS
  62
7
  10
 201.000
  20
 23.5000
  30
0.0
  11
 234.000
  21
 23.5000
  31
0.0
   0
LINE
   8
LEVEL003
   6
CONTINUOUS
  62
7
  10
 179.000
  20
 16.0000
  30
0.0
  11
 201.000
  21
 16.0000
  31
0.0
   0
CIRCLE
   8
LEVEL003
   6
CONTINUOUS
  62
7
  10
 339.718
  20
 37.2707
  30
0.0
  40
 3.00000
   0
LINE
   8
LEVEL003
   6
CONTINUOUS
  62
7
  10
 345.606
  20
 40.2707
  30
0.0
  11
 341.797
  21
 33.6707
  31
0.0
   0
LINE
   8
LEVEL003
   6
CONTINUOUS
  62
7
  10
 341.797
  20
 33.6707
  30
0.0
  11
 334.176
  21
 33.6707
  31
0.0
   0
LINE
   8
LEVEL003
   6
CONTINUOUS
  62
7
  10
 333.309
  20
 32.1707
  30
0.0
  11
 346.930
  21
 32.1707
  31
0.0
   0
LINE
   8
LEVEL003
   6
CONTINUOUS
  62
7
  10
 346.930
  20
 32.1707
  30
0.0
  11
 351.606
  21
 40.2707
  31
0.0
   0
LINE
   8
LEVEL003
   6
CONTINUOUS
  62
7
  10
 351.606
  20
 40.2707
  30
0.0
  11
 345.606
  21
 40.2707
  31
0.0
   0
LINE
   8
LEVEL003
   6
CONTINUOUS
  62
7
  10
 334.176
  20
 33.6707
  30
0.0
  11
 333.309
  21
 32.1707
  31
0.0
   0
TEXT
   8
LEVEL003
  62
7
  10
 351.691
  20
 30.2200
  30
0.0
  40
 10.0000
   1
ＯＳＡＫＡ ＪＡＣＫ
   7
STANDARD
   0
LINE
   8
LEVEL003
   6
CONTINUOUS
  62
3
  10
 390.000
  20
 420.000
  30
0.0
  11
 435.011
  21
 420.000
  31
0.0
   0
LINE
   8
LEVEL003
   6
CONTINUOUS
  62
3
  10
 330.000
  20
 420.000
  30
0.0
  11
 384.470
  21
 420.000
  31
0.0
   0
LINE
   8
LEVEL003
   6
CONTINUOUS
  62
3
  10
 300.000
  20
 380.000
  30
0.0
  11
 393.757
  21
 380.000
  31
0.0
   0
LINE
   8
LEVEL004
   6
DOT
  62
7
  10
 277.000
  20
 401.000
  30
0.0
  11
 263.000
  21
 401.000
  31
0.0
   0
LINE
   8
LEVEL004
   6
DOT
  62
3
  10
 262.000
  20
 420.000
  30
0.0
  11
 262.000
  21
 400.000
  31
0.0
   0
LINE
   8
LEVEL004
   6
DOT
  62
7
  10
 263.000
  20
 420.000
  30
0.0
  11
 263.000
  21
 401.000
  31
0.0
   0
LINE
   8
LEVEL004
   6
DOT
  62
7
  10
 263.000
  20
 401.000
  30
0.0
  11
 262.000
  21
 400.000
  31
0.0
   0
LINE
   8
LEVEL004
   6
DOT
  62
3
  10
 278.000
  20
 400.000
  30
0.0
  11
 278.000
  21
 420.000
  31
0.0
   0
LINE
   8
LEVEL004
   6
DOT
  62
7
  10
 278.000
  20
 400.000
  30
0.0
  11
 277.000
  21
 401.000
  31
0.0
   0
LINE
   8
LEVEL004
   6
DOT
  62
7
  10
 277.000
  20
 401.000
  30
0.0
  11
 277.000
  21
 420.000
  31
0.0
   0
LINE
   8
LEVEL004
   6
DASHDOT
  62
1
  10
 270.000
  20
 397.000
  30
0.0
  11
 270.000
  21
 420.000
  31
0.0
   0
LINE
   8
LEVEL004
   6
DASHDOT
  62
1
  10
 110.000
  20
 397.000
  30
0.0
  11
 110.000
  21
 420.000
  31
0.0
   0
LINE
   8
LEVEL001
   6
CONTINUOUS
  62
7
  10
 311.500
  20
 1160.00
  30
0.0
  11
 310.500
  21
 1161.00
  31
0.0
   0
LINE
   8
LEVEL001
   6
CONTINUOUS
  62
7
  10
 311.500
  20
 1160.00
  30
0.0
  11
 311.500
  21
 1156.00
  31
0.0
   0
LINE
   8
LEVEL001
   6
CONTINUOUS
  62
7
  10
 313.000
  20
 1156.00
  30
0.0
  11
 315.000
  21
 1154.00
  31
0.0
   0
LINE
   8
LEVEL001
   6
CONTINUOUS
  62
7
  10
 315.000
  20
 1154.00
  30
0.0
  11
 315.000
  21
 1073.54
  31
0.0
   0
LINE
   8
LEVEL001
   6
CONTINUOUS
  62
3
  10
 313.000
  20
 1081.00
  30
0.0
  11
 315.000
  21
 1073.54
  31
0.0
   0
LINE
   8
LEVEL001
   6
DASHDOT
  62
1
  10
 313.000
  20
 1156.00
  30
0.0
  11
 318.000
  21
 1156.00
  31
0.0
   0
LINE
   8
LEVEL001
   6
DASHDOT
  62
1
  10
 318.000
  20
 1156.00
  30
0.0
  11
 318.000
  21
 1081.00
  31
0.0
   0
LINE
   8
LEVEL001
   6
DASHDOT
  62
1
  10
 318.000
  20
 1081.00
  30
0.0
  11
 315.000
  21
 1081.00
  31
0.0
   0
LINE
   8
LEVEL001
   6
CONTINUOUS
  62
7
  10
 251.500
  20
 1180.00
  30
0.0
  11
 253.500
  21
 1178.00
  31
0.0
   0
LINE
   8
LEVEL001
   6
CONTINUOUS
  62
7
  10
 253.500
  20
 1178.00
  30
0.0
  11
 253.500
  21
 1161.00
  31
0.0
   0
LINE
   8
LEVEL001
   6
CONTINUOUS
  62
7
  10
 68.5000
  20
 1160.00
  30
0.0
  11
 69.5000
  21
 1161.00
  31
0.0
   0
LINE
   8
LEVEL001
   6
CONTINUOUS
  62
7
  10
 68.5000
  20
 1160.00
  30
0.0
  11
 68.5000
  21
 1156.00
  31
0.0
   0
LINE
   8
LEVEL001
   6
CONTINUOUS
  62
7
  10
 65.0000
  20
 1073.54
  30
0.0
  11
 65.0000
  21
 402.000
  31
0.0
   0
LINE
   8
LEVEL001
   6
CONTINUOUS
  62
7
  10
 67.0000
  20
 1156.00
  30
0.0
  11
 65.0000
  21
 1154.00
  31
0.0
   0
LINE
   8
LEVEL001
   6
CONTINUOUS
  62
7
  10
 65.0000
  20
 1154.00
  30
0.0
  11
 65.0000
  21
 1073.54
  31
0.0
   0
LINE
   8
LEVEL001
   6
CONTINUOUS
  62
3
  10
 67.0000
  20
 1081.00
  30
0.0
  11
 65.0000
  21
 1073.54
  31
0.0
   0
LINE
   8
LEVEL001
   6
DASHDOT
  62
1
  10
 67.0000
  20
 1156.00
  30
0.0
  11
 62.0000
  21
 1156.00
  31
0.0
   0
LINE
   8
LEVEL001
   6
DASHDOT
  62
1
  10
 62.0000
  20
 1156.00
  30
0.0
  11
 62.0000
  21
 1081.00
  31
0.0
   0
LINE
   8
LEVEL001
   6
DASHDOT
  62
1
  10
 62.0000
  20
 1081.00
  30
0.0
  11
 65.0000
  21
 1081.00
  31
0.0
   0
LINE
   8
LEVEL001
   6
CONTINUOUS
  62
7
  10
 128.500
  20
 1180.00
  30
0.0
  11
 126.500
  21
 1178.00
  31
0.0
   0
LINE
   8
LEVEL001
   6
CONTINUOUS
  62
7
  10
 126.500
  20
 1178.00
  30
0.0
  11
 126.500
  21
 1161.00
  31
0.0
   0
LINE
   8
LEVEL001
   6
CONTINUOUS
  62
7
  10
 128.500
  20
 1180.00
  30
0.0
  11
 251.500
  21
 1180.00
  31
0.0
   0
LINE
   8
LEVEL001
   6
DASHDOT
  62
1
  10
 190.000
  20
 1190.00
  30
0.0
  11
 190.000
  21
 390.000
  31
0.0
   0
LINE
   8
LEVEL001
   6
CONTINUOUS
  62
3
  10
 325.000
  20
 1064.64
  30
0.0
  11
 321.384
  21
 1063.67
  31
0.0
   0
LINE
   8
LEVEL001
   6
CONTINUOUS
  62
3
  10
 325.000
  20
 1047.36
  30
0.0
  11
 321.384
  21
 1048.32
  31
0.0
   0
LINE
   8
LEVEL001
   6
CONTINUOUS
  62
3
  10
 321.384
  20
 1063.67
  30
0.0
  11
 321.384
  21
 1048.32
  31
0.0
   0
ARC
   8
LEVEL001
   6
CONTINUOUS
  62
7
  10
 342.599
  20
 1072.19
  30
0.0
  40
 17.6000
  50
 180.609
  51
 203.257
   0
ARC
   8
LEVEL001
   6
CONTINUOUS
  62
7
  10
 342.599
  20
 1039.81
  30
0.0
  40
 17.6000
  50
 156.743
  51
 179.391
   0
ARC
   8
LEVEL001
   6
CONTINUOUS
  62
7
  10
 355.571
  20
 1056.00
  30
0.0
  40
 30.5710
  50
 162.412
  51
 197.588
   0
LINE
   8
LEVEL001
   6
CONTINUOUS
  62
7
  10
 326.429
  20
 1074.47
  30
0.0
  11
 325.000
  21
 1072.00
  31
0.0
   0
LINE
   8
LEVEL001
   6
CONTINUOUS
  62
7
  10
 325.000
  20
 1072.00
  30
0.0
  11
 325.000
  21
 1040.00
  31
0.0
   0
LINE
   8
LEVEL001
   6
CONTINUOUS
  62
7
  10
 325.000
  20
 1040.00
  30
0.0
  11
 326.429
  21
 1037.53
  31
0.0
   0
LINE
   8
LEVEL001
   6
CONTINUOUS
  62
7
  10
 326.429
  20
 1037.53
  30
0.0
  11
 353.571
  21
 1037.53
  31
0.0
   0
LINE
   8
LEVEL001
   6
CONTINUOUS
  62
7
  10
 353.571
  20
 1037.53
  30
0.0
  11
 355.000
  21
 1040.00
  31
0.0
   0
LINE
   8
LEVEL001
   6
CONTINUOUS
  62
7
  10
 355.000
  20
 1040.00
  30
0.0
  11
 355.000
  21
 1072.00
  31
0.0
   0
LINE
   8
LEVEL001
   6
CONTINUOUS
  62
7
  10
 355.000
  20
 1072.00
  30
0.0
  11
 353.571
  21
 1074.47
  31
0.0
   0
LINE
   8
LEVEL001
   6
CONTINUOUS
  62
7
  10
 353.571
  20
 1074.47
  30
0.0
  11
 326.429
  21
 1074.47
  31
0.0
   0
ARC
   8
LEVEL001
   6
CONTINUOUS
  62
7
  10
 337.401
  20
 1039.81
  30
0.0
  40
 17.6000
  50
 0.608626
  51
 23.2566
   0
ARC
   8
LEVEL001
   6
CONTINUOUS
  62
7
  10
 337.401
  20
 1072.19
  30
0.0
  40
 17.6000
  50
 336.743
  51
 359.391
   0
ARC
   8
LEVEL001
   6
CONTINUOUS
  62
7
  10
 324.429
  20
 1056.00
  30
0.0
  40
 30.5710
  50
 342.412
  51
 17.5880
   0
LINE
   8
LEVEL001
   6
CONTINUOUS
  62
7
  10
 326.429
  20
 1065.24
  30
0.0
  11
 353.571
  21
 1065.24
  31
0.0
   0
LINE
   8
LEVEL001
   6
CONTINUOUS
  62
7
  10
 326.429
  20
 1046.76
  30
0.0
  11
 353.571
  21
 1046.76
  31
0.0
   0
LINE
   8
LEVEL001
   6
CONTINUOUS
  62
3
  10
 361.091
  20
 1046.49
  30
0.0
  11
 361.091
  21
 1065.51
  31
0.0
   0
LINE
   8
LEVEL001
   6
CONTINUOUS
  62
3
  10
 366.000
  20
 1066.82
  30
0.0
  11
 361.091
  21
 1065.51
  31
0.0
   0
LINE
   8
LEVEL001
   6
CONTINUOUS
  62
3
  10
 366.000
  20
 1045.18
  30
0.0
  11
 361.091
  21
 1046.49
  31
0.0
   0
LINE
   8
LEVEL001
   6
CONTINUOUS
  62
7
  10
 366.000
  20
 1066.82
  30
0.0
  11
 366.000
  21
 1045.18
  31
0.0
   0
LINE
   8
LEVEL001
   6
CONTINUOUS
  62
7
  10
 368.042
  20
 1068.00
  30
0.0
  11
 384.200
  21
 1068.00
  31
0.0
   0
LINE
   8
LEVEL001
   6
CONTINUOUS
  62
7
  10
 366.000
  20
 1045.18
  30
0.0
  11
 368.042
  21
 1044.00
  31
0.0
   0
LINE
   8
LEVEL001
   6
CONTINUOUS
  62
7
  10
 368.042
  20
 1044.00
  30
0.0
  11
 384.200
  21
 1044.00
  31
0.0
   0
LINE
   8
LEVEL001
   6
CONTINUOUS
  62
7
  10
 366.000
  20
 1066.82
  30
0.0
  11
 368.042
  21
 1068.00
  31
0.0
   0
ARC
   8
LEVEL001
   6
CONTINUOUS
  62
7
  10
 386.200
  20
 1072.00
  30
0.0
  40
 2.00000
  50
 90.0000
  51
 180.000
   0
LINE
   8
LEVEL001
   6
CONTINUOUS
  62
7
  10
 386.200
  20
 1074.00
  30
0.0
  11
 392.200
  21
 1074.00
  31
0.0
   0
ARC
   8
LEVEL001
   6
CONTINUOUS
  62
7
  10
 408.200
  20
 1073.00
  30
0.0
  40
 1.00000
  50
0.0
  51
 90.0000
   0
LINE
   8
LEVEL001
   6
CONTINUOUS
  62
7
  10
 402.200
  20
 1074.00
  30
0.0
  11
 408.200
  21
 1074.00
  31
0.0
   0
ARC
   8
LEVEL001
   6
CONTINUOUS
  62
7
  10
 386.200
  20
 1040.00
  30
0.0
  40
 2.00000
  50
 180.000
  51
 270.000
   0
LINE
   8
LEVEL001
   6
CONTINUOUS
  62
7
  10
 386.200
  20
 1038.00
  30
0.0
  11
 392.200
  21
 1038.00
  31
0.0
   0
ARC
   8
LEVEL001
   6
CONTINUOUS
  62
7
  10
 408.200
  20
 1039.00
  30
0.0
  40
 1.00000
  50
 270.000
  51
0.0
   0
LINE
   8
LEVEL001
   6
CONTINUOUS
  62
7
  10
 402.200
  20
 1038.00
  30
0.0
  11
 408.200
  21
 1038.00
  31
0.0
   0
LINE
   8
LEVEL001
   6
CONTINUOUS
  62
7
  10
 384.200
  20
 1040.00
  30
0.0
  11
 384.200
  21
 1072.00
  31
0.0
   0
LINE
   8
LEVEL001
   6
CONTINUOUS
  62
7
  10
 409.200
  20
 1073.00
  30
0.0
  11
 409.200
  21
 1039.00
  31
0.0
   0
LINE
   8
LEVEL001
   6
CONTINUOUS
  62
7
  10
 368.042
  20
 1068.00
  30
0.0
  11
 368.042
  21
 1061.81
  31
0.0
   0
LINE
   8
LEVEL001
   6
CONTINUOUS
  62
7
  10
 368.042
  20
 1050.19
  30
0.0
  11
 368.042
  21
 1044.00
  31
0.0
   0
LINE
   8
LEVEL001
   6
CONTINUOUS
  62
7
  10
 368.042
  20
 1050.19
  30
0.0
  11
 377.000
  21
 1061.81
  31
0.0
   0
LINE
   8
LEVEL001
   6
CONTINUOUS
  62
7
  10
 368.042
  20
 1061.81
  30
0.0
  11
 377.000
  21
 1050.19
  31
0.0
   0
LINE
   8
LEVEL001
   6
DASHDOT
  62
1
  10
 409.200
  20
 1074.00
  30
0.0
  11
 417.200
  21
 1074.00
  31
0.0
   0
LINE
   8
LEVEL001
   6
DASHDOT
  62
1
  10
 409.200
  20
 1038.00
  30
0.0
  11
 417.200
  21
 1038.00
  31
0.0
   0
LINE
   8
LEVEL001
   6
DASHDOT
  62
1
  10
 417.200
  20
 1074.00
  30
0.0
  11
 417.200
  21
 1038.00
  31
0.0
   0
LINE
   8
LEVEL001
   6
DASHDOT
  62
1
  10
 409.200
  20
 1073.00
  30
0.0
  11
 409.200
  21
 1074.00
  31
0.0
   0
LINE
   8
LEVEL001
   6
DASHDOT
  62
1
  10
 409.200
  20
 1039.00
  30
0.0
  11
 409.200
  21
 1038.00
  31
0.0
   0
LINE
   8
LEVEL001
   6
CONTINUOUS
  62
3
  10
 392.200
  20
 1039.50
  30
0.0
  11
 402.200
  21
 1039.50
  31
0.0
   0
LINE
   8
LEVEL001
   6
CONTINUOUS
  62
3
  10
 392.200
  20
 1041.50
  30
0.0
  11
 402.200
  21
 1041.50
  31
0.0
   0
LINE
   8
LEVEL001
   6
CONTINUOUS
  62
3
  10
 392.200
  20
 1043.50
  30
0.0
  11
 402.200
  21
 1043.50
  31
0.0
   0
LINE
   8
LEVEL001
   6
CONTINUOUS
  62
3
  10
 392.200
  20
 1045.50
  30
0.0
  11
 402.200
  21
 1045.50
  31
0.0
   0
LINE
   8
LEVEL001
   6
CONTINUOUS
  62
3
  10
 392.200
  20
 1047.50
  30
0.0
  11
 402.200
  21
 1047.50
  31
0.0
   0
LINE
   8
LEVEL001
   6
CONTINUOUS
  62
3
  10
 392.200
  20
 1049.50
  30
0.0
  11
 402.200
  21
 1049.50
  31
0.0
   0
LINE
   8
LEVEL001
   6
CONTINUOUS
  62
3
  10
 392.200
  20
 1051.50
  30
0.0
  11
 402.200
  21
 1051.50
  31
0.0
   0
LINE
   8
LEVEL001
   6
CONTINUOUS
  62
3
  10
 392.200
  20
 1053.50
  30
0.0
  11
 402.200
  21
 1053.50
  31
0.0
   0
LINE
   8
LEVEL001
   6
CONTINUOUS
  62
3
  10
 392.200
  20
 1055.50
  30
0.0
  11
 402.200
  21
 1055.50
  31
0.0
   0
LINE
   8
LEVEL001
   6
CONTINUOUS
  62
3
  10
 392.200
  20
 1057.50
  30
0.0
  11
 402.200
  21
 1057.50
  31
0.0
   0
LINE
   8
LEVEL001
   6
CONTINUOUS
  62
3
  10
 392.200
  20
 1059.50
  30
0.0
  11
 402.200
  21
 1059.50
  31
0.0
   0
LINE
   8
LEVEL001
   6
CONTINUOUS
  62
3
  10
 392.200
  20
 1061.50
  30
0.0
  11
 402.200
  21
 1061.50
  31
0.0
   0
LINE
   8
LEVEL001
   6
CONTINUOUS
  62
3
  10
 392.200
  20
 1063.50
  30
0.0
  11
 402.200
  21
 1063.50
  31
0.0
   0
LINE
   8
LEVEL001
   6
CONTINUOUS
  62
3
  10
 392.200
  20
 1065.50
  30
0.0
  11
 402.200
  21
 1065.50
  31
0.0
   0
LINE
   8
LEVEL001
   6
CONTINUOUS
  62
3
  10
 392.200
  20
 1067.50
  30
0.0
  11
 402.200
  21
 1067.50
  31
0.0
   0
LINE
   8
LEVEL001
   6
CONTINUOUS
  62
3
  10
 392.200
  20
 1069.50
  30
0.0
  11
 402.200
  21
 1069.50
  31
0.0
   0
LINE
   8
LEVEL001
   6
CONTINUOUS
  62
3
  10
 392.200
  20
 1071.50
  30
0.0
  11
 402.200
  21
 1071.50
  31
0.0
   0
LINE
   8
LEVEL001
   6
CONTINUOUS
  62
3
  10
 392.200
  20
 1073.50
  30
0.0
  11
 402.200
  21
 1073.50
  31
0.0
   0
LINE
   8
LEVEL001
   6
CONTINUOUS
  62
7
  10
 366.000
  20
 1066.82
  30
0.0
  11
 355.000
  21
 1066.48
  31
0.0
   0
LINE
   8
LEVEL001
   6
CONTINUOUS
  62
7
  10
 366.000
  20
 1045.18
  30
0.0
  11
 355.000
  21
 1045.52
  31
0.0
   0
LINE
   8
LEVEL001
   6
CONTINUOUS
  62
3
  10
 361.091
  20
 1065.51
  30
0.0
  11
 355.000
  21
 1065.32
  31
0.0
   0
LINE
   8
LEVEL001
   6
CONTINUOUS
  62
3
  10
 361.091
  20
 1046.49
  30
0.0
  11
 355.000
  21
 1046.68
  31
0.0
   0
LINE
   8
LEVEL003
   6
CONTINUOUS
  62
3
  10
 232.750
  20
 1161.00
  30
0.0
  11
 216.000
  21
 1161.00
  31
0.0
   0
LINE
   8
LEVEL003
   6
CONTINUOUS
  62
3
  10
 220.000
  20
 1106.00
  30
0.0
  11
 220.000
  21
 1161.00
  31
0.0
   0
LINE
   8
LEVEL003
   6
CONTINUOUS
  62
3
  10
 220.000
  20
 1106.00
  30
0.0
  11
 221.058
  21
 1112.00
  31
0.0
   0
LINE
   8
LEVEL003
   6
CONTINUOUS
  62
3
  10
 220.000
  20
 1106.00
  30
0.0
  11
 218.942
  21
 1112.00
  31
0.0
   0
LINE
   8
LEVEL003
   6
CONTINUOUS
  62
3
  10
 220.000
  20
 1161.00
  30
0.0
  11
 218.942
  21
 1155.00
  31
0.0
   0
LINE
   8
LEVEL003
   6
CONTINUOUS
  62
3
  10
 220.000
  20
 1161.00
  30
0.0
  11
 221.058
  21
 1155.00
  31
0.0
   0
TEXT
   8
LEVEL003
  62
3
  10
 218.400
  20
 1134.50
  30
0.0
  40
 8.00000
   1
55
  50
 90.0000
  41
 0.500000
   7
STANDARD
  72
1
  11
 218.400
  21
 1138.50
  31
0.0
   0
TEXT
   8
LEVEL003
  62
3
  10
 270.000
  20
 1190.00
  30
0.0
  40
 8.00000
   1
Ｍ９０×３
   7
STANDARD
   0
LINE
   8
LEVEL003
   6
CONTINUOUS
  62
3
  10
 253.500
  20
 1180.00
  30
0.0
  11
 464.000
  21
 1180.00
  31
0.0
   0
LINE
   8
LEVEL003
   6
CONTINUOUS
  62
3
  10
 460.000
  20
 400.000
  30
0.0
  11
 460.000
  21
 1180.00
  31
0.0
   0
LINE
   8
LEVEL003
   6
CONTINUOUS
  62
3
  10
 460.000
  20
 1180.00
  30
0.0
  11
 458.942
  21
 1174.00
  31
0.0
   0
LINE
   8
LEVEL003
   6
CONTINUOUS
  62
3
  10
 460.000
  20
 1180.00
  30
0.0
  11
 461.058
  21
 1174.00
  31
0.0
   0
LINE
   8
LEVEL003
   6
CONTINUOUS
  62
3
  10
 253.500
  20
 1180.00
  30
0.0
  11
 444.000
  21
 1180.00
  31
0.0
   0
LINE
   8
LEVEL003
   6
CONTINUOUS
  62
3
  10
 312.500
  20
 1161.00
  30
0.0
  11
 444.000
  21
 1161.00
  31
0.0
   0
LINE
   8
LEVEL003
   6
CONTINUOUS
  62
3
  10
 440.000
  20
 1180.00
  30
0.0
  11
 440.000
  21
 1161.00
  31
0.0
   0
LINE
   8
LEVEL003
   6
CONTINUOUS
  62
3
  10
 440.000
  20
 1180.00
  30
0.0
  11
 438.942
  21
 1174.00
  31
0.0
   0
LINE
   8
LEVEL003
   6
CONTINUOUS
  62
3
  10
 440.000
  20
 1180.00
  30
0.0
  11
 441.058
  21
 1174.00
  31
0.0
   0
LINE
   8
LEVEL003
   6
CONTINUOUS
  62
3
  10
 440.000
  20
 1161.00
  30
0.0
  11
 441.058
  21
 1167.00
  31
0.0
   0
LINE
   8
LEVEL003
   6
CONTINUOUS
  62
3
  10
 440.000
  20
 1161.00
  30
0.0
  11
 438.942
  21
 1167.00
  31
0.0
   0
TEXT
   8
LEVEL003
  62
3
  10
 438.400
  20
 1166.50
  30
0.0
  40
 8.00000
   1
19
  50
 90.0000
  41
 0.500000
   7
STANDARD
  72
1
  11
 438.400
  21
 1170.50
  31
0.0
   0
LINE
   8
LEVEL003
   6
CONTINUOUS
  62
3
  10
 312.500
  20
 1161.00
  30
0.0
  11
 444.000
  21
 1161.00
  31
0.0
   0
LINE
   8
LEVEL003
   6
CONTINUOUS
  62
3
  10
 422.000
  20
 1056.00
  30
0.0
  11
 444.000
  21
 1056.00
  31
0.0
   0
LINE
   8
LEVEL003
   6
CONTINUOUS
  62
3
  10
 440.000
  20
 1161.00
  30
0.0
  11
 440.000
  21
 1056.00
  31
0.0
   0
LINE
   8
LEVEL003
   6
CONTINUOUS
  62
3
  10
 440.000
  20
 1161.00
  30
0.0
  11
 438.942
  21
 1155.00
  31
0.0
   0
LINE
   8
LEVEL003
   6
CONTINUOUS
  62
3
  10
 440.000
  20
 1161.00
  30
0.0
  11
 441.058
  21
 1155.00
  31
0.0
   0
LINE
   8
LEVEL003
   6
CONTINUOUS
  62
3
  10
 440.000
  20
 1056.00
  30
0.0
  11
 441.058
  21
 1062.00
  31
0.0
   0
LINE
   8
LEVEL003
   6
CONTINUOUS
  62
3
  10
 440.000
  20
 1056.00
  30
0.0
  11
 438.942
  21
 1062.00
  31
0.0
   0
TEXT
   8
LEVEL003
  62
3
  10
 438.400
  20
 1102.50
  30
0.0
  40
 8.00000
   1
105
  50
 90.0000
  41
 0.500000
   7
STANDARD
  72
1
  11
 438.400
  21
 1108.50
  31
0.0
   0
LINE
   8
LEVEL003
   6
CONTINUOUS
  62
3
  10
 312.500
  20
 1161.00
  30
0.0
  11
 404.000
  21
 1161.00
  31
0.0
   0
LINE
   8
LEVEL003
   6
CONTINUOUS
  62
3
  10
 320.000
  20
 1081.00
  30
0.0
  11
 404.000
  21
 1081.00
  31
0.0
   0
LINE
   8
LEVEL003
   6
CONTINUOUS
  62
3
  10
 400.000
  20
 1161.00
  30
0.0
  11
 400.000
  21
 1081.00
  31
0.0
   0
LINE
   8
LEVEL003
   6
CONTINUOUS
  62
3
  10
 400.000
  20
 1161.00
  30
0.0
  11
 398.942
  21
 1155.00
  31
0.0
   0
LINE
   8
LEVEL003
   6
CONTINUOUS
  62
3
  10
 400.000
  20
 1161.00
  30
0.0
  11
 401.058
  21
 1155.00
  31
0.0
   0
LINE
   8
LEVEL003
   6
CONTINUOUS
  62
3
  10
 400.000
  20
 1081.00
  30
0.0
  11
 401.058
  21
 1087.00
  31
0.0
   0
LINE
   8
LEVEL003
   6
CONTINUOUS
  62
3
  10
 400.000
  20
 1081.00
  30
0.0
  11
 398.942
  21
 1087.00
  31
0.0
   0
TEXT
   8
LEVEL003
  62
3
  10
 398.400
  20
 1117.00
  30
0.0
  40
 8.00000
   1
80
  50
 90.0000
  41
 0.500000
   7
STANDARD
  72
1
  11
 398.400
  21
 1121.00
  31
0.0
   0
LINE
   8
LEVEL003
   6
CONTINUOUS
  62
3
  10
 312.500
  20
 1161.00
  30
0.0
  11
 384.000
  21
 1161.00
  31
0.0
   0
LINE
   8
LEVEL003
   6
CONTINUOUS
  62
3
  10
 320.000
  20
 1156.00
  30
0.0
  11
 384.000
  21
 1156.00
  31
0.0
   0
LINE
   8
LEVEL003
   6
CONTINUOUS
  62
3
  10
 380.000
  20
 1161.00
  30
0.0
  11
 380.000
  21
 1156.00
  31
0.0
   0
LINE
   8
LEVEL003
   6
CONTINUOUS
  62
3
  10
 380.000
  20
 1156.00
  30
0.0
  11
 380.000
  21
 1140.00
  31
0.0
   0
LINE
   8
LEVEL003
   6
CONTINUOUS
  62
3
  10
 380.000
  20
 1161.00
  30
0.0
  11
 381.058
  21
 1167.00
  31
0.0
   0
LINE
   8
LEVEL003
   6
CONTINUOUS
  62
3
  10
 380.000
  20
 1161.00
  30
0.0
  11
 378.942
  21
 1167.00
  31
0.0
   0
LINE
   8
LEVEL003
   6
CONTINUOUS
  62
3
  10
 380.000
  20
 1156.00
  30
0.0
  11
 378.942
  21
 1150.00
  31
0.0
   0
LINE
   8
LEVEL003
   6
CONTINUOUS
  62
3
  10
 380.000
  20
 1156.00
  30
0.0
  11
 381.058
  21
 1150.00
  31
0.0
   0
LINE
   8
LEVEL003
   6
CONTINUOUS
  62
3
  10
 380.000
  20
 1161.00
  30
0.0
  11
 380.000
  21
 1168.50
  31
0.0
   0
LINE
   8
LEVEL003
   6
CONTINUOUS
  62
3
  10
 380.000
  20
 1156.00
  30
0.0
  11
 380.000
  21
 1140.00
  31
0.0
   0
TEXT
   8
LEVEL003
  62
3
  10
 378.400
  20
 1142.00
  30
0.0
  40
 8.00000
   1
5
  50
 90.0000
  41
 0.500000
   7
STANDARD
  72
1
  11
 378.400
  21
 1144.00
  31
0.0
   0
TEXT
   8
LEVEL003
  62
3
  10
 340.000
  20
 1100.00
  30
0.0
  40
 8.00000
   1
Ｍ２５０×４
   7
STANDARD
   0
LINE
   8
LEVEL003
   6
CONTINUOUS
  62
3
  10
 315.000
  20
 1120.00
  30
0.0
  11
 340.000
  21
 1100.00
  31
0.0
   0
LINE
   8
LEVEL003
   6
CONTINUOUS
  62
3
  10
 315.000
  20
 1120.00
  30
0.0
  11
 319.024
  21
 1115.43
  31
0.0
   0
LINE
   8
LEVEL003
   6
CONTINUOUS
  62
3
  10
 315.000
  20
 1120.00
  30
0.0
  11
 320.346
  21
 1117.08
  31
0.0
   0
LINE
   8
LEVEL003
   6
CONTINUOUS
  62
3
  10
 235.000
  20
 1120.00
  30
0.0
  11
 270.000
  21
 1190.00
  31
0.0
   0
LINE
   8
LEVEL003
   6
CONTINUOUS
  62
3
  10
 235.000
  20
 1120.00
  30
0.0
  11
 238.630
  21
 1124.89
  31
0.0
   0
LINE
   8
LEVEL003
   6
CONTINUOUS
  62
3
  10
 235.000
  20
 1120.00
  30
0.0
  11
 236.737
  21
 1125.84
  31
0.0
   0
LINE
   8
LEVEL003
   6
CONTINUOUS
  62
3
  10
 126.500
  20
 1180.00
  30
0.0
  11
 126.500
  21
 1224.00
  31
0.0
   0
LINE
   8
LEVEL003
   6
CONTINUOUS
  62
3
  10
 253.500
  20
 1180.00
  30
0.0
  11
 253.500
  21
 1224.00
  31
0.0
   0
LINE
   8
LEVEL003
   6
CONTINUOUS
  62
3
  10
 126.500
  20
 1220.00
  30
0.0
  11
 253.500
  21
 1220.00
  31
0.0
   0
LINE
   8
LEVEL003
   6
CONTINUOUS
  62
3
  10
 126.500
  20
 1220.00
  30
0.0
  11
 132.500
  21
 1218.94
  31
0.0
   0
LINE
   8
LEVEL003
   6
CONTINUOUS
  62
3
  10
 126.500
  20
 1220.00
  30
0.0
  11
 132.500
  21
 1221.06
  31
0.0
   0
LINE
   8
LEVEL003
   6
CONTINUOUS
  62
3
  10
 253.500
  20
 1220.00
  30
0.0
  11
 247.500
  21
 1221.06
  31
0.0
   0
LINE
   8
LEVEL003
   6
CONTINUOUS
  62
3
  10
 253.500
  20
 1220.00
  30
0.0
  11
 247.500
  21
 1218.94
  31
0.0
   0
TEXT
   8
LEVEL003
  62
3
  10
 180.000
  20
 1221.60
  30
0.0
  40
 8.00000
   1
%%c127
   7
STANDARD
  72
1
  11
 190.000
  21
 1221.60
  31
0.0
   0
LINE
   8
LEVEL001
   6
CONTINUOUS
  62
7
  10
 366.000
  20
 1058.62
  30
0.0
  11
 368.042
  21
 1061.81
  31
0.0
   0
LINE
   8
LEVEL001
   6
CONTINUOUS
  62
7
  10
 368.042
  20
 1061.81
  30
0.0
  11
 377.000
  21
 1061.81
  31
0.0
   0
LINE
   8
LEVEL001
   6
CONTINUOUS
  62
7
  10
 377.000
  20
 1061.81
  30
0.0
  11
 377.000
  21
 1050.19
  31
0.0
   0
LINE
   8
LEVEL001
   6
CONTINUOUS
  62
7
  10
 377.000
  20
 1050.19
  30
0.0
  11
 368.042
  21
 1050.19
  31
0.0
   0
LINE
   8
LEVEL001
   6
CONTINUOUS
  62
7
  10
 368.042
  20
 1050.19
  30
0.0
  11
 366.000
  21
 1053.38
  31
0.0
   0
LINE
   8
LEVEL001
   6
CONTINUOUS
  62
7
  10
 392.200
  20
 1037.50
  30
0.0
  11
 392.200
  21
 1074.50
  31
0.0
   0
LINE
   8
LEVEL001
   6
CONTINUOUS
  62
7
  10
 392.200
  20
 1074.50
  30
0.0
  11
 402.200
  21
 1074.50
  31
0.0
   0
LINE
   8
LEVEL001
   6
CONTINUOUS
  62
7
  10
 402.200
  20
 1074.50
  30
0.0
  11
 402.200
  21
 1037.50
  31
0.0
   0
LINE
   8
LEVEL001
   6
CONTINUOUS
  62
7
  10
 402.200
  20
 1037.50
  30
0.0
  11
 392.200
  21
 1037.50
  31
0.0
   0
LINE
   8
LEVEL001
   6
CONTINUOUS
  62
7
  10
 315.000
  20
 1073.54
  30
0.0
  11
 315.000
  21
 402.000
  31
0.0
   0
LINE
   8
LEVEL001
   6
CONTINUOUS
  62
7
  10
 325.000
  20
 1064.64
  30
0.0
  11
 315.000
  21
 1064.33
  31
0.0
   0
LINE
   8
LEVEL001
   6
CONTINUOUS
  62
7
  10
 325.000
  20
 1047.36
  30
0.0
  11
 315.000
  21
 1047.67
  31
0.0
   0
LINE
   8
LEVEL001
   6
CONTINUOUS
  62
3
  10
 321.384
  20
 1048.32
  30
0.0
  11
 315.000
  21
 1048.53
  31
0.0
   0
LINE
   8
LEVEL001
   6
CONTINUOUS
  62
3
  10
 321.384
  20
 1063.67
  30
0.0
  11
 315.000
  21
 1063.47
  31
0.0
   0
LINE
   8
LEVEL001
   6
DASHDOT
  62
1
  10
 420.000
  20
 1056.00
  30
0.0
  11
 310.000
  21
 1056.00
  31
0.0
   0
LINE
   8
LEVEL001
   6
CONTINUOUS
  62
7
  10
 310.500
  20
 1161.00
  30
0.0
  11
 69.5000
  21
 1161.00
  31
0.0
   0
LINE
   8
LEVEL001
   6
CONTINUOUS
  62
7
  10
 126.500
  20
 1178.00
  30
0.0
  11
 253.500
  21
 1178.00
  31
0.0
   0
LINE
   8
LEVEL001
   6
CONTINUOUS
  62
7
  10
 313.000
  20
 1156.00
  30
0.0
  11
 67.0000
  21
 1156.00
  31
0.0
   0
LINE
   8
LEVEL001
   6
CONTINUOUS
  62
7
  10
 311.500
  20
 1160.00
  30
0.0
  11
 68.5000
  21
 1160.00
  31
0.0
   0
LINE
   8
LEVEL001
   6
CONTINUOUS
  62
3
  10
 313.000
  20
 1156.00
  30
0.0
  11
 313.000
  21
 1081.00
  31
0.0
   0
LINE
   8
LEVEL001
   6
CONTINUOUS
  62
3
  10
 67.0000
  20
 1156.00
  30
0.0
  11
 67.0000
  21
 1081.00
  31
0.0
   0
LINE
   8
LEVEL001
   6
CONTINUOUS
  62
7
  10
 315.000
  20
 1073.54
  30
0.0
  11
 65.0000
  21
 1073.54
  31
0.0
   0
LINE
   8
LEVEL001
   6
CONTINUOUS
  62
3
  10
 65.0000
  20
 1081.00
  30
0.0
  11
 315.000
  21
 1081.00
  31
0.0
   0
LINE
   8
LEVEL001
   6
CONTINUOUS
  62
3
  10
 65.0000
  20
 1154.00
  30
0.0
  11
 315.000
  21
 1154.00
  31
0.0
   0
LINE
   8
LEVEL003
   6
CONTINUOUS
  62
3
  10
 340.000
  20
 1100.00
  30
0.0
  11
 396.187
  21
 1100.00
  31
0.0
   0
LINE
   8
LEVEL003
   6
CONTINUOUS
  62
3
  10
 270.000
  20
 1190.00
  30
0.0
  11
 317.027
  21
 1190.00
  31
0.0
   0
LINE
   8
LEVEL004
   6
DOT
  62
3
  10
 120.000
  20
 1158.00
  30
0.0
  11
 120.000
  21
 526.000
  31
0.0
   0
LINE
   8
LEVEL004
   6
DOT
  62
3
  10
 285.000
  20
 1090.00
  30
0.0
  11
 285.000
  21
 456.000
  31
0.0
   0
LINE
   8
LEVEL004
   6
DOT
  62
3
  10
 260.000
  20
 1158.00
  30
0.0
  11
 260.000
  21
 526.000
  31
0.0
   0
LINE
   8
LEVEL004
   6
DOT
  62
3
  10
 235.000
  20
 1106.00
  30
0.0
  11
 233.500
  21
 1101.00
  31
0.0
   0
LINE
   8
LEVEL004
   6
DOT
  62
3
  10
 235.500
  20
 1161.00
  30
0.0
  11
 235.000
  21
 1160.50
  31
0.0
   0
LINE
   8
LEVEL004
   6
DOT
  62
3
  10
 235.000
  20
 1158.00
  30
0.0
  11
 235.000
  21
 1160.50
  31
0.0
   0
LINE
   8
LEVEL004
   6
DOT
  62
3
  10
 233.250
  20
 1158.00
  30
0.0
  11
 235.000
  21
 1158.00
  31
0.0
   0
ARC
   8
LEVEL004
   6
DOT
  62
3
  10
 234.750
  20
 1159.50
  30
0.0
  40
 1.50000
  50
 90.0000
  51
 180.000
   0
LINE
   8
LEVEL004
   6
DOT
  62
3
  10
 233.500
  20
 1156.50
  30
0.0
  11
 233.250
  21
 1156.50
  31
0.0
   0
LINE
   8
LEVEL004
   6
DOT
  62
3
  10
 235.000
  20
 1158.00
  30
0.0
  11
 235.000
  21
 1106.00
  31
0.0
   0
LINE
   8
LEVEL004
   6
DOT
  62
3
  10
 233.250
  20
 1131.00
  30
0.0
  11
 232.250
  21
 1130.00
  31
0.0
   0
LINE
   8
LEVEL004
   6
DOT
  62
3
  10
 233.250
  20
 1159.50
  30
0.0
  11
 233.250
  21
 1131.00
  31
0.0
   0
LINE
   8
LEVEL004
   6
DOT
  62
3
  10
 235.000
  20
 1158.00
  30
0.0
  11
 233.500
  21
 1156.50
  31
0.0
   0
LINE
   8
LEVEL004
   6
DOT
  62
3
  10
 233.500
  20
 1156.50
  30
0.0
  11
 233.500
  21
 1101.00
  31
0.0
   0
LINE
   8
LEVEL004
   6
DOT
  62
3
  10
 145.000
  20
 1106.00
  30
0.0
  11
 146.500
  21
 1101.00
  31
0.0
   0
LINE
   8
LEVEL004
   6
DOT
  62
3
  10
 146.750
  20
 1131.00
  30
0.0
  11
 147.750
  21
 1130.00
  31
0.0
   0
LINE
   8
LEVEL004
   6
DOT
  62
3
  10
 233.500
  20
 1101.00
  30
0.0
  11
 146.500
  21
 1101.00
  31
0.0
   0
LINE
   8
LEVEL004
   6
DOT
  62
3
  10
 146.500
  20
 1101.00
  30
0.0
  11
 190.000
  21
 1075.89
  31
0.0
   0
LINE
   8
LEVEL004
   6
DOT
  62
3
  10
 190.000
  20
 1075.89
  30
0.0
  11
 233.500
  21
 1101.00
  31
0.0
   0
LINE
   8
LEVEL004
   6
DOT
  62
3
  10
 145.000
  20
 1106.00
  30
0.0
  11
 235.000
  21
 1106.00
  31
0.0
   0
LINE
   8
LEVEL004
   6
DOT
  62
3
  10
 232.250
  20
 1130.00
  30
0.0
  11
 147.750
  21
 1130.00
  31
0.0
   0
LINE
   8
LEVEL004
   6
DOT
  62
3
  10
 144.500
  20
 1161.00
  30
0.0
  11
 145.000
  21
 1160.50
  31
0.0
   0
LINE
   8
LEVEL004
   6
DOT
  62
3
  10
 145.000
  20
 1158.00
  30
0.0
  11
 145.000
  21
 1160.50
  31
0.0
   0
LINE
   8
LEVEL004
   6
DOT
  62
3
  10
 146.500
  20
 1156.50
  30
0.0
  11
 146.750
  21
 1156.50
  31
0.0
   0
LINE
   8
LEVEL004
   6
DOT
  62
3
  10
 146.750
  20
 1158.00
  30
0.0
  11
 145.000
  21
 1158.00
  31
0.0
   0
ARC
   8
LEVEL004
   6
DOT
  62
3
  10
 145.250
  20
 1159.50
  30
0.0
  40
 1.50000
  50
0.0
  51
 90.0000
   0
LINE
   8
LEVEL004
   6
DOT
  62
3
  10
 146.750
  20
 1142.20
  30
0.0
  11
 164.750
  21
 1142.20
  31
0.0
   0
LINE
   8
LEVEL004
   6
DOT
  62
3
  10
 164.750
  20
 1142.20
  30
0.0
  11
 166.367
  21
 1145.00
  31
0.0
   0
LINE
   8
LEVEL004
   6
DOT
  62
3
  10
 166.367
  20
 1145.00
  30
0.0
  11
 164.750
  21
 1147.80
  31
0.0
   0
LINE
   8
LEVEL004
   6
DOT
  62
3
  10
 164.750
  20
 1147.80
  30
0.0
  11
 146.750
  21
 1147.80
  31
0.0
   0
LINE
   8
LEVEL004
   6
DOT
  62
3
  10
 164.750
  20
 1147.80
  30
0.0
  11
 164.750
  21
 1142.20
  31
0.0
   0
CIRCLE
   8
LEVEL004
   6
DOT
  62
3
  10
 149.250
  20
 1145.00
  30
0.0
  40
 2.75000
   0
LINE
   8
LEVEL004
   6
DOT
  62
3
  10
 146.750
  20
 1159.50
  30
0.0
  11
 146.750
  21
 1146.15
  31
0.0
   0
LINE
   8
LEVEL004
   6
DOT
  62
3
  10
 145.000
  20
 1158.00
  30
0.0
  11
 146.500
  21
 1156.50
  31
0.0
   0
LINE
   8
LEVEL004
   6
DOT
  62
3
  10
 146.500
  20
 1156.50
  30
0.0
  11
 146.500
  21
 1101.00
  31
0.0
   0
LINE
   8
LEVEL004
   6
DOT
  62
3
  10
 146.750
  20
 1143.85
  30
0.0
  11
 146.750
  21
 1131.00
  31
0.0
   0
LINE
   8
LEVEL004
   6
DOT
  62
3
  10
 145.000
  20
 1158.00
  30
0.0
  11
 145.000
  21
 1106.00
  31
0.0
   0
ARC
   8
LEVEL004
   6
DOT
  62
3
  10
 211.000
  20
 1180.00
  30
0.0
  40
 1.00000
  50
 180.000
  51
0.0
   0
ARC
   8
LEVEL004
   6
DOT
  62
3
  10
 232.500
  20
 1180.00
  30
0.0
  40
 1.00000
  50
 180.000
  51
0.0
   0
ARC
   8
LEVEL004
   6
DOT
  62
3
  10
 169.000
  20
 1180.00
  30
0.0
  40
 1.00000
  50
 180.000
  51
0.0
   0
ARC
   8
LEVEL004
   6
DOT
  62
3
  10
 147.500
  20
 1180.00
  30
0.0
  40
 1.00000
  50
 180.000
  51
0.0
   0
LINE
   8
LEVEL004
   6
DOT
  62
3
  10
 95.0000
  20
 1090.00
  30
0.0
  11
 95.0000
  21
 456.000
  31
0.0
   0
LINE
   8
LEVEL004
   6
DASHDOT
  62
1
  10
 151.137
  20
 1143.00
  30
0.0
  11
 151.640
  21
 1147.00
  31
0.0
   0
LINE
   8
LEVEL004
   6
DASHDOT
  62
1
  10
 151.640
  20
 1147.00
  30
0.0
  11
 152.143
  21
 1143.00
  31
0.0
   0
LINE
   8
LEVEL004
   6
DASHDOT
  62
1
  10
 152.143
  20
 1143.00
  30
0.0
  11
 152.645
  21
 1147.00
  31
0.0
   0
LINE
   8
LEVEL004
   6
DASHDOT
  62
1
  10
 152.645
  20
 1147.00
  30
0.0
  11
 153.148
  21
 1143.00
  31
0.0
   0
LINE
   8
LEVEL004
   6
DASHDOT
  62
1
  10
 153.148
  20
 1143.00
  30
0.0
  11
 153.651
  21
 1147.00
  31
0.0
   0
LINE
   8
LEVEL004
   6
DASHDOT
  62
1
  10
 153.651
  20
 1147.00
  30
0.0
  11
 154.153
  21
 1143.00
  31
0.0
   0
LINE
   8
LEVEL004
   6
DASHDOT
  62
1
  10
 154.153
  20
 1143.00
  30
0.0
  11
 154.656
  21
 1147.00
  31
0.0
   0
LINE
   8
LEVEL004
   6
DASHDOT
  62
1
  10
 154.656
  20
 1147.00
  30
0.0
  11
 155.159
  21
 1143.00
  31
0.0
   0
LINE
   8
LEVEL004
   6
DASHDOT
  62
1
  10
 155.159
  20
 1143.00
  30
0.0
  11
 155.661
  21
 1147.00
  31
0.0
   0
LINE
   8
LEVEL004
   6
DASHDOT
  62
1
  10
 155.661
  20
 1147.00
  30
0.0
  11
 156.164
  21
 1143.00
  31
0.0
   0
LINE
   8
LEVEL004
   6
DASHDOT
  62
1
  10
 156.164
  20
 1143.00
  30
0.0
  11
 156.667
  21
 1147.00
  31
0.0
   0
LINE
   8
LEVEL004
   6
DASHDOT
  62
1
  10
 156.667
  20
 1147.00
  30
0.0
  11
 157.169
  21
 1143.00
  31
0.0
   0
LINE
   8
LEVEL004
   6
DASHDOT
  62
1
  10
 157.169
  20
 1143.00
  30
0.0
  11
 157.672
  21
 1147.00
  31
0.0
   0
LINE
   8
LEVEL004
   6
DASHDOT
  62
1
  10
 157.672
  20
 1147.00
  30
0.0
  11
 158.175
  21
 1143.00
  31
0.0
   0
LINE
   8
LEVEL004
   6
DASHDOT
  62
1
  10
 158.175
  20
 1143.00
  30
0.0
  11
 158.677
  21
 1147.00
  31
0.0
   0
LINE
   8
LEVEL004
   6
DASHDOT
  62
1
  10
 158.677
  20
 1147.00
  30
0.0
  11
 159.180
  21
 1143.00
  31
0.0
   0
LINE
   8
LEVEL004
   6
DASHDOT
  62
1
  10
 159.180
  20
 1143.00
  30
0.0
  11
 159.683
  21
 1147.00
  31
0.0
   0
LINE
   8
LEVEL004
   6
DASHDOT
  62
1
  10
 159.683
  20
 1147.00
  30
0.0
  11
 160.185
  21
 1143.00
  31
0.0
   0
LINE
   8
LEVEL004
   6
DASHDOT
  62
1
  10
 160.185
  20
 1143.00
  30
0.0
  11
 160.688
  21
 1147.00
  31
0.0
   0
LINE
   8
LEVEL004
   6
DASHDOT
  62
1
  10
 160.688
  20
 1147.00
  30
0.0
  11
 161.191
  21
 1143.00
  31
0.0
   0
LINE
   8
LEVEL004
   6
DASHDOT
  62
1
  10
 161.191
  20
 1143.00
  30
0.0
  11
 161.693
  21
 1147.00
  31
0.0
   0
LINE
   8
LEVEL004
   6
DASHDOT
  62
1
  10
 161.693
  20
 1147.00
  30
0.0
  11
 162.196
  21
 1143.00
  31
0.0
   0
LINE
   8
LEVEL004
   6
DASHDOT
  62
1
  10
 162.196
  20
 1143.00
  30
0.0
  11
 162.699
  21
 1147.00
  31
0.0
   0
LINE
   8
LEVEL004
   6
DASHDOT
  62
1
  10
 162.699
  20
 1147.00
  30
0.0
  11
 163.201
  21
 1143.00
  31
0.0
   0
LINE
   8
LEVEL004
   6
DASHDOT
  62
1
  10
 163.201
  20
 1143.00
  30
0.0
  11
 163.704
  21
 1147.00
  31
0.0
   0
LINE
   8
LEVEL004
   6
DASHDOT
  62
1
  10
 163.704
  20
 1147.00
  30
0.0
  11
 164.207
  21
 1143.00
  31
0.0
   0
LINE
   8
LEVEL004
   6
DASHDOT
  62
1
  10
 164.207
  20
 1143.00
  30
0.0
  11
 164.709
  21
 1147.00
  31
0.0
   0
LINE
   8
LEVEL004
   6
DASHDOT
  62
1
  10
 164.709
  20
 1147.00
  30
0.0
  11
 165.212
  21
 1143.00
  31
0.0
   0
LINE
   8
LEVEL004
   6
DASHDOT
  62
1
  10
 141.750
  20
 1145.00
  30
0.0
  11
 171.750
  21
 1145.00
  31
0.0
   0
LINE
   8
LEVEL003
   6
CONTINUOUS
  62
3
  10
 120.000
  20
 910.000
  30
0.0
  11
 260.000
  21
 910.000
  31
0.0
   0
LINE
   8
LEVEL003
   6
CONTINUOUS
  62
3
  10
 120.000
  20
 910.000
  30
0.0
  11
 126.000
  21
 908.942
  31
0.0
   0
LINE
   8
LEVEL003
   6
CONTINUOUS
  62
3
  10
 120.000
  20
 910.000
  30
0.0
  11
 126.000
  21
 911.058
  31
0.0
   0
LINE
   8
LEVEL003
   6
CONTINUOUS
  62
3
  10
 260.000
  20
 910.000
  30
0.0
  11
 254.000
  21
 911.058
  31
0.0
   0
LINE
   8
LEVEL003
   6
CONTINUOUS
  62
3
  10
 260.000
  20
 910.000
  30
0.0
  11
 254.000
  21
 908.942
  31
0.0
   0
TEXT
   8
LEVEL003
  62
3
  10
 180.000
  20
 911.600
  30
0.0
  40
 8.00000
   1
%%c140
   7
STANDARD
  72
1
  11
 190.000
  21
 911.600
  31
0.0
   0
LINE
   8
LEVEL003
   6
CONTINUOUS
  62
3
  10
 95.0000
  20
 890.000
  30
0.0
  11
 285.000
  21
 890.000
  31
0.0
   0
LINE
   8
LEVEL003
   6
CONTINUOUS
  62
3
  10
 95.0000
  20
 890.000
  30
0.0
  11
 101.000
  21
 888.942
  31
0.0
   0
LINE
   8
LEVEL003
   6
CONTINUOUS
  62
3
  10
 95.0000
  20
 890.000
  30
0.0
  11
 101.000
  21
 891.058
  31
0.0
   0
LINE
   8
LEVEL003
   6
CONTINUOUS
  62
3
  10
 285.000
  20
 890.000
  30
0.0
  11
 279.000
  21
 891.058
  31
0.0
   0
LINE
   8
LEVEL003
   6
CONTINUOUS
  62
3
  10
 285.000
  20
 890.000
  30
0.0
  11
 279.000
  21
 888.942
  31
0.0
   0
TEXT
   8
LEVEL003
  62
3
  10
 180.000
  20
 891.600
  30
0.0
  40
 8.00000
   1
%%c190
   7
STANDARD
  72
1
  11
 190.000
  21
 891.600
  31
0.0
   0
LINE
   8
LEVEL003
   6
CONTINUOUS
  62
3
  10
 65.0000
  20
 840.000
  30
0.0
  11
 315.000
  21
 840.000
  31
0.0
   0
LINE
   8
LEVEL003
   6
CONTINUOUS
  62
3
  10
 65.0000
  20
 840.000
  30
0.0
  11
 71.0000
  21
 838.942
  31
0.0
   0
LINE
   8
LEVEL003
   6
CONTINUOUS
  62
3
  10
 65.0000
  20
 840.000
  30
0.0
  11
 71.0000
  21
 841.058
  31
0.0
   0
LINE
   8
LEVEL003
   6
CONTINUOUS
  62
3
  10
 315.000
  20
 840.000
  30
0.0
  11
 309.000
  21
 841.058
  31
0.0
   0
LINE
   8
LEVEL003
   6
CONTINUOUS
  62
3
  10
 315.000
  20
 840.000
  30
0.0
  11
 309.000
  21
 838.942
  31
0.0
   0
TEXT
   8
LEVEL003
  62
3
  10
 180.000
  20
 841.600
  30
0.0
  40
 8.00000
   1
%%c250
   7
STANDARD
  72
1
  11
 190.000
  21
 841.600
  31
0.0
   0
LINE
   8
LEVEL003
   6
CONTINUOUS
  62
3
  10
 188.000
  20
 950.000
  30
0.0
  11
 6.00000
  21
 950.000
  31
0.0
   0
LINE
   8
LEVEL003
   6
CONTINUOUS
  62
3
  10
 10.0000
  20
 950.000
  30
0.0
  11
 10.0000
  21
 400.000
  31
0.0
   0
LINE
   8
LEVEL003
   6
CONTINUOUS
  62
3
  10
 10.0000
  20
 950.000
  30
0.0
  11
 8.94204
  21
 944.000
  31
0.0
   0
LINE
   8
LEVEL003
   6
CONTINUOUS
  62
3
  10
 10.0000
  20
 950.000
  30
0.0
  11
 11.0580
  21
 944.000
  31
0.0
   0
ARC
   8
LEVEL004
   6
DOT
  62
3
  10
 190.000
  20
 906.000
  30
0.0
  40
 37.5000
  50
 107.058
  51
 72.9424
   0
ARC
   8
LEVEL004
   6
DOT
  62
3
  10
 190.000
  20
 906.000
  30
0.0
  40
 50.5000
  50
 102.581
  51
 77.4188
   0
LINE
   8
LEVEL004
   6
DOT
  62
3
  10
 200.000
  20
 968.000
  30
0.0
  11
 201.000
  21
 969.000
  31
0.0
   0
LINE
   8
LEVEL004
   6
DOT
  62
3
  10
 180.000
  20
 968.000
  30
0.0
  11
 179.000
  21
 969.000
  31
0.0
   0
LINE
   8
LEVEL004
   6
DOT
  62
3
  10
 180.000
  20
 932.000
  30
0.0
  11
 179.000
  21
 931.000
  31
0.0
   0
LINE
   8
LEVEL004
   6
DOT
  62
3
  10
 200.000
  20
 932.000
  30
0.0
  11
 201.000
  21
 931.000
  31
0.0
   0
LINE
   8
LEVEL004
   6
DOT
  62
3
  10
 180.000
  20
 968.000
  30
0.0
  11
 180.000
  21
 932.000
  31
0.0
   0
LINE
   8
LEVEL004
   6
DOT
  62
3
  10
 180.000
  20
 932.000
  30
0.0
  11
 200.000
  21
 932.000
  31
0.0
   0
LINE
   8
LEVEL004
   6
DOT
  62
3
  10
 200.000
  20
 932.000
  30
0.0
  11
 200.000
  21
 968.000
  31
0.0
   0
LINE
   8
LEVEL004
   6
DOT
  62
3
  10
 200.000
  20
 968.000
  30
0.0
  11
 180.000
  21
 968.000
  31
0.0
   0
LINE
   8
LEVEL004
   6
DOT
  62
3
  10
 179.000
  20
 969.000
  30
0.0
  11
 179.000
  21
 931.000
  31
0.0
   0
LINE
   8
LEVEL004
   6
DOT
  62
3
  10
 179.000
  20
 931.000
  30
0.0
  11
 201.000
  21
 931.000
  31
0.0
   0
LINE
   8
LEVEL004
   6
DOT
  62
3
  10
 201.000
  20
 931.000
  30
0.0
  11
 201.000
  21
 969.000
  31
0.0
   0
LINE
   8
LEVEL004
   6
DOT
  62
3
  10
 201.000
  20
 969.000
  30
0.0
  11
 179.000
  21
 969.000
  31
0.0
   0
CIRCLE
   8
LEVEL004
   6
DASHDOT
  62
1
  10
 190.000
  20
 906.000
  30
0.0
  40
 44.0000
   0
TEXT
   8
LEVEL003
  62
3
  10
 8.40000
  20
 663.500
  30
0.0
  40
 8.00000
   1
550
  50
 90.0000
  41
 0.500000
   7
STANDARD
  72
1
  11
 8.40000
  21
 669.500
  31
0.0
   0
TEXT
   8
LEVEL003
  62
3
  10
 458.400
  20
 864.000
  30
0.0
  40
 8.00000
   1
780
  50
 90.0000
  41
 0.500000
   7
STANDARD
  72
1
  11
 458.400
  21
 870.000
  31
0.0
   0
TEXT
   8
LEVEL003
  62
7
  10
 354.602
  20
 47.1134
  30
0.0
  40
 6.00000
   1
Model : Ｅ２００Ｈ５０
   7
STANDARD
   0
ENDSEC
   0
EOF
