   0
SECTION
   2
HEADER
   9
$LIMMIN
  10
0.0
  20
0.0
   9
$LIMMAX
  10
 420.000
  20
 297.000
   9
$EXTMIN
  10
0.0
  20
0.0
   9
$EXTMAX
  10
 420.000
  20
 297.000
   9
$LTSCALE
  40
 8.40000
   0
ENDSEC
   0
SECTION
   2
TABLES
  0
TABLE
  2
LTYPE
 70
    25
  0
LTYPE
  2
CONTINUOUS
 70
    64
  3
Solid line
 72
    65
 73
     0
 40
0.0
  0
LTYPE
  2
BORDER
 70
    64
  3
__ __ . __ __ . __ __ . __ __ . __ __ . __ __ .
 72
    65
 73
     6
 40
1.75
 49
0.5
 49
-0.25
 49
0.5
 49
-0.25
 49
0.0
 49
-0.25
  0
LTYPE
  2
BORDER2
 70
    64
  3
__.__.__.__.__.__.__.__.__.__.__.__.__.__.__.__
 72
    65
 73
     6
 40
0.875
 49
0.25
 49
-0.125
 49
0.25
 49
-0.125
 49
0.0
 49
-0.125
  0
LTYPE
  2
BORDERX2
 70
    64
  3
____  ____  .  ____  ____  .  ____  ____  .  __
 72
    65
 73
     6
 40
3.5
 49
1.0
 49
-0.5
 49
1.0
 49
-0.5
 49
0.0
 49
-0.5
  0
LTYPE
  2
CENTER
 70
    64
  3
____ _ ____ _ ____ _ ____ _ ____ _ ____ _ ____ 
 72
    65
 73
     4
 40
2.0
 49
1.25
 49
-0.25
 49
0.25
 49
-0.25
  0
LTYPE
  2
CENTER2
 70
    64
  3
___ _ ___ _ ___ _ ___ _ ___ _ ___ _ ___ _ ___ _
 72
    65
 73
     4
 40
1.125
 49
0.75
 49
-0.125
 49
0.125
 49
-0.125
  0
LTYPE
  2
CENTERX2
 70
    64
  3
________  __  ________  __  ________  __  _____
 72
    65
 73
     4
 40
4.0
 49
2.5
 49
-0.5
 49
0.5
 49
-0.5
  0
LTYPE
  2
DASHDOT
 70
    64
  3
__ . __ . __ . __ . __ . __ . __ . __ . __ . __
 72
    65
 73
     4
 40
1.0
 49
0.5
 49
-0.25
 49
0.0
 49
-0.25
  0
LTYPE
  2
DASHDOT2
 70
    64
  3
_._._._._._._._._._._._._._._._._._._._._._._._
 72
    65
 73
     4
 40
0.5
 49
0.25
 49
-0.125
 49
0.0
 49
-0.125
  0
LTYPE
  2
DASHDOTX2
 70
    64
  3
____  .  ____  .  ____  .  ____  .  ____  .  __
 72
    65
 73
     4
 40
2.0
 49
1.0
 49
-0.5
 49
0.0
 49
-0.5
  0
LTYPE
  2
DASHED
 70
    64
  3
__ __ __ __ __ __ __ __ __ __ __ __ __ __ __ __
 72
    65
 73
     2
 40
0.75
 49
0.5
 49
-0.25
  0
LTYPE
  2
DASHED2
 70
    64
  3
_ _ _ _ _ _ _ _ _ _ _ _ _ _ _ _ _ _ _ _ _ _ _ _
 72
    65
 73
     2
 40
0.375
 49
0.25
 49
-0.125
  0
LTYPE
  2
DASHEDX2
 70
    64
  3
____  ____  ____  ____  ____  ____  ____  ____ 
 72
    65
 73
     2
 40
1.5
 49
1.0
 49
-0.5
  0
LTYPE
  2
DIVIDE
 70
    64
  3
____ . . ____ . . ____ . . ____ . . ____ . . __
 72
    65
 73
     6
 40
1.25
 49
0.5
 49
-0.25
 49
0.0
 49
-0.25
 49
0.0
 49
-0.25
  0
LTYPE
  2
DIVIDE2
 70
    64
  3
__..__..__..__..__..__..__..__..__..__..__..__.
 72
    65
 73
     6
 40
0.625
 49
0.25
 49
-0.125
 49
0.0
 49
-0.125
 49
0.0
 49
-0.125
  0
LTYPE
  2
DIVIDEX2
 70
    64
  3
________  .  .  ________  .  .  ________  .  . 
 72
    65
 73
     6
 40
2.5
 49
1.0
 49
-0.5
 49
0.0
 49
-0.5
 49
0.0
 49
-0.5
  0
LTYPE
  2
DOT
 70
    64
  3
. . . . . . . . . . . . . . . . . . . . . . . .
 72
    65
 73
     2
 40
0.25
 49
0.0
 49
-0.25
  0
LTYPE
  2
DOT2
 70
    64
  3
...............................................
 72
    65
 73
     2
 40
0.125
 49
0.0
 49
-0.125
  0
LTYPE
  2
DOTX2
 70
    64
  3
.  .  .  .  .  .  .  .  .  .  .  .  .  .  .  . 
 72
    65
 73
     2
 40
0.5
 49
0.0
 49
-0.5
  0
LTYPE
  2
HIDDEN
 70
    64
  3
__ __ __ __ __ __ __ __ __ __ __ __ __ __ __ __
 72
    65
 73
     2
 40
0.375
 49
0.25
 49
-0.125
  0
LTYPE
  2
HIDDEN2
 70
    64
  3
_ _ _ _ _ _ _ _ _ _ _ _ _ _ _ _ _ _ _ _ _ _ _ _
 72
    65
 73
     2
 40
0.1875
 49
0.125
 49
-0.0625
  0
LTYPE
  2
HIDDENX2
 70
    64
  3
____ ____ ____ ____ ____ ____ ____ ____ ____ __
 72
    65
 73
     2
 40
0.75
 49
0.5
 49
-0.25
  0
LTYPE
  2
PHANTOM
 70
    64
  3
______  __  __  ______  __  __  ______  __  __ 
 72
    65
 73
     6
 40
2.5
 49
1.25
 49
-0.25
 49
0.25
 49
-0.25
 49
0.25
 49
-0.25
  0
LTYPE
  2
PHANTOM2
 70
    64
  3
___ _ _ ___ _ _ ___ _ _ ___ _ _ ___ _ _ ___ _ _
 72
    65
 73
     6
 40
1.25
 49
0.625
 49
-0.125
 49
0.125
 49
-0.125
 49
0.125
 49
-0.125
  0
LTYPE
  2
PHANTOMX2
 70
    64
  3
____________    ____    ____    ____________   
 72
    65
 73
     6
 40
5.0
 49
2.5
 49
-0.5
 49
0.5
 49
-0.5
 49
0.5
 49
-0.5
  0
ENDTAB
  0
TABLE
  2
STYLE
 70
     2
  0
STYLE
  2
STANDARD
 70
0
 40
0.0
 41
1.0
 50
0.0
 71
0
 42
0.2
  3
TXT
  4
BIGFONT
  0
STYLE
  2
STANDARD1
 70
     4
 40
0.0
 41
1.0
 50
0.0
 71
     0
 42
0.2
  3
TXT
  4
BIGFONT
  0
ENDTAB
   0
TABLE
   2
LAYER
  70
4
   0
LAYER
   2
0
  70
0
  62
7
   6
CONTINUOUS
   0
LAYER
   2
LEVEL001
  70
0
  62
7
   6
CONTINUOUS
   0
LAYER
   2
LEVEL003
  70
0
  62
7
   6
CONTINUOUS
   0
LAYER
   2
LEVEL004
  70
0
  62
7
   6
CONTINUOUS
   0
ENDTAB
   0
ENDSEC
   0
SECTION
   2
ENTITIES
   0
LINE
   8
LEVEL003
   6
CONTINUOUS
  62
3
  10
 52.5000
  20
 19.0000
  30
0.0
  11
 52.5000
  21
 8.00000
  31
0.0
   0
LINE
   8
LEVEL003
   6
CONTINUOUS
  62
3
  10
 97.5000
  20
 19.0000
  30
0.0
  11
 97.5000
  21
 8.00000
  31
0.0
   0
LINE
   8
LEVEL003
   6
CONTINUOUS
  62
3
  10
 52.5000
  20
 10.0000
  30
0.0
  11
 97.5000
  21
 10.0000
  31
0.0
   0
LINE
   8
LEVEL003
   6
CONTINUOUS
  62
3
  10
 52.5000
  20
 10.0000
  30
0.0
  11
 55.5000
  21
 9.47102
  31
0.0
   0
LINE
   8
LEVEL003
   6
CONTINUOUS
  62
3
  10
 52.5000
  20
 10.0000
  30
0.0
  11
 55.5000
  21
 10.5290
  31
0.0
   0
LINE
   8
LEVEL003
   6
CONTINUOUS
  62
3
  10
 97.5000
  20
 10.0000
  30
0.0
  11
 94.5000
  21
 10.5290
  31
0.0
   0
LINE
   8
LEVEL003
   6
CONTINUOUS
  62
3
  10
 97.5000
  20
 10.0000
  30
0.0
  11
 94.5000
  21
 9.47102
  31
0.0
   0
TEXT
   8
LEVEL003
  62
3
  10
 69.0000
  20
 10.8000
  30
0.0
  40
 4.00000
   1
M45×2
   7
STANDARD
  72
1
  11
 75.0000
  21
 10.8000
  31
0.0
   0
LINE
   8
LEVEL003
   6
CONTINUOUS
  62
3
  10
 52.5000
  20
 42.0000
  30
0.0
  11
 18.0000
  21
 42.0000
  31
0.0
   0
LINE
   8
LEVEL003
   6
CONTINUOUS
  62
3
  10
 33.5000
  20
 20.0000
  30
0.0
  11
 18.0000
  21
 20.0000
  31
0.0
   0
LINE
   8
LEVEL003
   6
CONTINUOUS
  62
3
  10
 20.0000
  20
 42.0000
  30
0.0
  11
 20.0000
  21
 20.0000
  31
0.0
   0
LINE
   8
LEVEL003
   6
CONTINUOUS
  62
3
  10
 20.0000
  20
 42.0000
  30
0.0
  11
 19.4710
  21
 39.0000
  31
0.0
   0
LINE
   8
LEVEL003
   6
CONTINUOUS
  62
3
  10
 20.0000
  20
 42.0000
  30
0.0
  11
 20.5290
  21
 39.0000
  31
0.0
   0
LINE
   8
LEVEL003
   6
CONTINUOUS
  62
3
  10
 20.0000
  20
 20.0000
  30
0.0
  11
 20.5290
  21
 23.0000
  31
0.0
   0
LINE
   8
LEVEL003
   6
CONTINUOUS
  62
3
  10
 20.0000
  20
 20.0000
  30
0.0
  11
 19.4710
  21
 23.0000
  31
0.0
   0
TEXT
   8
LEVEL003
  62
3
  10
 19.2000
  20
 27.0000
  30
0.0
  40
 4.00000
   1
22
  50
 90.0000
   7
STANDARD
  72
1
  11
 19.2000
  21
 31.0000
  31
0.0
   0
LINE
   8
LEVEL001
   6
CONTINUOUS
  62
3
  10
 127.500
  20
 48.3565
  30
0.0
  11
 123.884
  21
 49.3255
  31
0.0
   0
LINE
   8
LEVEL001
   6
CONTINUOUS
  62
7
  10
 127.500
  20
 48.3565
  30
0.0
  11
 128.984
  21
 47.5000
  31
0.0
   0
LINE
   8
LEVEL001
   6
CONTINUOUS
  62
7
  10
 144.500
  20
 47.5000
  30
0.0
  11
 128.984
  21
 47.5000
  31
0.0
   0
ARC
   8
LEVEL001
   6
CONTINUOUS
  62
7
  10
 146.000
  20
 44.0000
  30
0.0
  40
 1.50000
  50
 180.000
  51
 270.000
   0
LINE
   8
LEVEL001
   6
CONTINUOUS
  62
7
  10
 144.500
  20
 44.0000
  30
0.0
  11
 144.500
  21
 70.0000
  31
0.0
   0
LINE
   8
LEVEL001
   6
CONTINUOUS
  62
7
  10
 146.000
  20
 42.5000
  30
0.0
  11
 151.000
  21
 42.5000
  31
0.0
   0
ARC
   8
LEVEL001
   6
CONTINUOUS
  62
7
  10
 167.000
  20
 44.0000
  30
0.0
  40
 1.50000
  50
 270.000
  51
0.0
   0
LINE
   8
LEVEL001
   6
CONTINUOUS
  62
7
  10
 162.000
  20
 42.5000
  30
0.0
  11
 167.000
  21
 42.5000
  31
0.0
   0
LINE
   8
LEVEL001
   6
CONTINUOUS
  62
7
  10
 168.500
  20
 70.0000
  30
0.0
  11
 168.500
  21
 44.0000
  31
0.0
   0
ARC
   8
LEVEL001
   6
DASHDOT
  62
1
  10
 177.500
  20
 44.0000
  30
0.0
  40
 1.00000
  50
 270.000
  51
0.0
   0
LINE
   8
LEVEL001
   6
DASHDOT
  62
1
  10
 169.500
  20
 43.0000
  30
0.0
  11
 177.500
  21
 43.0000
  31
0.0
   0
LINE
   8
LEVEL001
   6
DASHDOT
  62
1
  10
 178.500
  20
 70.0000
  30
0.0
  11
 178.500
  21
 44.0000
  31
0.0
   0
CIRCLE
   8
LEVEL001
   6
DASHDOT
  62
1
  10
 181.500
  20
 57.0000
  30
0.0
  40
 1.50000
   0
ARC
   8
LEVEL001
   6
DASHDOT
  62
1
  10
 169.500
  20
 44.0000
  30
0.0
  40
 1.00000
  50
 180.000
  51
 270.000
   0
ARC
   8
LEVEL001
   6
DASHDOT
  62
1
  10
 180.500
  20
 51.5000
  30
0.0
  40
 2.00000
  50
 90.0000
  51
 180.000
   0
LINE
   8
LEVEL001
   6
DASHDOT
  62
1
  10
 180.500
  20
 53.5000
  30
0.0
  11
 181.000
  21
 53.5000
  31
0.0
   0
ARC
   8
LEVEL001
   6
DASHDOT
  62
1
  10
 181.000
  20
 57.0000
  30
0.0
  40
 3.50000
  50
 270.000
  51
 90.0000
   0
LINE
   8
LEVEL001
   6
CONTINUOUS
  62
7
  10
 128.984
  20
 47.5000
  30
0.0
  11
 128.984
  21
 51.1690
  31
0.0
   0
LINE
   8
LEVEL001
   6
CONTINUOUS
  62
7
  10
 123.500
  20
 52.9608
  30
0.0
  11
 137.500
  21
 62.8309
  31
0.0
   0
LINE
   8
LEVEL001
   6
CONTINUOUS
  62
7
  10
 123.500
  20
 61.0392
  30
0.0
  11
 137.500
  21
 51.1690
  31
0.0
   0
LINE
   8
LEVEL001
   6
CONTINUOUS
  62
3
  10
 123.884
  20
 52.9608
  30
0.0
  11
 123.884
  21
 49.3255
  31
0.0
   0
LINE
   8
LEVEL001
   6
CONTINUOUS
  62
7
  10
 127.500
  20
 52.7034
  30
0.0
  11
 127.500
  21
 48.3565
  31
0.0
   0
LINE
   8
LEVEL001
   6
CONTINUOUS
  62
3
  10
 151.000
  20
 44.0000
  30
0.0
  11
 162.000
  21
 44.0000
  31
0.0
   0
LINE
   8
LEVEL001
   6
CONTINUOUS
  62
3
  10
 151.000
  20
 46.0000
  30
0.0
  11
 162.000
  21
 46.0000
  31
0.0
   0
LINE
   8
LEVEL001
   6
CONTINUOUS
  62
3
  10
 151.000
  20
 48.0000
  30
0.0
  11
 162.000
  21
 48.0000
  31
0.0
   0
LINE
   8
LEVEL001
   6
CONTINUOUS
  62
3
  10
 151.000
  20
 50.0000
  30
0.0
  11
 162.000
  21
 50.0000
  31
0.0
   0
LINE
   8
LEVEL001
   6
CONTINUOUS
  62
3
  10
 151.000
  20
 52.0000
  30
0.0
  11
 162.000
  21
 52.0000
  31
0.0
   0
LINE
   8
LEVEL001
   6
CONTINUOUS
  62
3
  10
 151.000
  20
 54.0000
  30
0.0
  11
 162.000
  21
 54.0000
  31
0.0
   0
LINE
   8
LEVEL001
   6
CONTINUOUS
  62
3
  10
 151.000
  20
 56.0000
  30
0.0
  11
 162.000
  21
 56.0000
  31
0.0
   0
POLYLINE
   8
LEVEL001
   6
CONTINUOUS
  62
7
  66
1
  10
0.0
  20
0.0
  30
0.0
  70
0
   0
VERTEX
   8
LEVEL001
   6
CONTINUOUS
  62
7
  10
 123.500
  20
 52.9608
  30
0.0
   0
VERTEX
   8
LEVEL001
   6
CONTINUOUS
  62
7
  10
 123.500
  20
 61.0392
  30
0.0
   0
VERTEX
   8
LEVEL001
   6
CONTINUOUS
  62
7
  10
 127.500
  20
 61.2965
  30
0.0
   0
VERTEX
   8
LEVEL001
   6
CONTINUOUS
  62
7
  10
 128.984
  20
 62.8309
  30
0.0
   0
VERTEX
   8
LEVEL001
   6
CONTINUOUS
  62
7
  10
 137.500
  20
 62.8309
  30
0.0
   0
VERTEX
   8
LEVEL001
   6
CONTINUOUS
  62
7
  10
 137.500
  20
 51.1690
  30
0.0
   0
VERTEX
   8
LEVEL001
   6
CONTINUOUS
  62
7
  10
 128.984
  20
 51.1690
  30
0.0
   0
VERTEX
   8
LEVEL001
   6
CONTINUOUS
  62
7
  10
 127.500
  20
 52.7034
  30
0.0
   0
VERTEX
   8
LEVEL001
   6
CONTINUOUS
  62
7
  10
 123.500
  20
 52.9608
  30
0.0
   0
SEQEND
   0
POLYLINE
   8
LEVEL001
   6
CONTINUOUS
  62
7
  66
1
  10
0.0
  20
0.0
  30
0.0
  70
0
   0
VERTEX
   8
LEVEL001
   6
CONTINUOUS
  62
7
  10
 151.000
  20
 42.0000
  30
0.0
   0
VERTEX
   8
LEVEL001
   6
CONTINUOUS
  62
7
  10
 151.000
  20
 72.0000
  30
0.0
   0
VERTEX
   8
LEVEL001
   6
CONTINUOUS
  62
7
  10
 162.000
  20
 72.0000
  30
0.0
   0
VERTEX
   8
LEVEL001
   6
CONTINUOUS
  62
7
  10
 162.000
  20
 42.0000
  30
0.0
   0
VERTEX
   8
LEVEL001
   6
CONTINUOUS
  62
7
  10
 151.000
  20
 42.0000
  30
0.0
   0
SEQEND
   0
LINE
   8
LEVEL001
   6
CONTINUOUS
  62
3
  10
 127.500
  20
 65.6435
  30
0.0
  11
 123.884
  21
 64.6745
  31
0.0
   0
LINE
   8
LEVEL001
   6
CONTINUOUS
  62
7
  10
 127.500
  20
 65.6435
  30
0.0
  11
 128.984
  21
 66.5000
  31
0.0
   0
LINE
   8
LEVEL001
   6
CONTINUOUS
  62
7
  10
 144.500
  20
 66.5000
  30
0.0
  11
 128.984
  21
 66.5000
  31
0.0
   0
ARC
   8
LEVEL001
   6
CONTINUOUS
  62
7
  10
 146.000
  20
 70.0000
  30
0.0
  40
 1.50000
  50
 90.0000
  51
 180.000
   0
LINE
   8
LEVEL001
   6
CONTINUOUS
  62
7
  10
 146.000
  20
 71.5000
  30
0.0
  11
 151.000
  21
 71.5000
  31
0.0
   0
ARC
   8
LEVEL001
   6
CONTINUOUS
  62
7
  10
 167.000
  20
 70.0000
  30
0.0
  40
 1.50000
  50
0.0
  51
 90.0000
   0
LINE
   8
LEVEL001
   6
CONTINUOUS
  62
7
  10
 162.000
  20
 71.5000
  30
0.0
  11
 167.000
  21
 71.5000
  31
0.0
   0
ARC
   8
LEVEL001
   6
DASHDOT
  62
1
  10
 177.500
  20
 70.0000
  30
0.0
  40
 1.00000
  50
0.0
  51
 90.0000
   0
LINE
   8
LEVEL001
   6
DASHDOT
  62
1
  10
 169.500
  20
 71.0000
  30
0.0
  11
 177.500
  21
 71.0000
  31
0.0
   0
ARC
   8
LEVEL001
   6
DASHDOT
  62
1
  10
 169.500
  20
 70.0000
  30
0.0
  40
 1.00000
  50
 90.0000
  51
 180.000
   0
ARC
   8
LEVEL001
   6
DASHDOT
  62
1
  10
 180.500
  20
 62.5000
  30
0.0
  40
 2.00000
  50
 180.000
  51
 270.000
   0
LINE
   8
LEVEL001
   6
DASHDOT
  62
1
  10
 180.500
  20
 60.5000
  30
0.0
  11
 181.000
  21
 60.5000
  31
0.0
   0
LINE
   8
LEVEL001
   6
CONTINUOUS
  62
7
  10
 128.984
  20
 62.8309
  30
0.0
  11
 128.984
  21
 66.5000
  31
0.0
   0
LINE
   8
LEVEL001
   6
CONTINUOUS
  62
3
  10
 123.884
  20
 64.6745
  30
0.0
  11
 123.884
  21
 61.0392
  31
0.0
   0
LINE
   8
LEVEL001
   6
CONTINUOUS
  62
7
  10
 127.500
  20
 65.6435
  30
0.0
  11
 127.500
  21
 61.2965
  31
0.0
   0
LINE
   8
LEVEL001
   6
CONTINUOUS
  62
3
  10
 151.000
  20
 58.0000
  30
0.0
  11
 162.000
  21
 58.0000
  31
0.0
   0
LINE
   8
LEVEL001
   6
CONTINUOUS
  62
3
  10
 151.000
  20
 60.0000
  30
0.0
  11
 162.000
  21
 60.0000
  31
0.0
   0
LINE
   8
LEVEL001
   6
CONTINUOUS
  62
3
  10
 151.000
  20
 62.0000
  30
0.0
  11
 162.000
  21
 62.0000
  31
0.0
   0
LINE
   8
LEVEL001
   6
CONTINUOUS
  62
3
  10
 151.000
  20
 64.0000
  30
0.0
  11
 162.000
  21
 64.0000
  31
0.0
   0
LINE
   8
LEVEL001
   6
CONTINUOUS
  62
3
  10
 151.000
  20
 66.0000
  30
0.0
  11
 162.000
  21
 66.0000
  31
0.0
   0
LINE
   8
LEVEL001
   6
CONTINUOUS
  62
3
  10
 151.000
  20
 68.0000
  30
0.0
  11
 162.000
  21
 68.0000
  31
0.0
   0
LINE
   8
LEVEL001
   6
CONTINUOUS
  62
3
  10
 151.000
  20
 70.0000
  30
0.0
  11
 162.000
  21
 70.0000
  31
0.0
   0
LINE
   8
LEVEL003
   6
CONTINUOUS
  62
3
  10
 188.500
  20
 57.0000
  30
0.0
  11
 202.000
  21
 57.0000
  31
0.0
   0
LINE
   8
LEVEL003
   6
CONTINUOUS
  62
3
  10
 116.500
  20
 20.0000
  30
0.0
  11
 202.000
  21
 20.0000
  31
0.0
   0
LINE
   8
LEVEL003
   6
CONTINUOUS
  62
3
  10
 200.000
  20
 57.0000
  30
0.0
  11
 200.000
  21
 20.0000
  31
0.0
   0
LINE
   8
LEVEL003
   6
CONTINUOUS
  62
3
  10
 200.000
  20
 57.0000
  30
0.0
  11
 199.471
  21
 54.0000
  31
0.0
   0
LINE
   8
LEVEL003
   6
CONTINUOUS
  62
3
  10
 200.000
  20
 57.0000
  30
0.0
  11
 200.529
  21
 54.0000
  31
0.0
   0
LINE
   8
LEVEL003
   6
CONTINUOUS
  62
3
  10
 200.000
  20
 20.0000
  30
0.0
  11
 200.529
  21
 23.0000
  31
0.0
   0
LINE
   8
LEVEL003
   6
CONTINUOUS
  62
3
  10
 200.000
  20
 20.0000
  30
0.0
  11
 199.471
  21
 23.0000
  31
0.0
   0
TEXT
   8
LEVEL003
  62
3
  10
 199.200
  20
 34.5000
  30
0.0
  40
 4.00000
   1
37
  50
 90.0000
   7
STANDARD
  72
1
  11
 199.200
  21
 38.5000
  31
0.0
   0
LINE
   8
LEVEL001
   6
CONTINUOUS
  62
7
  10
 32.5000
  20
 22.0000
  30
0.0
  11
 34.5000
  21
 20.0000
  31
0.0
   0
LINE
   8
LEVEL001
   6
CONTINUOUS
  62
7
  10
 115.500
  20
 20.0000
  30
0.0
  11
 34.5000
  21
 20.0000
  31
0.0
   0
LINE
   8
LEVEL001
   6
CONTINUOUS
  62
7
  10
 117.500
  20
 22.0000
  30
0.0
  11
 115.500
  21
 20.0000
  31
0.0
   0
POLYLINE
   8
LEVEL003
   6
CONTINUOUS
  62
3
  66
1
  10
0.0
  20
0.0
  30
0.0
  70
0
   0
VERTEX
   8
LEVEL003
   6
CONTINUOUS
  62
3
  10
 120.000
  20
 48.5909
  30
0.0
   0
VERTEX
   8
LEVEL003
   6
CONTINUOUS
  62
3
  10
 140.000
  20
 10.0000
  30
0.0
   0
VERTEX
   8
LEVEL003
   6
CONTINUOUS
  62
3
  10
 165.000
  20
 10.0000
  30
0.0
   0
SEQEND
   0
LINE
   8
LEVEL003
   6
CONTINUOUS
  62
3
  10
 120.000
  20
 48.5909
  30
0.0
  11
 120.911
  21
 45.6839
  31
0.0
   0
LINE
   8
LEVEL003
   6
CONTINUOUS
  62
3
  10
 120.000
  20
 48.5909
  30
0.0
  11
 121.850
  21
 46.1707
  31
0.0
   0
TEXT
   8
LEVEL003
  62
3
  10
 140.000
  20
 10.0000
  30
0.0
  40
 4.00000
   1
ＮＰＴ３／８
   7
STANDARD
   0
LINE
   8
LEVEL003
   6
CONTINUOUS
  62
3
  10
 116.000
  20
 302.000
  30
0.0
  11
 137.000
  21
 302.000
  31
0.0
   0
LINE
   8
LEVEL003
   6
CONTINUOUS
  62
3
  10
 121.500
  20
 297.000
  30
0.0
  11
 137.000
  21
 297.000
  31
0.0
   0
LINE
   8
LEVEL003
   6
CONTINUOUS
  62
3
  10
 135.000
  20
 302.000
  30
0.0
  11
 135.000
  21
 297.000
  31
0.0
   0
LINE
   8
LEVEL003
   6
CONTINUOUS
  62
3
  10
 135.000
  20
 302.000
  30
0.0
  11
 134.471
  21
 299.000
  31
0.0
   0
LINE
   8
LEVEL003
   6
CONTINUOUS
  62
3
  10
 135.000
  20
 302.000
  30
0.0
  11
 135.529
  21
 299.000
  31
0.0
   0
LINE
   8
LEVEL003
   6
CONTINUOUS
  62
3
  10
 135.000
  20
 297.000
  30
0.0
  11
 135.529
  21
 300.000
  31
0.0
   0
LINE
   8
LEVEL003
   6
CONTINUOUS
  62
3
  10
 135.000
  20
 297.000
  30
0.0
  11
 134.471
  21
 300.000
  31
0.0
   0
TEXT
   8
LEVEL003
  62
3
  10
 134.200
  20
 297.500
  30
0.0
  40
 4.00000
   1
5
  50
 90.0000
   7
STANDARD
  72
1
  11
 134.200
  21
 299.500
  31
0.0
   0
LINE
   8
LEVEL003
   6
CONTINUOUS
  62
3
  10
 116.000
  20
 302.000
  30
0.0
  11
 147.000
  21
 302.000
  31
0.0
   0
LINE
   8
LEVEL003
   6
CONTINUOUS
  62
3
  10
 121.500
  20
 262.000
  30
0.0
  11
 147.000
  21
 262.000
  31
0.0
   0
LINE
   8
LEVEL003
   6
CONTINUOUS
  62
3
  10
 145.000
  20
 302.000
  30
0.0
  11
 145.000
  21
 262.000
  31
0.0
   0
LINE
   8
LEVEL003
   6
CONTINUOUS
  62
3
  10
 145.000
  20
 302.000
  30
0.0
  11
 144.471
  21
 299.000
  31
0.0
   0
LINE
   8
LEVEL003
   6
CONTINUOUS
  62
3
  10
 145.000
  20
 302.000
  30
0.0
  11
 145.529
  21
 299.000
  31
0.0
   0
LINE
   8
LEVEL003
   6
CONTINUOUS
  62
3
  10
 145.000
  20
 262.000
  30
0.0
  11
 145.529
  21
 265.000
  31
0.0
   0
LINE
   8
LEVEL003
   6
CONTINUOUS
  62
3
  10
 145.000
  20
 262.000
  30
0.0
  11
 144.471
  21
 265.000
  31
0.0
   0
TEXT
   8
LEVEL003
  62
3
  10
 144.200
  20
 278.000
  30
0.0
  40
 4.00000
   1
40
  50
 90.0000
   7
STANDARD
  72
1
  11
 144.200
  21
 282.000
  31
0.0
   0
LINE
   8
LEVEL003
   6
CONTINUOUS
  62
3
  10
 50.0000
  20
 340.000
  30
0.0
  11
 50.0000
  21
 362.000
  31
0.0
   0
LINE
   8
LEVEL003
   6
CONTINUOUS
  62
3
  10
 100.000
  20
 340.000
  30
0.0
  11
 100.000
  21
 362.000
  31
0.0
   0
LINE
   8
LEVEL003
   6
CONTINUOUS
  62
3
  10
 50.0000
  20
 360.000
  30
0.0
  11
 100.000
  21
 360.000
  31
0.0
   0
LINE
   8
LEVEL003
   6
CONTINUOUS
  62
3
  10
 50.0000
  20
 360.000
  30
0.0
  11
 53.0000
  21
 359.471
  31
0.0
   0
LINE
   8
LEVEL003
   6
CONTINUOUS
  62
3
  10
 50.0000
  20
 360.000
  30
0.0
  11
 53.0000
  21
 360.529
  31
0.0
   0
LINE
   8
LEVEL003
   6
CONTINUOUS
  62
3
  10
 100.000
  20
 360.000
  30
0.0
  11
 97.0000
  21
 360.529
  31
0.0
   0
LINE
   8
LEVEL003
   6
CONTINUOUS
  62
3
  10
 100.000
  20
 360.000
  30
0.0
  11
 97.0000
  21
 359.471
  31
0.0
   0
TEXT
   8
LEVEL003
  62
3
  10
 65.0000
  20
 360.800
  30
0.0
  40
 4.00000
   1
%%c50
   7
STANDARD
  72
1
  11
 75.0000
  21
 360.800
  31
0.0
   0
LINE
   8
LEVEL003
   6
CONTINUOUS
  62
3
  10
 57.0000
  20
 330.000
  30
0.0
  11
 57.0000
  21
 352.000
  31
0.0
   0
LINE
   8
LEVEL003
   6
CONTINUOUS
  62
3
  10
 93.0000
  20
 330.000
  30
0.0
  11
 93.0000
  21
 352.000
  31
0.0
   0
LINE
   8
LEVEL003
   6
CONTINUOUS
  62
3
  10
 57.0000
  20
 350.000
  30
0.0
  11
 93.0000
  21
 350.000
  31
0.0
   0
LINE
   8
LEVEL003
   6
CONTINUOUS
  62
3
  10
 57.0000
  20
 350.000
  30
0.0
  11
 60.0000
  21
 349.471
  31
0.0
   0
LINE
   8
LEVEL003
   6
CONTINUOUS
  62
3
  10
 57.0000
  20
 350.000
  30
0.0
  11
 60.0000
  21
 350.529
  31
0.0
   0
LINE
   8
LEVEL003
   6
CONTINUOUS
  62
3
  10
 93.0000
  20
 350.000
  30
0.0
  11
 90.0000
  21
 350.529
  31
0.0
   0
LINE
   8
LEVEL003
   6
CONTINUOUS
  62
3
  10
 93.0000
  20
 350.000
  30
0.0
  11
 90.0000
  21
 349.471
  31
0.0
   0
TEXT
   8
LEVEL003
  62
3
  10
 69.0000
  20
 350.800
  30
0.0
  40
 4.00000
   1
M36×2
   7
STANDARD
  72
1
  11
 75.0000
  21
 350.800
  31
0.0
   0
TEXT
   8
LEVEL003
  62
3
  10
 150.000
  20
 270.000
  30
0.0
  40
 4.00000
   1
Ｍ８５×２
   7
STANDARD
   0
POLYLINE
   8
LEVEL003
   6
CONTINUOUS
  62
3
  66
1
  10
0.0
  20
0.0
  30
0.0
  70
0
   0
VERTEX
   8
LEVEL003
   6
CONTINUOUS
  62
3
  10
 117.500
  20
 275.000
  30
0.0
   0
VERTEX
   8
LEVEL003
   6
CONTINUOUS
  62
3
  10
 150.000
  20
 270.000
  30
0.0
   0
VERTEX
   8
LEVEL003
   6
CONTINUOUS
  62
3
  10
 170.000
  20
 270.000
  30
0.0
   0
SEQEND
   0
LINE
   8
LEVEL003
   6
CONTINUOUS
  62
3
  10
 117.500
  20
 275.000
  30
0.0
  11
 120.385
  21
 274.021
  31
0.0
   0
LINE
   8
LEVEL003
   6
CONTINUOUS
  62
3
  10
 117.500
  20
 275.000
  30
0.0
  11
 120.546
  21
 275.067
  31
0.0
   0
LINE
   8
LEVEL001
   6
CONTINUOUS
  62
3
  10
 127.500
  20
 234.356
  30
0.0
  11
 123.884
  21
 235.325
  31
0.0
   0
LINE
   8
LEVEL001
   6
CONTINUOUS
  62
7
  10
 127.500
  20
 234.356
  30
0.0
  11
 128.984
  21
 233.500
  31
0.0
   0
LINE
   8
LEVEL001
   6
CONTINUOUS
  62
7
  10
 144.500
  20
 233.500
  30
0.0
  11
 128.984
  21
 233.500
  31
0.0
   0
ARC
   8
LEVEL001
   6
CONTINUOUS
  62
7
  10
 146.000
  20
 230.000
  30
0.0
  40
 1.50000
  50
 180.000
  51
 270.000
   0
LINE
   8
LEVEL001
   6
CONTINUOUS
  62
7
  10
 144.500
  20
 230.000
  30
0.0
  11
 144.500
  21
 256.000
  31
0.0
   0
LINE
   8
LEVEL001
   6
CONTINUOUS
  62
7
  10
 146.000
  20
 228.500
  30
0.0
  11
 151.000
  21
 228.500
  31
0.0
   0
ARC
   8
LEVEL001
   6
CONTINUOUS
  62
7
  10
 167.000
  20
 230.000
  30
0.0
  40
 1.50000
  50
 270.000
  51
0.0
   0
LINE
   8
LEVEL001
   6
CONTINUOUS
  62
7
  10
 162.000
  20
 228.500
  30
0.0
  11
 167.000
  21
 228.500
  31
0.0
   0
LINE
   8
LEVEL001
   6
CONTINUOUS
  62
7
  10
 168.500
  20
 256.000
  30
0.0
  11
 168.500
  21
 230.000
  31
0.0
   0
ARC
   8
LEVEL001
   6
DASHDOT
  62
1
  10
 177.500
  20
 230.000
  30
0.0
  40
 1.00000
  50
 270.000
  51
0.0
   0
LINE
   8
LEVEL001
   6
DASHDOT
  62
1
  10
 169.500
  20
 229.000
  30
0.0
  11
 177.500
  21
 229.000
  31
0.0
   0
LINE
   8
LEVEL001
   6
DASHDOT
  62
1
  10
 178.500
  20
 256.000
  30
0.0
  11
 178.500
  21
 230.000
  31
0.0
   0
CIRCLE
   8
LEVEL001
   6
DASHDOT
  62
1
  10
 181.500
  20
 243.000
  30
0.0
  40
 1.50000
   0
ARC
   8
LEVEL001
   6
DASHDOT
  62
1
  10
 169.500
  20
 230.000
  30
0.0
  40
 1.00000
  50
 180.000
  51
 270.000
   0
ARC
   8
LEVEL001
   6
DASHDOT
  62
1
  10
 180.500
  20
 237.500
  30
0.0
  40
 2.00000
  50
 90.0000
  51
 180.000
   0
LINE
   8
LEVEL001
   6
DASHDOT
  62
1
  10
 180.500
  20
 239.500
  30
0.0
  11
 181.000
  21
 239.500
  31
0.0
   0
ARC
   8
LEVEL001
   6
DASHDOT
  62
1
  10
 181.000
  20
 243.000
  30
0.0
  40
 3.50000
  50
 270.000
  51
 90.0000
   0
LINE
   8
LEVEL001
   6
CONTINUOUS
  62
7
  10
 128.984
  20
 233.500
  30
0.0
  11
 128.984
  21
 237.169
  31
0.0
   0
LINE
   8
LEVEL001
   6
CONTINUOUS
  62
7
  10
 123.500
  20
 238.961
  30
0.0
  11
 137.500
  21
 248.831
  31
0.0
   0
LINE
   8
LEVEL001
   6
CONTINUOUS
  62
7
  10
 123.500
  20
 247.039
  30
0.0
  11
 137.500
  21
 237.169
  31
0.0
   0
LINE
   8
LEVEL001
   6
CONTINUOUS
  62
3
  10
 123.884
  20
 238.961
  30
0.0
  11
 123.884
  21
 235.325
  31
0.0
   0
LINE
   8
LEVEL001
   6
CONTINUOUS
  62
7
  10
 127.500
  20
 238.703
  30
0.0
  11
 127.500
  21
 234.356
  31
0.0
   0
LINE
   8
LEVEL001
   6
CONTINUOUS
  62
3
  10
 151.000
  20
 230.000
  30
0.0
  11
 162.000
  21
 230.000
  31
0.0
   0
LINE
   8
LEVEL001
   6
CONTINUOUS
  62
3
  10
 151.000
  20
 232.000
  30
0.0
  11
 162.000
  21
 232.000
  31
0.0
   0
LINE
   8
LEVEL001
   6
CONTINUOUS
  62
3
  10
 151.000
  20
 234.000
  30
0.0
  11
 162.000
  21
 234.000
  31
0.0
   0
LINE
   8
LEVEL001
   6
CONTINUOUS
  62
3
  10
 151.000
  20
 236.000
  30
0.0
  11
 162.000
  21
 236.000
  31
0.0
   0
LINE
   8
LEVEL001
   6
CONTINUOUS
  62
3
  10
 151.000
  20
 238.000
  30
0.0
  11
 162.000
  21
 238.000
  31
0.0
   0
LINE
   8
LEVEL001
   6
CONTINUOUS
  62
3
  10
 151.000
  20
 240.000
  30
0.0
  11
 162.000
  21
 240.000
  31
0.0
   0
LINE
   8
LEVEL001
   6
CONTINUOUS
  62
3
  10
 151.000
  20
 242.000
  30
0.0
  11
 162.000
  21
 242.000
  31
0.0
   0
POLYLINE
   8
LEVEL001
   6
CONTINUOUS
  62
7
  66
1
  10
0.0
  20
0.0
  30
0.0
  70
0
   0
VERTEX
   8
LEVEL001
   6
CONTINUOUS
  62
7
  10
 123.500
  20
 238.961
  30
0.0
   0
VERTEX
   8
LEVEL001
   6
CONTINUOUS
  62
7
  10
 123.500
  20
 247.039
  30
0.0
   0
VERTEX
   8
LEVEL001
   6
CONTINUOUS
  62
7
  10
 127.500
  20
 247.297
  30
0.0
   0
VERTEX
   8
LEVEL001
   6
CONTINUOUS
  62
7
  10
 128.984
  20
 248.831
  30
0.0
   0
VERTEX
   8
LEVEL001
   6
CONTINUOUS
  62
7
  10
 137.500
  20
 248.831
  30
0.0
   0
VERTEX
   8
LEVEL001
   6
CONTINUOUS
  62
7
  10
 137.500
  20
 237.169
  30
0.0
   0
VERTEX
   8
LEVEL001
   6
CONTINUOUS
  62
7
  10
 128.984
  20
 237.169
  30
0.0
   0
VERTEX
   8
LEVEL001
   6
CONTINUOUS
  62
7
  10
 127.500
  20
 238.703
  30
0.0
   0
VERTEX
   8
LEVEL001
   6
CONTINUOUS
  62
7
  10
 123.500
  20
 238.961
  30
0.0
   0
SEQEND
   0
POLYLINE
   8
LEVEL001
   6
CONTINUOUS
  62
7
  66
1
  10
0.0
  20
0.0
  30
0.0
  70
0
   0
VERTEX
   8
LEVEL001
   6
CONTINUOUS
  62
7
  10
 151.000
  20
 228.000
  30
0.0
   0
VERTEX
   8
LEVEL001
   6
CONTINUOUS
  62
7
  10
 151.000
  20
 258.000
  30
0.0
   0
VERTEX
   8
LEVEL001
   6
CONTINUOUS
  62
7
  10
 162.000
  20
 258.000
  30
0.0
   0
VERTEX
   8
LEVEL001
   6
CONTINUOUS
  62
7
  10
 162.000
  20
 228.000
  30
0.0
   0
VERTEX
   8
LEVEL001
   6
CONTINUOUS
  62
7
  10
 151.000
  20
 228.000
  30
0.0
   0
SEQEND
   0
LINE
   8
LEVEL001
   6
CONTINUOUS
  62
3
  10
 127.500
  20
 251.643
  30
0.0
  11
 123.884
  21
 250.674
  31
0.0
   0
LINE
   8
LEVEL001
   6
CONTINUOUS
  62
7
  10
 127.500
  20
 251.643
  30
0.0
  11
 128.984
  21
 252.500
  31
0.0
   0
LINE
   8
LEVEL001
   6
CONTINUOUS
  62
7
  10
 144.500
  20
 252.500
  30
0.0
  11
 128.984
  21
 252.500
  31
0.0
   0
ARC
   8
LEVEL001
   6
DASHDOT
  62
1
  10
 180.500
  20
 248.500
  30
0.0
  40
 2.00000
  50
 180.000
  51
 270.000
   0
LINE
   8
LEVEL001
   6
DASHDOT
  62
1
  10
 180.500
  20
 246.500
  30
0.0
  11
 181.000
  21
 246.500
  31
0.0
   0
LINE
   8
LEVEL001
   6
CONTINUOUS
  62
7
  10
 128.984
  20
 248.831
  30
0.0
  11
 128.984
  21
 252.500
  31
0.0
   0
LINE
   8
LEVEL001
   6
CONTINUOUS
  62
3
  10
 123.884
  20
 250.674
  30
0.0
  11
 123.884
  21
 247.039
  31
0.0
   0
LINE
   8
LEVEL001
   6
CONTINUOUS
  62
7
  10
 127.500
  20
 251.643
  30
0.0
  11
 127.500
  21
 247.297
  31
0.0
   0
LINE
   8
LEVEL001
   6
CONTINUOUS
  62
3
  10
 151.000
  20
 244.000
  30
0.0
  11
 162.000
  21
 244.000
  31
0.0
   0
LINE
   8
LEVEL001
   6
CONTINUOUS
  62
3
  10
 151.000
  20
 246.000
  30
0.0
  11
 162.000
  21
 246.000
  31
0.0
   0
LINE
   8
LEVEL001
   6
CONTINUOUS
  62
3
  10
 151.000
  20
 248.000
  30
0.0
  11
 162.000
  21
 248.000
  31
0.0
   0
LINE
   8
LEVEL001
   6
CONTINUOUS
  62
3
  10
 151.000
  20
 250.000
  30
0.0
  11
 162.000
  21
 250.000
  31
0.0
   0
LINE
   8
LEVEL001
   6
CONTINUOUS
  62
3
  10
 151.000
  20
 252.000
  30
0.0
  11
 162.000
  21
 252.000
  31
0.0
   0
ARC
   8
LEVEL001
   6
CONTINUOUS
  62
7
  10
 146.000
  20
 256.000
  30
0.0
  40
 1.50000
  50
 90.0000
  51
 180.000
   0
LINE
   8
LEVEL001
   6
CONTINUOUS
  62
7
  10
 146.000
  20
 257.500
  30
0.0
  11
 151.000
  21
 257.500
  31
0.0
   0
ARC
   8
LEVEL001
   6
CONTINUOUS
  62
7
  10
 167.000
  20
 256.000
  30
0.0
  40
 1.50000
  50
0.0
  51
 90.0000
   0
LINE
   8
LEVEL001
   6
CONTINUOUS
  62
7
  10
 162.000
  20
 257.500
  30
0.0
  11
 167.000
  21
 257.500
  31
0.0
   0
ARC
   8
LEVEL001
   6
DASHDOT
  62
1
  10
 177.500
  20
 256.000
  30
0.0
  40
 1.00000
  50
0.0
  51
 90.0000
   0
LINE
   8
LEVEL001
   6
DASHDOT
  62
1
  10
 169.500
  20
 257.000
  30
0.0
  11
 177.500
  21
 257.000
  31
0.0
   0
ARC
   8
LEVEL001
   6
DASHDOT
  62
1
  10
 169.500
  20
 256.000
  30
0.0
  40
 1.00000
  50
 90.0000
  51
 180.000
   0
LINE
   8
LEVEL001
   6
CONTINUOUS
  62
3
  10
 151.000
  20
 254.000
  30
0.0
  11
 162.000
  21
 254.000
  31
0.0
   0
LINE
   8
LEVEL001
   6
CONTINUOUS
  62
3
  10
 151.000
  20
 256.000
  30
0.0
  11
 162.000
  21
 256.000
  31
0.0
   0
LINE
   8
LEVEL003
   6
CONTINUOUS
  62
3
  10
 93.0000
  20
 330.000
  30
0.0
  11
 147.000
  21
 330.000
  31
0.0
   0
LINE
   8
LEVEL003
   6
CONTINUOUS
  62
3
  10
 96.0000
  20
 307.000
  30
0.0
  11
 147.000
  21
 307.000
  31
0.0
   0
LINE
   8
LEVEL003
   6
CONTINUOUS
  62
3
  10
 145.000
  20
 330.000
  30
0.0
  11
 145.000
  21
 307.000
  31
0.0
   0
LINE
   8
LEVEL003
   6
CONTINUOUS
  62
3
  10
 145.000
  20
 330.000
  30
0.0
  11
 144.471
  21
 327.000
  31
0.0
   0
LINE
   8
LEVEL003
   6
CONTINUOUS
  62
3
  10
 145.000
  20
 330.000
  30
0.0
  11
 145.529
  21
 327.000
  31
0.0
   0
LINE
   8
LEVEL003
   6
CONTINUOUS
  62
3
  10
 145.000
  20
 307.000
  30
0.0
  11
 145.529
  21
 310.000
  31
0.0
   0
LINE
   8
LEVEL003
   6
CONTINUOUS
  62
3
  10
 145.000
  20
 307.000
  30
0.0
  11
 144.471
  21
 310.000
  31
0.0
   0
TEXT
   8
LEVEL003
  62
3
  10
 144.200
  20
 314.500
  30
0.0
  40
 4.00000
   1
23
  50
 90.0000
   7
STANDARD
  72
1
  11
 144.200
  21
 318.500
  31
0.0
   0
LINE
   8
LEVEL003
   6
CONTINUOUS
  62
3
  10
 100.000
  20
 340.000
  30
0.0
  11
 147.000
  21
 340.000
  31
0.0
   0
LINE
   8
LEVEL003
   6
CONTINUOUS
  62
3
  10
 93.0000
  20
 330.000
  30
0.0
  11
 147.000
  21
 330.000
  31
0.0
   0
LINE
   8
LEVEL003
   6
CONTINUOUS
  62
3
  10
 145.000
  20
 340.000
  30
0.0
  11
 145.000
  21
 330.000
  31
0.0
   0
LINE
   8
LEVEL003
   6
CONTINUOUS
  62
3
  10
 145.000
  20
 340.000
  30
0.0
  11
 144.471
  21
 337.000
  31
0.0
   0
LINE
   8
LEVEL003
   6
CONTINUOUS
  62
3
  10
 145.000
  20
 340.000
  30
0.0
  11
 145.529
  21
 337.000
  31
0.0
   0
LINE
   8
LEVEL003
   6
CONTINUOUS
  62
3
  10
 145.000
  20
 330.000
  30
0.0
  11
 145.529
  21
 333.000
  31
0.0
   0
LINE
   8
LEVEL003
   6
CONTINUOUS
  62
3
  10
 145.000
  20
 330.000
  30
0.0
  11
 144.471
  21
 333.000
  31
0.0
   0
TEXT
   8
LEVEL003
  62
3
  10
 144.200
  20
 331.000
  30
0.0
  40
 4.00000
   1
10
  50
 90.0000
   7
STANDARD
  72
1
  11
 144.200
  21
 335.000
  31
0.0
   0
LINE
   8
LEVEL003
   6
CONTINUOUS
  62
3
  10
 116.000
  20
 302.000
  30
0.0
  11
 202.000
  21
 302.000
  31
0.0
   0
LINE
   8
LEVEL003
   6
CONTINUOUS
  62
3
  10
 188.000
  20
 243.000
  30
0.0
  11
 202.000
  21
 243.000
  31
0.0
   0
LINE
   8
LEVEL003
   6
CONTINUOUS
  62
3
  10
 200.000
  20
 302.000
  30
0.0
  11
 200.000
  21
 243.000
  31
0.0
   0
LINE
   8
LEVEL003
   6
CONTINUOUS
  62
3
  10
 200.000
  20
 302.000
  30
0.0
  11
 199.471
  21
 299.000
  31
0.0
   0
LINE
   8
LEVEL003
   6
CONTINUOUS
  62
3
  10
 200.000
  20
 302.000
  30
0.0
  11
 200.529
  21
 299.000
  31
0.0
   0
LINE
   8
LEVEL003
   6
CONTINUOUS
  62
3
  10
 200.000
  20
 243.000
  30
0.0
  11
 200.529
  21
 246.000
  31
0.0
   0
LINE
   8
LEVEL003
   6
CONTINUOUS
  62
3
  10
 200.000
  20
 243.000
  30
0.0
  11
 199.471
  21
 246.000
  31
0.0
   0
TEXT
   8
LEVEL003
  62
3
  10
 199.200
  20
 268.500
  30
0.0
  40
 4.00000
   1
59
  50
 90.0000
   7
STANDARD
  72
1
  11
 199.200
  21
 272.500
  31
0.0
   0
LINE
   8
LEVEL003
   6
CONTINUOUS
  62
3
  10
 100.000
  20
 340.000
  30
0.0
  11
 202.000
  21
 340.000
  31
0.0
   0
LINE
   8
LEVEL003
   6
CONTINUOUS
  62
3
  10
 116.000
  20
 302.000
  30
0.0
  11
 202.000
  21
 302.000
  31
0.0
   0
LINE
   8
LEVEL003
   6
CONTINUOUS
  62
3
  10
 200.000
  20
 340.000
  30
0.0
  11
 200.000
  21
 302.000
  31
0.0
   0
LINE
   8
LEVEL003
   6
CONTINUOUS
  62
3
  10
 200.000
  20
 340.000
  30
0.0
  11
 199.471
  21
 337.000
  31
0.0
   0
LINE
   8
LEVEL003
   6
CONTINUOUS
  62
3
  10
 200.000
  20
 340.000
  30
0.0
  11
 200.529
  21
 337.000
  31
0.0
   0
LINE
   8
LEVEL003
   6
CONTINUOUS
  62
3
  10
 200.000
  20
 302.000
  30
0.0
  11
 200.529
  21
 305.000
  31
0.0
   0
LINE
   8
LEVEL003
   6
CONTINUOUS
  62
3
  10
 200.000
  20
 302.000
  30
0.0
  11
 199.471
  21
 305.000
  31
0.0
   0
TEXT
   8
LEVEL003
  62
3
  10
 199.200
  20
 317.000
  30
0.0
  40
 4.00000
   1
38
  50
 90.0000
   7
STANDARD
  72
1
  11
 199.200
  21
 321.000
  31
0.0
   0
LINE
   8
LEVEL001
   6
CONTINUOUS
  62
3
  10
 116.500
  20
 262.000
  30
0.0
  11
 117.500
  21
 258.268
  31
0.0
   0
LINE
   8
LEVEL001
   6
CONTINUOUS
  62
7
  10
 115.000
  20
 302.000
  30
0.0
  11
 116.000
  21
 301.000
  31
0.0
   0
LINE
   8
LEVEL001
   6
CONTINUOUS
  62
7
  10
 116.000
  20
 301.000
  30
0.0
  11
 116.000
  21
 297.000
  31
0.0
   0
LINE
   8
LEVEL001
   6
CONTINUOUS
  62
7
  10
 95.0000
  20
 307.000
  30
0.0
  11
 96.0000
  21
 304.000
  31
0.0
   0
ARC
   8
LEVEL001
   6
CONTINUOUS
  62
7
  10
 93.0000
  20
 309.000
  30
0.0
  40
 1.00000
  50
 90.0000
  51
 180.000
   0
ARC
   8
LEVEL001
   6
CONTINUOUS
  62
7
  10
 93.0000
  20
 308.000
  30
0.0
  40
 1.00000
  50
 180.000
  51
 270.000
   0
LINE
   8
LEVEL001
   6
CONTINUOUS
  62
7
  10
 92.0000
  20
 309.000
  30
0.0
  11
 92.0000
  21
 308.000
  31
0.0
   0
LINE
   8
LEVEL001
   6
CONTINUOUS
  62
7
  10
 99.0000
  20
 340.000
  30
0.0
  11
 100.000
  21
 339.000
  31
0.0
   0
LINE
   8
LEVEL001
   6
CONTINUOUS
  62
7
  10
 100.000
  20
 311.000
  30
0.0
  11
 99.0000
  21
 310.000
  31
0.0
   0
LINE
   8
LEVEL001
   6
CONTINUOUS
  62
7
  10
 100.000
  20
 339.000
  30
0.0
  11
 100.000
  21
 311.000
  31
0.0
   0
LINE
   8
LEVEL001
   6
CONTINUOUS
  62
7
  10
 99.0000
  20
 310.000
  30
0.0
  11
 93.0000
  21
 310.000
  31
0.0
   0
POLYLINE
   8
LEVEL001
   6
CONTINUOUS
  62
7
  66
1
  10
0.0
  20
0.0
  30
0.0
  70
0
   0
VERTEX
   8
LEVEL001
   6
CONTINUOUS
  62
7
  10
 33.5000
  20
 297.000
  30
0.0
   0
VERTEX
   8
LEVEL001
   6
CONTINUOUS
  62
7
  10
 32.5000
  20
 296.000
  30
0.0
   0
VERTEX
   8
LEVEL001
   6
CONTINUOUS
  62
7
  10
 32.5000
  20
 258.268
  30
0.0
   0
SEQEND
   0
LINE
   8
LEVEL001
   6
CONTINUOUS
  62
3
  10
 33.5000
  20
 262.000
  30
0.0
  11
 32.5000
  21
 258.268
  31
0.0
   0
LINE
   8
LEVEL001
   6
CONTINUOUS
  62
7
  10
 35.0000
  20
 302.000
  30
0.0
  11
 34.0000
  21
 301.000
  31
0.0
   0
LINE
   8
LEVEL001
   6
CONTINUOUS
  62
7
  10
 34.0000
  20
 301.000
  30
0.0
  11
 34.0000
  21
 297.000
  31
0.0
   0
LINE
   8
LEVEL001
   6
CONTINUOUS
  62
7
  10
 55.0000
  20
 307.000
  30
0.0
  11
 54.0000
  21
 304.000
  31
0.0
   0
ARC
   8
LEVEL001
   6
CONTINUOUS
  62
7
  10
 57.0000
  20
 309.000
  30
0.0
  40
 1.00000
  50
 0.130276E-10
  51
 90.0000
   0
ARC
   8
LEVEL001
   6
CONTINUOUS
  62
7
  10
 57.0000
  20
 308.000
  30
0.0
  40
 1.00000
  50
 270.000
  51
0.0
   0
LINE
   8
LEVEL001
   6
CONTINUOUS
  62
7
  10
 58.0000
  20
 309.000
  30
0.0
  11
 58.0000
  21
 308.000
  31
0.0
   0
LINE
   8
LEVEL001
   6
CONTINUOUS
  62
7
  10
 51.0000
  20
 340.000
  30
0.0
  11
 50.0000
  21
 339.000
  31
0.0
   0
LINE
   8
LEVEL001
   6
CONTINUOUS
  62
7
  10
 50.0000
  20
 311.000
  30
0.0
  11
 51.0000
  21
 310.000
  31
0.0
   0
LINE
   8
LEVEL001
   6
CONTINUOUS
  62
7
  10
 50.0000
  20
 339.000
  30
0.0
  11
 50.0000
  21
 311.000
  31
0.0
   0
LINE
   8
LEVEL001
   6
CONTINUOUS
  62
7
  10
 51.0000
  20
 310.000
  30
0.0
  11
 57.0000
  21
 310.000
  31
0.0
   0
LINE
   8
LEVEL001
   6
CONTINUOUS
  62
7
  10
 96.0000
  20
 304.000
  30
0.0
  11
 54.0000
  21
 304.000
  31
0.0
   0
LINE
   8
LEVEL001
   6
CONTINUOUS
  62
7
  10
 95.0000
  20
 307.000
  30
0.0
  11
 55.0000
  21
 307.000
  31
0.0
   0
LINE
   8
LEVEL001
   6
CONTINUOUS
  62
7
  10
 93.0000
  20
 310.000
  30
0.0
  11
 57.0000
  21
 310.000
  31
0.0
   0
LINE
   8
LEVEL001
   6
CONTINUOUS
  62
7
  10
 99.0000
  20
 340.000
  30
0.0
  11
 51.0000
  21
 340.000
  31
0.0
   0
LINE
   8
LEVEL001
   6
DASHDOT
  62
1
  10
 120.500
  20
 297.000
  30
0.0
  11
 120.500
  21
 262.000
  31
0.0
   0
LINE
   8
LEVEL001
   6
DASHDOT
  62
1
  10
 120.500
  20
 262.000
  30
0.0
  11
 117.500
  21
 262.000
  31
0.0
   0
LINE
   8
LEVEL001
   6
DASHDOT
  62
1
  10
 120.500
  20
 297.000
  30
0.0
  11
 116.500
  21
 297.000
  31
0.0
   0
LINE
   8
LEVEL001
   6
DASHDOT
  62
1
  10
 29.5000
  20
 262.000
  30
0.0
  11
 32.5000
  21
 262.000
  31
0.0
   0
LINE
   8
LEVEL001
   6
DASHDOT
  62
1
  10
 29.5000
  20
 297.000
  30
0.0
  11
 29.5000
  21
 262.000
  31
0.0
   0
LINE
   8
LEVEL001
   6
DASHDOT
  62
1
  10
 29.5000
  20
 297.000
  30
0.0
  11
 33.5000
  21
 297.000
  31
0.0
   0
LINE
   8
LEVEL003
   6
CONTINUOUS
  62
3
  10
 100.000
  20
 340.000
  30
0.0
  11
 222.000
  21
 340.000
  31
0.0
   0
LINE
   8
LEVEL003
   6
CONTINUOUS
  62
3
  10
 116.500
  20
 20.0000
  30
0.0
  11
 222.000
  21
 20.0000
  31
0.0
   0
LINE
   8
LEVEL003
   6
CONTINUOUS
  62
3
  10
 220.000
  20
 340.000
  30
0.0
  11
 220.000
  21
 20.0000
  31
0.0
   0
LINE
   8
LEVEL003
   6
CONTINUOUS
  62
3
  10
 220.000
  20
 340.000
  30
0.0
  11
 219.471
  21
 337.000
  31
0.0
   0
LINE
   8
LEVEL003
   6
CONTINUOUS
  62
3
  10
 220.000
  20
 340.000
  30
0.0
  11
 220.529
  21
 337.000
  31
0.0
   0
LINE
   8
LEVEL003
   6
CONTINUOUS
  62
3
  10
 220.000
  20
 20.0000
  30
0.0
  11
 220.529
  21
 23.0000
  31
0.0
   0
LINE
   8
LEVEL003
   6
CONTINUOUS
  62
3
  10
 220.000
  20
 20.0000
  30
0.0
  11
 219.471
  21
 23.0000
  31
0.0
   0
TEXT
   8
LEVEL003
  62
3
  10
 219.200
  20
 174.000
  30
0.0
  40
 4.00000
   1
320
  50
 90.0000
   7
STANDARD
  72
1
  11
 219.200
  21
 180.000
  31
0.0
   0
LINE
   8
LEVEL001
   6
CONTINUOUS
  62
7
  10
 32.5000
  20
 258.268
  30
0.0
  11
 32.5000
  21
 22.0000
  31
0.0
   0
LINE
   8
LEVEL001
   6
CONTINUOUS
  62
7
  10
 127.500
  20
 251.643
  30
0.0
  11
 117.500
  21
 251.331
  31
0.0
   0
LINE
   8
LEVEL001
   6
CONTINUOUS
  62
7
  10
 127.500
  20
 234.356
  30
0.0
  11
 117.500
  21
 234.669
  31
0.0
   0
LINE
   8
LEVEL001
   6
CONTINUOUS
  62
7
  10
 127.500
  20
 65.6435
  30
0.0
  11
 117.500
  21
 65.3310
  31
0.0
   0
LINE
   8
LEVEL001
   6
CONTINUOUS
  62
7
  10
 127.500
  20
 48.3565
  30
0.0
  11
 117.500
  21
 48.6690
  31
0.0
   0
POLYLINE
   8
LEVEL001
   6
CONTINUOUS
  62
7
  66
1
  10
0.0
  20
0.0
  30
0.0
  70
0
   0
VERTEX
   8
LEVEL001
   6
CONTINUOUS
  62
7
  10
 116.500
  20
 297.000
  30
0.0
   0
VERTEX
   8
LEVEL001
   6
CONTINUOUS
  62
7
  10
 117.500
  20
 296.000
  30
0.0
   0
VERTEX
   8
LEVEL001
   6
CONTINUOUS
  62
7
  10
 117.500
  20
 22.0000
  30
0.0
   0
SEQEND
   0
LINE
   8
LEVEL001
   6
CONTINUOUS
  62
3
  10
 123.884
  20
 250.674
  30
0.0
  11
 117.500
  21
 250.475
  31
0.0
   0
LINE
   8
LEVEL001
   6
CONTINUOUS
  62
3
  10
 123.884
  20
 235.325
  30
0.0
  11
 117.500
  21
 235.525
  31
0.0
   0
LINE
   8
LEVEL001
   6
CONTINUOUS
  62
3
  10
 123.884
  20
 64.6745
  30
0.0
  11
 117.500
  21
 64.4750
  31
0.0
   0
LINE
   8
LEVEL001
   6
CONTINUOUS
  62
3
  10
 123.884
  20
 49.3255
  30
0.0
  11
 117.500
  21
 49.5250
  31
0.0
   0
LINE
   8
LEVEL001
   6
CONTINUOUS
  62
7
  10
 117.500
  20
 22.0000
  30
0.0
  11
 32.5000
  21
 22.0000
  31
0.0
   0
LINE
   8
LEVEL001
   6
CONTINUOUS
  62
3
  10
 58.0000
  20
 310.000
  30
0.0
  11
 58.0000
  21
 309.000
  31
0.0
   0
LINE
   8
LEVEL001
   6
CONTINUOUS
  62
3
  10
 92.0000
  20
 310.000
  30
0.0
  11
 92.0000
  21
 309.000
  31
0.0
   0
LINE
   8
LEVEL001
   6
CONTINUOUS
  62
7
  10
 116.000
  20
 301.000
  30
0.0
  11
 34.0000
  21
 301.000
  31
0.0
   0
LINE
   8
LEVEL001
   6
CONTINUOUS
  62
7
  10
 33.5000
  20
 297.000
  30
0.0
  11
 116.500
  21
 297.000
  31
0.0
   0
LINE
   8
LEVEL001
   6
CONTINUOUS
  62
7
  10
 115.000
  20
 302.000
  30
0.0
  11
 35.0000
  21
 302.000
  31
0.0
   0
LINE
   8
LEVEL001
   6
CONTINUOUS
  62
7
  10
 54.0000
  20
 304.000
  30
0.0
  11
 54.0000
  21
 302.000
  31
0.0
   0
LINE
   8
LEVEL001
   6
CONTINUOUS
  62
7
  10
 96.0000
  20
 304.000
  30
0.0
  11
 96.0000
  21
 302.000
  31
0.0
   0
LINE
   8
LEVEL001
   6
CONTINUOUS
  62
7
  10
 100.000
  20
 311.000
  30
0.0
  11
 50.0000
  21
 311.000
  31
0.0
   0
LINE
   8
LEVEL001
   6
CONTINUOUS
  62
7
  10
 50.0000
  20
 339.000
  30
0.0
  11
 100.000
  21
 339.000
  31
0.0
   0
LINE
   8
LEVEL001
   6
CONTINUOUS
  62
3
  10
 116.500
  20
 297.000
  30
0.0
  11
 116.500
  21
 262.000
  31
0.0
   0
LINE
   8
LEVEL001
   6
CONTINUOUS
  62
3
  10
 33.5000
  20
 297.000
  30
0.0
  11
 33.5000
  21
 262.000
  31
0.0
   0
LINE
   8
LEVEL001
   6
CONTINUOUS
  62
7
  10
 117.500
  20
 258.268
  30
0.0
  11
 32.5000
  21
 258.268
  31
0.0
   0
LINE
   8
LEVEL001
   6
CONTINUOUS
  62
3
  10
 32.5000
  20
 262.000
  30
0.0
  11
 117.500
  21
 262.000
  31
0.0
   0
LINE
   8
LEVEL001
   6
CONTINUOUS
  62
3
  10
 32.5000
  20
 296.000
  30
0.0
  11
 117.500
  21
 296.000
  31
0.0
   0
LINE
   8
LEVEL001
   6
DASHDOT
  62
1
  10
 187.500
  20
 57.0000
  30
0.0
  11
 110.000
  21
 57.0000
  31
0.0
   0
LINE
   8
LEVEL001
   6
DASHDOT
  62
1
  10
 187.500
  20
 243.000
  30
0.0
  11
 110.000
  21
 243.000
  31
0.0
   0
LINE
   8
LEVEL003
   6
CONTINUOUS
  62
3
  10
 32.5000
  20
 145.000
  30
0.0
  11
 32.5000
  21
 145.000
  31
0.0
   0
LINE
   8
LEVEL003
   6
CONTINUOUS
  62
3
  10
 117.500
  20
 145.000
  30
0.0
  11
 117.500
  21
 145.000
  31
0.0
   0
LINE
   8
LEVEL003
   6
CONTINUOUS
  62
3
  10
 32.5000
  20
 145.000
  30
0.0
  11
 117.500
  21
 145.000
  31
0.0
   0
LINE
   8
LEVEL003
   6
CONTINUOUS
  62
3
  10
 32.5000
  20
 145.000
  30
0.0
  11
 35.5000
  21
 144.471
  31
0.0
   0
LINE
   8
LEVEL003
   6
CONTINUOUS
  62
3
  10
 32.5000
  20
 145.000
  30
0.0
  11
 35.5000
  21
 145.529
  31
0.0
   0
LINE
   8
LEVEL003
   6
CONTINUOUS
  62
3
  10
 117.500
  20
 145.000
  30
0.0
  11
 114.500
  21
 145.529
  31
0.0
   0
LINE
   8
LEVEL003
   6
CONTINUOUS
  62
3
  10
 117.500
  20
 145.000
  30
0.0
  11
 114.500
  21
 144.471
  31
0.0
   0
TEXT
   8
LEVEL003
  62
3
  10
 65.0000
  20
 145.800
  30
0.0
  40
 4.00000
   1
%%c85
   7
STANDARD
  72
1
  11
 75.0000
  21
 145.800
  31
0.0
   0
LINE
   8
LEVEL003
   6
CONTINUOUS
  62
3
  10
 54.0000
  20
 165.000
  30
0.0
  11
 54.0000
  21
 165.000
  31
0.0
   0
LINE
   8
LEVEL003
   6
CONTINUOUS
  62
3
  10
 96.0000
  20
 165.000
  30
0.0
  11
 96.0000
  21
 165.000
  31
0.0
   0
LINE
   8
LEVEL003
   6
CONTINUOUS
  62
3
  10
 54.0000
  20
 165.000
  30
0.0
  11
 96.0000
  21
 165.000
  31
0.0
   0
LINE
   8
LEVEL003
   6
CONTINUOUS
  62
3
  10
 54.0000
  20
 165.000
  30
0.0
  11
 57.0000
  21
 164.471
  31
0.0
   0
LINE
   8
LEVEL003
   6
CONTINUOUS
  62
3
  10
 54.0000
  20
 165.000
  30
0.0
  11
 57.0000
  21
 165.529
  31
0.0
   0
LINE
   8
LEVEL003
   6
CONTINUOUS
  62
3
  10
 96.0000
  20
 165.000
  30
0.0
  11
 93.0000
  21
 165.529
  31
0.0
   0
LINE
   8
LEVEL003
   6
CONTINUOUS
  62
3
  10
 96.0000
  20
 165.000
  30
0.0
  11
 93.0000
  21
 164.471
  31
0.0
   0
TEXT
   8
LEVEL003
  62
3
  10
 65.0000
  20
 165.800
  30
0.0
  40
 4.00000
   1
%%c42
   7
STANDARD
  72
1
  11
 75.0000
  21
 165.800
  31
0.0
   0
LINE
   8
LEVEL003
   6
CONTINUOUS
  62
3
  10
 45.0000
  20
 155.000
  30
0.0
  11
 45.0000
  21
 155.000
  31
0.0
   0
LINE
   8
LEVEL003
   6
CONTINUOUS
  62
3
  10
 105.000
  20
 155.000
  30
0.0
  11
 105.000
  21
 155.000
  31
0.0
   0
LINE
   8
LEVEL003
   6
CONTINUOUS
  62
3
  10
 45.0000
  20
 155.000
  30
0.0
  11
 105.000
  21
 155.000
  31
0.0
   0
LINE
   8
LEVEL003
   6
CONTINUOUS
  62
3
  10
 45.0000
  20
 155.000
  30
0.0
  11
 48.0000
  21
 154.471
  31
0.0
   0
LINE
   8
LEVEL003
   6
CONTINUOUS
  62
3
  10
 45.0000
  20
 155.000
  30
0.0
  11
 48.0000
  21
 155.529
  31
0.0
   0
LINE
   8
LEVEL003
   6
CONTINUOUS
  62
3
  10
 105.000
  20
 155.000
  30
0.0
  11
 102.000
  21
 155.529
  31
0.0
   0
LINE
   8
LEVEL003
   6
CONTINUOUS
  62
3
  10
 105.000
  20
 155.000
  30
0.0
  11
 102.000
  21
 154.471
  31
0.0
   0
TEXT
   8
LEVEL003
  62
3
  10
 65.0000
  20
 155.800
  30
0.0
  40
 4.00000
   1
%%c60
   7
STANDARD
  72
1
  11
 75.0000
  21
 155.800
  31
0.0
   0
CIRCLE
   8
LEVEL003
   6
CONTINUOUS
  62
7
  10
 234.718
  20
 12.2707
  30
0.0
  40
 3.00000
   0
LINE
   8
LEVEL003
   6
CONTINUOUS
  62
7
  10
 240.606
  20
 15.2707
  30
0.0
  11
 236.797
  21
 8.67067
  31
0.0
   0
LINE
   8
LEVEL003
   6
CONTINUOUS
  62
7
  10
 236.797
  20
 8.67067
  30
0.0
  11
 229.176
  21
 8.67067
  31
0.0
   0
LINE
   8
LEVEL003
   6
CONTINUOUS
  62
7
  10
 228.309
  20
 7.17067
  30
0.0
  11
 241.930
  21
 7.17067
  31
0.0
   0
LINE
   8
LEVEL003
   6
CONTINUOUS
  62
7
  10
 241.930
  20
 7.17067
  30
0.0
  11
 246.606
  21
 15.2707
  31
0.0
   0
LINE
   8
LEVEL003
   6
CONTINUOUS
  62
7
  10
 246.606
  20
 15.2707
  30
0.0
  11
 240.606
  21
 15.2707
  31
0.0
   0
LINE
   8
LEVEL003
   6
CONTINUOUS
  62
7
  10
 229.176
  20
 8.67067
  30
0.0
  11
 228.309
  21
 7.17067
  31
0.0
   0
TEXT
   8
LEVEL003
  62
7
  10
 246.691
  20
 5.21997
  30
0.0
  40
 10.0000
   1
ＯＳＡＫＡ ＪＡＣＫ
   7
STANDARD
   0
TEXT
   8
LEVEL003
  62
7
  10
 249.602
  20
 22.1134
  30
0.0
  40
 6.00000
   1
Model : Ｅ２０Ｈ１５
   7
STANDARD
   0
LINE
   8
LEVEL004
   6
DOT
  62
3
  10
 45.0000
  20
 267.000
  30
0.0
  11
 45.0000
  21
 65.0000
  31
0.0
   0
LINE
   8
LEVEL004
   6
DOT
  62
3
  10
 105.000
  20
 267.000
  30
0.0
  11
 105.000
  21
 65.0000
  31
0.0
   0
ARC
   8
LEVEL004
   6
DOT
  62
3
  10
 53.5000
  20
 44.0000
  30
0.0
  40
 1.00000
  50
 90.0000
  51
 180.000
   0
LINE
   8
LEVEL004
   6
DOT
  62
3
  10
 52.5000
  20
 43.0000
  30
0.0
  11
 52.5000
  21
 44.0000
  31
0.0
   0
LINE
   8
LEVEL004
   6
DOT
  62
3
  10
 52.5000
  20
 20.0000
  30
0.0
  11
 52.5000
  21
 43.0000
  31
0.0
   0
POLYLINE
   8
LEVEL004
   6
DOT
  62
3
  66
1
  10
0.0
  20
0.0
  30
0.0
  70
0
   0
VERTEX
   8
LEVEL004
   6
DOT
  62
3
  10
 52.5000
  20
 20.0000
  30
0.0
   0
VERTEX
   8
LEVEL004
   6
DOT
  62
3
  10
 53.5000
  20
 21.0000
  30
0.0
   0
VERTEX
   8
LEVEL004
   6
DOT
  62
3
  10
 53.5000
  20
 42.0000
  30
0.0
   0
SEQEND
   0
ARC
   8
LEVEL004
   6
DOT
  62
3
  10
 53.5000
  20
 43.0000
  30
0.0
  40
 1.00000
  50
 180.000
  51
 270.000
   0
LINE
   8
LEVEL004
   6
DOT
  62
3
  10
 96.5000
  20
 21.0000
  30
0.0
  11
 53.5000
  21
 21.0000
  31
0.0
   0
POLYLINE
   8
LEVEL004
   6
DOT
  62
3
  66
1
  10
0.0
  20
0.0
  30
0.0
  70
0
   0
VERTEX
   8
LEVEL004
   6
DOT
  62
3
  10
 97.5000
  20
 20.0000
  30
0.0
   0
VERTEX
   8
LEVEL004
   6
DOT
  62
3
  10
 96.5000
  20
 21.0000
  30
0.0
   0
VERTEX
   8
LEVEL004
   6
DOT
  62
3
  10
 96.5000
  20
 42.0000
  30
0.0
   0
SEQEND
   0
ARC
   8
LEVEL004
   6
DOT
  62
3
  10
 96.5000
  20
 43.0000
  30
0.0
  40
 1.00000
  50
 270.000
  51
 0.814222E-12
   0
ARC
   8
LEVEL004
   6
DOT
  62
3
  10
 96.5000
  20
 44.0000
  30
0.0
  40
 1.00000
  50
0.0
  51
 90.0000
   0
LINE
   8
LEVEL004
   6
DOT
  62
3
  10
 97.5000
  20
 43.0000
  30
0.0
  11
 97.5000
  21
 44.0000
  31
0.0
   0
LINE
   8
LEVEL004
   6
DOT
  62
3
  10
 97.5000
  20
 20.0000
  30
0.0
  11
 97.5000
  21
 43.0000
  31
0.0
   0
LINE
   8
LEVEL004
   6
DOT
  62
3
  10
 96.5000
  20
 45.0000
  30
0.0
  11
 53.5000
  21
 45.0000
  31
0.0
   0
LINE
   8
LEVEL004
   6
DOT
  62
3
  10
 96.5000
  20
 42.0000
  30
0.0
  11
 53.5000
  21
 42.0000
  31
0.0
   0
ARC
   8
LEVEL004
   6
DOT
  62
3
  10
 55.0000
  20
 340.000
  30
0.0
  40
 1.50000
  50
 180.000
  51
0.0
   0
ARC
   8
LEVEL004
   6
DOT
  62
3
  10
 62.5000
  20
 340.000
  30
0.0
  40
 1.50000
  50
 180.000
  51
0.0
   0
ARC
   8
LEVEL004
   6
DOT
  62
3
  10
 95.0000
  20
 340.000
  30
0.0
  40
 1.50000
  50
 180.000
  51
0.0
   0
ARC
   8
LEVEL004
   6
DOT
  62
3
  10
 87.5000
  20
 340.000
  30
0.0
  40
 1.50000
  50
 180.000
  51
0.0
   0
POLYLINE
   8
LEVEL004
   6
DOT
  62
3
  66
1
  10
0.0
  20
0.0
  30
0.0
  70
0
   0
VERTEX
   8
LEVEL004
   6
DOT
  62
3
  10
 58.0000
  20
 330.000
  30
0.0
   0
VERTEX
   8
LEVEL004
   6
DOT
  62
3
  10
 57.0000
  20
 329.000
  30
0.0
   0
VERTEX
   8
LEVEL004
   6
DOT
  62
3
  10
 57.0000
  20
 310.000
  30
0.0
   0
SEQEND
   0
ARC
   8
LEVEL004
   6
DOT
  62
3
  10
 58.0000
  20
 327.000
  30
0.0
  40
 1.00000
  50
 180.000
  51
 270.000
   0
ARC
   8
LEVEL004
   6
DOT
  62
3
  10
 58.0000
  20
 329.000
  30
0.0
  40
 1.00000
  50
 90.0000
  51
 180.000
   0
LINE
   8
LEVEL004
   6
DOT
  62
3
  10
 57.0000
  20
 329.000
  30
0.0
  11
 57.0000
  21
 327.000
  31
0.0
   0
LINE
   8
LEVEL004
   6
DOT
  62
3
  10
 58.0000
  20
 330.000
  30
0.0
  11
 58.0000
  21
 326.000
  31
0.0
   0
ARC
   8
LEVEL004
   6
DOT
  62
3
  10
 92.0000
  20
 327.000
  30
0.0
  40
 1.00000
  50
 270.000
  51
 0.113991E-9
   0
ARC
   8
LEVEL004
   6
DOT
  62
3
  10
 92.0000
  20
 329.000
  30
0.0
  40
 1.00000
  50
0.0
  51
 90.0000
   0
LINE
   8
LEVEL004
   6
DOT
  62
3
  10
 93.0000
  20
 329.000
  30
0.0
  11
 93.0000
  21
 327.000
  31
0.0
   0
LINE
   8
LEVEL004
   6
DOT
  62
3
  10
 92.0000
  20
 330.000
  30
0.0
  11
 92.0000
  21
 326.000
  31
0.0
   0
LINE
   8
LEVEL004
   6
DOT
  62
3
  10
 93.0000
  20
 329.000
  30
0.0
  11
 57.0000
  21
 329.000
  31
0.0
   0
LINE
   8
LEVEL004
   6
DOT
  62
3
  10
 92.0000
  20
 330.000
  30
0.0
  11
 58.0000
  21
 330.000
  31
0.0
   0
LINE
   8
LEVEL004
   6
DOT
  62
3
  10
 58.0000
  20
 311.000
  30
0.0
  11
 58.0000
  21
 310.000
  31
0.0
   0
POLYLINE
   8
LEVEL004
   6
DOT
  62
3
  66
1
  10
0.0
  20
0.0
  30
0.0
  70
0
   0
VERTEX
   8
LEVEL004
   6
DOT
  62
3
  10
 57.0000
  20
 310.000
  30
0.0
   0
VERTEX
   8
LEVEL004
   6
DOT
  62
3
  10
 58.0000
  20
 311.000
  30
0.0
   0
VERTEX
   8
LEVEL004
   6
DOT
  62
3
  10
 58.0000
  20
 326.000
  30
0.0
   0
SEQEND
   0
LINE
   8
LEVEL004
   6
DOT
  62
3
  10
 92.0000
  20
 311.000
  30
0.0
  11
 92.0000
  21
 310.000
  31
0.0
   0
POLYLINE
   8
LEVEL004
   6
DOT
  62
3
  66
1
  10
0.0
  20
0.0
  30
0.0
  70
0
   0
VERTEX
   8
LEVEL004
   6
DOT
  62
3
  10
 92.0000
  20
 330.000
  30
0.0
   0
VERTEX
   8
LEVEL004
   6
DOT
  62
3
  10
 93.0000
  20
 329.000
  30
0.0
   0
VERTEX
   8
LEVEL004
   6
DOT
  62
3
  10
 93.0000
  20
 310.000
  30
0.0
   0
SEQEND
   0
POLYLINE
   8
LEVEL004
   6
DOT
  62
3
  66
1
  10
0.0
  20
0.0
  30
0.0
  70
0
   0
VERTEX
   8
LEVEL004
   6
DOT
  62
3
  10
 93.0000
  20
 310.000
  30
0.0
   0
VERTEX
   8
LEVEL004
   6
DOT
  62
3
  10
 92.0000
  20
 311.000
  30
0.0
   0
VERTEX
   8
LEVEL004
   6
DOT
  62
3
  10
 92.0000
  20
 326.000
  30
0.0
   0
SEQEND
   0
LINE
   8
LEVEL004
   6
DOT
  62
3
  10
 96.0000
  20
 105.000
  30
0.0
  11
 96.0000
  21
 302.000
  31
0.0
   0
LINE
   8
LEVEL004
   6
DOT
  62
3
  10
 54.0000
  20
 105.000
  30
0.0
  11
 54.0000
  21
 302.000
  31
0.0
   0
LINE
   8
LEVEL001
   6
DASHDOT
  62
1
  10
 75.0000
  20
 345.000
  30
0.0
  11
 75.0000
  21
 15.0000
  31
0.0
   0
ENDSEC
   0
EOF
