   0
SECTION
   2
HEADER
   9
$LIMMIN
  10
0.0
  20
0.0
   9
$LIMMAX
  10
 420.000
  20
 297.000
   9
$EXTMIN
  10
0.0
  20
0.0
   9
$EXTMAX
  10
 420.000
  20
 297.000
   9
$LTSCALE
  40
 8.40000
   0
ENDSEC
   0
SECTION
   2
TABLES
  0
TABLE
  2
LTYPE
 70
    25
  0
LTYPE
  2
CONTINUOUS
 70
    64
  3
Solid line
 72
    65
 73
     0
 40
0.0
  0
LTYPE
  2
BORDER
 70
    64
  3
__ __ . __ __ . __ __ . __ __ . __ __ . __ __ .
 72
    65
 73
     6
 40
1.75
 49
0.5
 49
-0.25
 49
0.5
 49
-0.25
 49
0.0
 49
-0.25
  0
LTYPE
  2
BORDER2
 70
    64
  3
__.__.__.__.__.__.__.__.__.__.__.__.__.__.__.__
 72
    65
 73
     6
 40
0.875
 49
0.25
 49
-0.125
 49
0.25
 49
-0.125
 49
0.0
 49
-0.125
  0
LTYPE
  2
BORDERX2
 70
    64
  3
____  ____  .  ____  ____  .  ____  ____  .  __
 72
    65
 73
     6
 40
3.5
 49
1.0
 49
-0.5
 49
1.0
 49
-0.5
 49
0.0
 49
-0.5
  0
LTYPE
  2
CENTER
 70
    64
  3
____ _ ____ _ ____ _ ____ _ ____ _ ____ _ ____ 
 72
    65
 73
     4
 40
2.0
 49
1.25
 49
-0.25
 49
0.25
 49
-0.25
  0
LTYPE
  2
CENTER2
 70
    64
  3
___ _ ___ _ ___ _ ___ _ ___ _ ___ _ ___ _ ___ _
 72
    65
 73
     4
 40
1.125
 49
0.75
 49
-0.125
 49
0.125
 49
-0.125
  0
LTYPE
  2
CENTERX2
 70
    64
  3
________  __  ________  __  ________  __  _____
 72
    65
 73
     4
 40
4.0
 49
2.5
 49
-0.5
 49
0.5
 49
-0.5
  0
LTYPE
  2
DASHDOT
 70
    64
  3
__ . __ . __ . __ . __ . __ . __ . __ . __ . __
 72
    65
 73
     4
 40
1.0
 49
0.5
 49
-0.25
 49
0.0
 49
-0.25
  0
LTYPE
  2
DASHDOT2
 70
    64
  3
_._._._._._._._._._._._._._._._._._._._._._._._
 72
    65
 73
     4
 40
0.5
 49
0.25
 49
-0.125
 49
0.0
 49
-0.125
  0
LTYPE
  2
DASHDOTX2
 70
    64
  3
____  .  ____  .  ____  .  ____  .  ____  .  __
 72
    65
 73
     4
 40
2.0
 49
1.0
 49
-0.5
 49
0.0
 49
-0.5
  0
LTYPE
  2
DASHED
 70
    64
  3
__ __ __ __ __ __ __ __ __ __ __ __ __ __ __ __
 72
    65
 73
     2
 40
0.75
 49
0.5
 49
-0.25
  0
LTYPE
  2
DASHED2
 70
    64
  3
_ _ _ _ _ _ _ _ _ _ _ _ _ _ _ _ _ _ _ _ _ _ _ _
 72
    65
 73
     2
 40
0.375
 49
0.25
 49
-0.125
  0
LTYPE
  2
DASHEDX2
 70
    64
  3
____  ____  ____  ____  ____  ____  ____  ____ 
 72
    65
 73
     2
 40
1.5
 49
1.0
 49
-0.5
  0
LTYPE
  2
DIVIDE
 70
    64
  3
____ . . ____ . . ____ . . ____ . . ____ . . __
 72
    65
 73
     6
 40
1.25
 49
0.5
 49
-0.25
 49
0.0
 49
-0.25
 49
0.0
 49
-0.25
  0
LTYPE
  2
DIVIDE2
 70
    64
  3
__..__..__..__..__..__..__..__..__..__..__..__.
 72
    65
 73
     6
 40
0.625
 49
0.25
 49
-0.125
 49
0.0
 49
-0.125
 49
0.0
 49
-0.125
  0
LTYPE
  2
DIVIDEX2
 70
    64
  3
________  .  .  ________  .  .  ________  .  . 
 72
    65
 73
     6
 40
2.5
 49
1.0
 49
-0.5
 49
0.0
 49
-0.5
 49
0.0
 49
-0.5
  0
LTYPE
  2
DOT
 70
    64
  3
. . . . . . . . . . . . . . . . . . . . . . . .
 72
    65
 73
     2
 40
0.25
 49
0.0
 49
-0.25
  0
LTYPE
  2
DOT2
 70
    64
  3
...............................................
 72
    65
 73
     2
 40
0.125
 49
0.0
 49
-0.125
  0
LTYPE
  2
DOTX2
 70
    64
  3
.  .  .  .  .  .  .  .  .  .  .  .  .  .  .  . 
 72
    65
 73
     2
 40
0.5
 49
0.0
 49
-0.5
  0
LTYPE
  2
HIDDEN
 70
    64
  3
__ __ __ __ __ __ __ __ __ __ __ __ __ __ __ __
 72
    65
 73
     2
 40
0.375
 49
0.25
 49
-0.125
  0
LTYPE
  2
HIDDEN2
 70
    64
  3
_ _ _ _ _ _ _ _ _ _ _ _ _ _ _ _ _ _ _ _ _ _ _ _
 72
    65
 73
     2
 40
0.1875
 49
0.125
 49
-0.0625
  0
LTYPE
  2
HIDDENX2
 70
    64
  3
____ ____ ____ ____ ____ ____ ____ ____ ____ __
 72
    65
 73
     2
 40
0.75
 49
0.5
 49
-0.25
  0
LTYPE
  2
PHANTOM
 70
    64
  3
______  __  __  ______  __  __  ______  __  __ 
 72
    65
 73
     6
 40
2.5
 49
1.25
 49
-0.25
 49
0.25
 49
-0.25
 49
0.25
 49
-0.25
  0
LTYPE
  2
PHANTOM2
 70
    64
  3
___ _ _ ___ _ _ ___ _ _ ___ _ _ ___ _ _ ___ _ _
 72
    65
 73
     6
 40
1.25
 49
0.625
 49
-0.125
 49
0.125
 49
-0.125
 49
0.125
 49
-0.125
  0
LTYPE
  2
PHANTOMX2
 70
    64
  3
____________    ____    ____    ____________   
 72
    65
 73
     6
 40
5.0
 49
2.5
 49
-0.5
 49
0.5
 49
-0.5
 49
0.5
 49
-0.5
  0
ENDTAB
  0
TABLE
  2
STYLE
 70
     2
  0
STYLE
  2
STANDARD
 70
0
 40
0.0
 41
1.0
 50
0.0
 71
0
 42
0.2
  3
TXT
  4
BIGFONT
  0
STYLE
  2
STANDARD1
 70
     4
 40
0.0
 41
1.0
 50
0.0
 71
     0
 42
0.2
  3
TXT
  4
BIGFONT
  0
ENDTAB
   0
TABLE
   2
LAYER
  70
4
   0
LAYER
   2
0
  70
0
  62
7
   6
CONTINUOUS
   0
LAYER
   2
LEVEL001
  70
0
  62
7
   6
CONTINUOUS
   0
LAYER
   2
LEVEL003
  70
0
  62
7
   6
CONTINUOUS
   0
LAYER
   2
LEVEL004
  70
0
  62
7
   6
CONTINUOUS
   0
ENDTAB
   0
ENDSEC
   0
SECTION
   2
ENTITIES
   0
LINE
   8
LEVEL003
   6
CONTINUOUS
  62
3
  10
 116.000
  20
 187.000
  30
0.0
  11
 137.000
  21
 187.000
  31
0.0
   0
LINE
   8
LEVEL003
   6
CONTINUOUS
  62
3
  10
 121.500
  20
 182.000
  30
0.0
  11
 137.000
  21
 182.000
  31
0.0
   0
LINE
   8
LEVEL003
   6
CONTINUOUS
  62
3
  10
 135.000
  20
 187.000
  30
0.0
  11
 135.000
  21
 182.000
  31
0.0
   0
LINE
   8
LEVEL003
   6
CONTINUOUS
  62
3
  10
 135.000
  20
 187.000
  30
0.0
  11
 134.471
  21
 184.000
  31
0.0
   0
LINE
   8
LEVEL003
   6
CONTINUOUS
  62
3
  10
 135.000
  20
 187.000
  30
0.0
  11
 135.529
  21
 184.000
  31
0.0
   0
LINE
   8
LEVEL003
   6
CONTINUOUS
  62
3
  10
 135.000
  20
 182.000
  30
0.0
  11
 135.529
  21
 185.000
  31
0.0
   0
LINE
   8
LEVEL003
   6
CONTINUOUS
  62
3
  10
 135.000
  20
 182.000
  30
0.0
  11
 134.471
  21
 185.000
  31
0.0
   0
TEXT
   8
LEVEL003
  62
3
  10
 134.200
  20
 183.500
  30
0.0
  40
 4.00000
   1
5
  50
 90.0000
  41
 0.500000
   7
STANDARD
  72
1
  11
 134.200
  21
 184.500
  31
0.0
   0
LINE
   8
LEVEL003
   6
CONTINUOUS
  62
3
  10
 116.000
  20
 187.000
  30
0.0
  11
 147.000
  21
 187.000
  31
0.0
   0
LINE
   8
LEVEL003
   6
CONTINUOUS
  62
3
  10
 121.500
  20
 147.000
  30
0.0
  11
 147.000
  21
 147.000
  31
0.0
   0
LINE
   8
LEVEL003
   6
CONTINUOUS
  62
3
  10
 145.000
  20
 187.000
  30
0.0
  11
 145.000
  21
 147.000
  31
0.0
   0
LINE
   8
LEVEL003
   6
CONTINUOUS
  62
3
  10
 145.000
  20
 187.000
  30
0.0
  11
 144.471
  21
 184.000
  31
0.0
   0
LINE
   8
LEVEL003
   6
CONTINUOUS
  62
3
  10
 145.000
  20
 187.000
  30
0.0
  11
 145.529
  21
 184.000
  31
0.0
   0
LINE
   8
LEVEL003
   6
CONTINUOUS
  62
3
  10
 145.000
  20
 147.000
  30
0.0
  11
 145.529
  21
 150.000
  31
0.0
   0
LINE
   8
LEVEL003
   6
CONTINUOUS
  62
3
  10
 145.000
  20
 147.000
  30
0.0
  11
 144.471
  21
 150.000
  31
0.0
   0
TEXT
   8
LEVEL003
  62
3
  10
 144.200
  20
 165.000
  30
0.0
  40
 4.00000
   1
40
  50
 90.0000
  41
 0.500000
   7
STANDARD
  72
1
  11
 144.200
  21
 167.000
  31
0.0
   0
LINE
   8
LEVEL003
   6
CONTINUOUS
  62
3
  10
 50.0000
  20
 225.000
  30
0.0
  11
 50.0000
  21
 247.000
  31
0.0
   0
LINE
   8
LEVEL003
   6
CONTINUOUS
  62
3
  10
 100.000
  20
 225.000
  30
0.0
  11
 100.000
  21
 247.000
  31
0.0
   0
LINE
   8
LEVEL003
   6
CONTINUOUS
  62
3
  10
 50.0000
  20
 245.000
  30
0.0
  11
 100.000
  21
 245.000
  31
0.0
   0
LINE
   8
LEVEL003
   6
CONTINUOUS
  62
3
  10
 50.0000
  20
 245.000
  30
0.0
  11
 53.0000
  21
 244.471
  31
0.0
   0
LINE
   8
LEVEL003
   6
CONTINUOUS
  62
3
  10
 50.0000
  20
 245.000
  30
0.0
  11
 53.0000
  21
 245.529
  31
0.0
   0
LINE
   8
LEVEL003
   6
CONTINUOUS
  62
3
  10
 100.000
  20
 245.000
  30
0.0
  11
 97.0000
  21
 245.529
  31
0.0
   0
LINE
   8
LEVEL003
   6
CONTINUOUS
  62
3
  10
 100.000
  20
 245.000
  30
0.0
  11
 97.0000
  21
 244.471
  31
0.0
   0
TEXT
   8
LEVEL003
  62
3
  10
 71.0000
  20
 245.800
  30
0.0
  40
 4.00000
   1
%%c50
   7
STANDARD
  72
1
  11
 75.0000
  21
 245.800
  31
0.0
   0
LINE
   8
LEVEL003
   6
CONTINUOUS
  62
3
  10
 57.0000
  20
 215.000
  30
0.0
  11
 57.0000
  21
 237.000
  31
0.0
   0
LINE
   8
LEVEL003
   6
CONTINUOUS
  62
3
  10
 93.0000
  20
 215.000
  30
0.0
  11
 93.0000
  21
 237.000
  31
0.0
   0
LINE
   8
LEVEL003
   6
CONTINUOUS
  62
3
  10
 57.0000
  20
 235.000
  30
0.0
  11
 93.0000
  21
 235.000
  31
0.0
   0
LINE
   8
LEVEL003
   6
CONTINUOUS
  62
3
  10
 57.0000
  20
 235.000
  30
0.0
  11
 60.0000
  21
 234.471
  31
0.0
   0
LINE
   8
LEVEL003
   6
CONTINUOUS
  62
3
  10
 57.0000
  20
 235.000
  30
0.0
  11
 60.0000
  21
 235.529
  31
0.0
   0
LINE
   8
LEVEL003
   6
CONTINUOUS
  62
3
  10
 93.0000
  20
 235.000
  30
0.0
  11
 90.0000
  21
 235.529
  31
0.0
   0
LINE
   8
LEVEL003
   6
CONTINUOUS
  62
3
  10
 93.0000
  20
 235.000
  30
0.0
  11
 90.0000
  21
 234.471
  31
0.0
   0
TEXT
   8
LEVEL003
  62
3
  10
 69.0000
  20
 235.800
  30
0.0
  40
 4.00000
   1
M36×2
   7
STANDARD
  72
1
  11
 75.0000
  21
 235.800
  31
0.0
   0
TEXT
   8
LEVEL003
  62
3
  10
 150.000
  20
 155.000
  30
0.0
  40
 4.00000
   1
Ｍ８５×２
   7
STANDARD
   0
LINE
   8
LEVEL003
   6
CONTINUOUS
  62
3
  10
 117.500
  20
 160.000
  30
0.0
  11
 150.000
  21
 155.000
  31
0.0
   0
LINE
   8
LEVEL003
   6
CONTINUOUS
  62
3
  10
 117.500
  20
 160.000
  30
0.0
  11
 120.385
  21
 159.021
  31
0.0
   0
LINE
   8
LEVEL003
   6
CONTINUOUS
  62
3
  10
 117.500
  20
 160.000
  30
0.0
  11
 120.546
  21
 160.067
  31
0.0
   0
LINE
   8
LEVEL001
   6
CONTINUOUS
  62
3
  10
 127.500
  20
 50.6435
  30
0.0
  11
 123.884
  21
 49.6745
  31
0.0
   0
LINE
   8
LEVEL001
   6
CONTINUOUS
  62
3
  10
 127.500
  20
 33.3565
  30
0.0
  11
 123.884
  21
 34.3255
  31
0.0
   0
LINE
   8
LEVEL001
   6
CONTINUOUS
  62
7
  10
 127.500
  20
 50.6435
  30
0.0
  11
 128.984
  21
 51.5000
  31
0.0
   0
LINE
   8
LEVEL001
   6
CONTINUOUS
  62
7
  10
 144.500
  20
 51.5000
  30
0.0
  11
 128.984
  21
 51.5000
  31
0.0
   0
LINE
   8
LEVEL001
   6
CONTINUOUS
  62
7
  10
 127.500
  20
 33.3565
  30
0.0
  11
 128.984
  21
 32.5000
  31
0.0
   0
LINE
   8
LEVEL001
   6
CONTINUOUS
  62
7
  10
 144.500
  20
 32.5000
  30
0.0
  11
 128.984
  21
 32.5000
  31
0.0
   0
ARC
   8
LEVEL001
   6
CONTINUOUS
  62
7
  10
 146.000
  20
 55.0000
  30
0.0
  40
 1.50000
  50
 90.0000
  51
 180.000
   0
LINE
   8
LEVEL001
   6
CONTINUOUS
  62
7
  10
 146.000
  20
 56.5000
  30
0.0
  11
 151.000
  21
 56.5000
  31
0.0
   0
ARC
   8
LEVEL001
   6
CONTINUOUS
  62
7
  10
 146.000
  20
 29.0000
  30
0.0
  40
 1.50000
  50
 180.000
  51
 270.000
   0
LINE
   8
LEVEL001
   6
CONTINUOUS
  62
7
  10
 144.500
  20
 29.0000
  30
0.0
  11
 144.500
  21
 55.0000
  31
0.0
   0
LINE
   8
LEVEL001
   6
CONTINUOUS
  62
7
  10
 146.000
  20
 27.5000
  30
0.0
  11
 151.000
  21
 27.5000
  31
0.0
   0
ARC
   8
LEVEL001
   6
CONTINUOUS
  62
7
  10
 167.000
  20
 55.0000
  30
0.0
  40
 1.50000
  50
0.0
  51
 90.0000
   0
LINE
   8
LEVEL001
   6
CONTINUOUS
  62
7
  10
 162.000
  20
 56.5000
  30
0.0
  11
 167.000
  21
 56.5000
  31
0.0
   0
ARC
   8
LEVEL001
   6
CONTINUOUS
  62
7
  10
 167.000
  20
 29.0000
  30
0.0
  40
 1.50000
  50
 270.000
  51
 0.542815E-12
   0
LINE
   8
LEVEL001
   6
CONTINUOUS
  62
7
  10
 162.000
  20
 27.5000
  30
0.0
  11
 167.000
  21
 27.5000
  31
0.0
   0
LINE
   8
LEVEL001
   6
CONTINUOUS
  62
7
  10
 168.500
  20
 55.0000
  30
0.0
  11
 168.500
  21
 29.0000
  31
0.0
   0
ARC
   8
LEVEL001
   6
DASHDOT
  62
1
  10
 177.500
  20
 55.0000
  30
0.0
  40
 1.00000
  50
 0.814222E-12
  51
 90.0000
   0
LINE
   8
LEVEL001
   6
DASHDOT
  62
1
  10
 169.500
  20
 56.0000
  30
0.0
  11
 177.500
  21
 56.0000
  31
0.0
   0
ARC
   8
LEVEL001
   6
DASHDOT
  62
1
  10
 177.500
  20
 29.0000
  30
0.0
  40
 1.00000
  50
 270.000
  51
 0.407111E-12
   0
LINE
   8
LEVEL001
   6
DASHDOT
  62
1
  10
 169.500
  20
 28.0000
  30
0.0
  11
 177.500
  21
 28.0000
  31
0.0
   0
LINE
   8
LEVEL001
   6
DASHDOT
  62
1
  10
 178.500
  20
 55.0000
  30
0.0
  11
 178.500
  21
 29.0000
  31
0.0
   0
CIRCLE
   8
LEVEL001
   6
DASHDOT
  62
1
  10
 181.500
  20
 42.0000
  30
0.0
  40
 1.50000
   0
ARC
   8
LEVEL001
   6
DASHDOT
  62
1
  10
 169.500
  20
 29.0000
  30
0.0
  40
 1.00000
  50
 180.000
  51
 270.000
   0
ARC
   8
LEVEL001
   6
DASHDOT
  62
1
  10
 169.500
  20
 55.0000
  30
0.0
  40
 1.00000
  50
 90.0000
  51
 180.000
   0
ARC
   8
LEVEL001
   6
DASHDOT
  62
1
  10
 180.500
  20
 47.5000
  30
0.0
  40
 2.00000
  50
 180.000
  51
 270.000
   0
ARC
   8
LEVEL001
   6
DASHDOT
  62
1
  10
 180.500
  20
 36.5000
  30
0.0
  40
 2.00000
  50
 90.0000
  51
 180.000
   0
LINE
   8
LEVEL001
   6
DASHDOT
  62
1
  10
 180.500
  20
 45.5000
  30
0.0
  11
 181.000
  21
 45.5000
  31
0.0
   0
LINE
   8
LEVEL001
   6
DASHDOT
  62
1
  10
 180.500
  20
 38.5000
  30
0.0
  11
 181.000
  21
 38.5000
  31
0.0
   0
ARC
   8
LEVEL001
   6
DASHDOT
  62
1
  10
 181.000
  20
 42.0000
  30
0.0
  40
 3.50000
  50
 270.000
  51
 90.0000
   0
LINE
   8
LEVEL001
   6
CONTINUOUS
  62
7
  10
 128.984
  20
 32.5000
  30
0.0
  11
 128.984
  21
 36.1690
  31
0.0
   0
LINE
   8
LEVEL001
   6
CONTINUOUS
  62
7
  10
 128.984
  20
 47.8309
  30
0.0
  11
 128.984
  21
 51.5000
  31
0.0
   0
LINE
   8
LEVEL001
   6
CONTINUOUS
  62
7
  10
 123.500
  20
 37.9608
  30
0.0
  11
 137.500
  21
 47.8309
  31
0.0
   0
LINE
   8
LEVEL001
   6
CONTINUOUS
  62
7
  10
 123.500
  20
 46.0392
  30
0.0
  11
 137.500
  21
 36.1690
  31
0.0
   0
LINE
   8
LEVEL001
   6
CONTINUOUS
  62
3
  10
 123.884
  20
 49.6745
  30
0.0
  11
 123.884
  21
 46.0392
  31
0.0
   0
LINE
   8
LEVEL001
   6
CONTINUOUS
  62
3
  10
 123.884
  20
 37.9608
  30
0.0
  11
 123.884
  21
 34.3255
  31
0.0
   0
LINE
   8
LEVEL001
   6
CONTINUOUS
  62
7
  10
 127.500
  20
 50.6435
  30
0.0
  11
 127.500
  21
 46.2965
  31
0.0
   0
LINE
   8
LEVEL001
   6
CONTINUOUS
  62
7
  10
 127.500
  20
 37.7034
  30
0.0
  11
 127.500
  21
 33.3565
  31
0.0
   0
LINE
   8
LEVEL001
   6
CONTINUOUS
  62
3
  10
 151.000
  20
 29.0000
  30
0.0
  11
 162.000
  21
 29.0000
  31
0.0
   0
LINE
   8
LEVEL001
   6
CONTINUOUS
  62
3
  10
 151.000
  20
 31.0000
  30
0.0
  11
 162.000
  21
 31.0000
  31
0.0
   0
LINE
   8
LEVEL001
   6
CONTINUOUS
  62
3
  10
 151.000
  20
 33.0000
  30
0.0
  11
 162.000
  21
 33.0000
  31
0.0
   0
LINE
   8
LEVEL001
   6
CONTINUOUS
  62
3
  10
 151.000
  20
 35.0000
  30
0.0
  11
 162.000
  21
 35.0000
  31
0.0
   0
LINE
   8
LEVEL001
   6
CONTINUOUS
  62
3
  10
 151.000
  20
 37.0000
  30
0.0
  11
 162.000
  21
 37.0000
  31
0.0
   0
LINE
   8
LEVEL001
   6
CONTINUOUS
  62
3
  10
 151.000
  20
 39.0000
  30
0.0
  11
 162.000
  21
 39.0000
  31
0.0
   0
LINE
   8
LEVEL001
   6
CONTINUOUS
  62
3
  10
 151.000
  20
 41.0000
  30
0.0
  11
 162.000
  21
 41.0000
  31
0.0
   0
LINE
   8
LEVEL001
   6
CONTINUOUS
  62
3
  10
 151.000
  20
 43.0000
  30
0.0
  11
 162.000
  21
 43.0000
  31
0.0
   0
LINE
   8
LEVEL001
   6
CONTINUOUS
  62
3
  10
 151.000
  20
 45.0000
  30
0.0
  11
 162.000
  21
 45.0000
  31
0.0
   0
LINE
   8
LEVEL001
   6
CONTINUOUS
  62
3
  10
 151.000
  20
 47.0000
  30
0.0
  11
 162.000
  21
 47.0000
  31
0.0
   0
LINE
   8
LEVEL001
   6
CONTINUOUS
  62
3
  10
 151.000
  20
 49.0000
  30
0.0
  11
 162.000
  21
 49.0000
  31
0.0
   0
LINE
   8
LEVEL001
   6
CONTINUOUS
  62
3
  10
 151.000
  20
 51.0000
  30
0.0
  11
 162.000
  21
 51.0000
  31
0.0
   0
LINE
   8
LEVEL001
   6
CONTINUOUS
  62
3
  10
 151.000
  20
 53.0000
  30
0.0
  11
 162.000
  21
 53.0000
  31
0.0
   0
LINE
   8
LEVEL001
   6
CONTINUOUS
  62
3
  10
 151.000
  20
 55.0000
  30
0.0
  11
 162.000
  21
 55.0000
  31
0.0
   0
LINE
   8
LEVEL001
   6
CONTINUOUS
  62
7
  10
 123.500
  20
 37.9608
  30
0.0
  11
 123.500
  21
 46.0392
  31
0.0
   0
LINE
   8
LEVEL001
   6
CONTINUOUS
  62
7
  10
 123.500
  20
 46.0392
  30
0.0
  11
 127.500
  21
 46.2965
  31
0.0
   0
LINE
   8
LEVEL001
   6
CONTINUOUS
  62
7
  10
 127.500
  20
 46.2965
  30
0.0
  11
 128.984
  21
 47.8309
  31
0.0
   0
LINE
   8
LEVEL001
   6
CONTINUOUS
  62
7
  10
 128.984
  20
 47.8309
  30
0.0
  11
 137.500
  21
 47.8309
  31
0.0
   0
LINE
   8
LEVEL001
   6
CONTINUOUS
  62
7
  10
 137.500
  20
 47.8309
  30
0.0
  11
 137.500
  21
 36.1690
  31
0.0
   0
LINE
   8
LEVEL001
   6
CONTINUOUS
  62
7
  10
 137.500
  20
 36.1690
  30
0.0
  11
 128.984
  21
 36.1690
  31
0.0
   0
LINE
   8
LEVEL001
   6
CONTINUOUS
  62
7
  10
 128.984
  20
 36.1690
  30
0.0
  11
 127.500
  21
 37.7034
  31
0.0
   0
LINE
   8
LEVEL001
   6
CONTINUOUS
  62
7
  10
 127.500
  20
 37.7034
  30
0.0
  11
 123.500
  21
 37.9608
  31
0.0
   0
LINE
   8
LEVEL001
   6
CONTINUOUS
  62
7
  10
 151.000
  20
 27.0000
  30
0.0
  11
 151.000
  21
 57.0000
  31
0.0
   0
LINE
   8
LEVEL001
   6
CONTINUOUS
  62
7
  10
 151.000
  20
 57.0000
  30
0.0
  11
 162.000
  21
 57.0000
  31
0.0
   0
LINE
   8
LEVEL001
   6
CONTINUOUS
  62
7
  10
 162.000
  20
 57.0000
  30
0.0
  11
 162.000
  21
 27.0000
  31
0.0
   0
LINE
   8
LEVEL001
   6
CONTINUOUS
  62
7
  10
 162.000
  20
 27.0000
  30
0.0
  11
 151.000
  21
 27.0000
  31
0.0
   0
LINE
   8
LEVEL001
   6
CONTINUOUS
  62
3
  10
 127.500
  20
 119.356
  30
0.0
  11
 123.884
  21
 120.325
  31
0.0
   0
LINE
   8
LEVEL001
   6
CONTINUOUS
  62
7
  10
 127.500
  20
 119.356
  30
0.0
  11
 128.984
  21
 118.500
  31
0.0
   0
LINE
   8
LEVEL001
   6
CONTINUOUS
  62
7
  10
 144.500
  20
 118.500
  30
0.0
  11
 128.984
  21
 118.500
  31
0.0
   0
ARC
   8
LEVEL001
   6
CONTINUOUS
  62
7
  10
 146.000
  20
 115.000
  30
0.0
  40
 1.50000
  50
 180.000
  51
 270.000
   0
LINE
   8
LEVEL001
   6
CONTINUOUS
  62
7
  10
 144.500
  20
 115.000
  30
0.0
  11
 144.500
  21
 141.000
  31
0.0
   0
LINE
   8
LEVEL001
   6
CONTINUOUS
  62
7
  10
 146.000
  20
 113.500
  30
0.0
  11
 151.000
  21
 113.500
  31
0.0
   0
ARC
   8
LEVEL001
   6
CONTINUOUS
  62
7
  10
 167.000
  20
 115.000
  30
0.0
  40
 1.50000
  50
 270.000
  51
0.0
   0
LINE
   8
LEVEL001
   6
CONTINUOUS
  62
7
  10
 162.000
  20
 113.500
  30
0.0
  11
 167.000
  21
 113.500
  31
0.0
   0
LINE
   8
LEVEL001
   6
CONTINUOUS
  62
7
  10
 168.500
  20
 141.000
  30
0.0
  11
 168.500
  21
 115.000
  31
0.0
   0
ARC
   8
LEVEL001
   6
DASHDOT
  62
1
  10
 177.500
  20
 115.000
  30
0.0
  40
 1.00000
  50
 270.000
  51
0.0
   0
LINE
   8
LEVEL001
   6
DASHDOT
  62
1
  10
 169.500
  20
 114.000
  30
0.0
  11
 177.500
  21
 114.000
  31
0.0
   0
LINE
   8
LEVEL001
   6
DASHDOT
  62
1
  10
 178.500
  20
 141.000
  30
0.0
  11
 178.500
  21
 115.000
  31
0.0
   0
CIRCLE
   8
LEVEL001
   6
DASHDOT
  62
1
  10
 181.500
  20
 128.000
  30
0.0
  40
 1.50000
   0
ARC
   8
LEVEL001
   6
DASHDOT
  62
1
  10
 169.500
  20
 115.000
  30
0.0
  40
 1.00000
  50
 180.000
  51
 270.000
   0
ARC
   8
LEVEL001
   6
DASHDOT
  62
1
  10
 180.500
  20
 122.500
  30
0.0
  40
 2.00000
  50
 90.0000
  51
 180.000
   0
LINE
   8
LEVEL001
   6
DASHDOT
  62
1
  10
 180.500
  20
 124.500
  30
0.0
  11
 181.000
  21
 124.500
  31
0.0
   0
ARC
   8
LEVEL001
   6
DASHDOT
  62
1
  10
 181.000
  20
 128.000
  30
0.0
  40
 3.50000
  50
 270.000
  51
 90.0000
   0
LINE
   8
LEVEL001
   6
CONTINUOUS
  62
7
  10
 128.984
  20
 118.500
  30
0.0
  11
 128.984
  21
 122.169
  31
0.0
   0
LINE
   8
LEVEL001
   6
CONTINUOUS
  62
7
  10
 123.500
  20
 123.961
  30
0.0
  11
 137.500
  21
 133.831
  31
0.0
   0
LINE
   8
LEVEL001
   6
CONTINUOUS
  62
7
  10
 123.500
  20
 132.039
  30
0.0
  11
 137.500
  21
 122.169
  31
0.0
   0
LINE
   8
LEVEL001
   6
CONTINUOUS
  62
3
  10
 123.884
  20
 123.961
  30
0.0
  11
 123.884
  21
 120.325
  31
0.0
   0
LINE
   8
LEVEL001
   6
CONTINUOUS
  62
7
  10
 127.500
  20
 123.703
  30
0.0
  11
 127.500
  21
 119.356
  31
0.0
   0
LINE
   8
LEVEL001
   6
CONTINUOUS
  62
3
  10
 151.000
  20
 115.000
  30
0.0
  11
 162.000
  21
 115.000
  31
0.0
   0
LINE
   8
LEVEL001
   6
CONTINUOUS
  62
3
  10
 151.000
  20
 117.000
  30
0.0
  11
 162.000
  21
 117.000
  31
0.0
   0
LINE
   8
LEVEL001
   6
CONTINUOUS
  62
3
  10
 151.000
  20
 119.000
  30
0.0
  11
 162.000
  21
 119.000
  31
0.0
   0
LINE
   8
LEVEL001
   6
CONTINUOUS
  62
3
  10
 151.000
  20
 121.000
  30
0.0
  11
 162.000
  21
 121.000
  31
0.0
   0
LINE
   8
LEVEL001
   6
CONTINUOUS
  62
3
  10
 151.000
  20
 123.000
  30
0.0
  11
 162.000
  21
 123.000
  31
0.0
   0
LINE
   8
LEVEL001
   6
CONTINUOUS
  62
3
  10
 151.000
  20
 125.000
  30
0.0
  11
 162.000
  21
 125.000
  31
0.0
   0
LINE
   8
LEVEL001
   6
CONTINUOUS
  62
3
  10
 151.000
  20
 127.000
  30
0.0
  11
 162.000
  21
 127.000
  31
0.0
   0
LINE
   8
LEVEL001
   6
CONTINUOUS
  62
7
  10
 123.500
  20
 123.961
  30
0.0
  11
 123.500
  21
 132.039
  31
0.0
   0
LINE
   8
LEVEL001
   6
CONTINUOUS
  62
7
  10
 123.500
  20
 132.039
  30
0.0
  11
 127.500
  21
 132.297
  31
0.0
   0
LINE
   8
LEVEL001
   6
CONTINUOUS
  62
7
  10
 127.500
  20
 132.297
  30
0.0
  11
 128.984
  21
 133.831
  31
0.0
   0
LINE
   8
LEVEL001
   6
CONTINUOUS
  62
7
  10
 128.984
  20
 133.831
  30
0.0
  11
 137.500
  21
 133.831
  31
0.0
   0
LINE
   8
LEVEL001
   6
CONTINUOUS
  62
7
  10
 137.500
  20
 133.831
  30
0.0
  11
 137.500
  21
 122.169
  31
0.0
   0
LINE
   8
LEVEL001
   6
CONTINUOUS
  62
7
  10
 137.500
  20
 122.169
  30
0.0
  11
 128.984
  21
 122.169
  31
0.0
   0
LINE
   8
LEVEL001
   6
CONTINUOUS
  62
7
  10
 128.984
  20
 122.169
  30
0.0
  11
 127.500
  21
 123.703
  31
0.0
   0
LINE
   8
LEVEL001
   6
CONTINUOUS
  62
7
  10
 127.500
  20
 123.703
  30
0.0
  11
 123.500
  21
 123.961
  31
0.0
   0
LINE
   8
LEVEL001
   6
CONTINUOUS
  62
7
  10
 151.000
  20
 113.000
  30
0.0
  11
 151.000
  21
 143.000
  31
0.0
   0
LINE
   8
LEVEL001
   6
CONTINUOUS
  62
7
  10
 151.000
  20
 143.000
  30
0.0
  11
 162.000
  21
 143.000
  31
0.0
   0
LINE
   8
LEVEL001
   6
CONTINUOUS
  62
7
  10
 162.000
  20
 143.000
  30
0.0
  11
 162.000
  21
 113.000
  31
0.0
   0
LINE
   8
LEVEL001
   6
CONTINUOUS
  62
7
  10
 162.000
  20
 113.000
  30
0.0
  11
 151.000
  21
 113.000
  31
0.0
   0
LINE
   8
LEVEL001
   6
CONTINUOUS
  62
3
  10
 127.500
  20
 136.643
  30
0.0
  11
 123.884
  21
 135.674
  31
0.0
   0
LINE
   8
LEVEL001
   6
CONTINUOUS
  62
7
  10
 127.500
  20
 136.643
  30
0.0
  11
 128.984
  21
 137.500
  31
0.0
   0
LINE
   8
LEVEL001
   6
CONTINUOUS
  62
7
  10
 144.500
  20
 137.500
  30
0.0
  11
 128.984
  21
 137.500
  31
0.0
   0
ARC
   8
LEVEL001
   6
DASHDOT
  62
1
  10
 180.500
  20
 133.500
  30
0.0
  40
 2.00000
  50
 180.000
  51
 270.000
   0
LINE
   8
LEVEL001
   6
DASHDOT
  62
1
  10
 180.500
  20
 131.500
  30
0.0
  11
 181.000
  21
 131.500
  31
0.0
   0
LINE
   8
LEVEL001
   6
CONTINUOUS
  62
7
  10
 128.984
  20
 133.831
  30
0.0
  11
 128.984
  21
 137.500
  31
0.0
   0
LINE
   8
LEVEL001
   6
CONTINUOUS
  62
3
  10
 123.884
  20
 135.674
  30
0.0
  11
 123.884
  21
 132.039
  31
0.0
   0
LINE
   8
LEVEL001
   6
CONTINUOUS
  62
7
  10
 127.500
  20
 136.643
  30
0.0
  11
 127.500
  21
 132.297
  31
0.0
   0
LINE
   8
LEVEL001
   6
CONTINUOUS
  62
3
  10
 151.000
  20
 129.000
  30
0.0
  11
 162.000
  21
 129.000
  31
0.0
   0
LINE
   8
LEVEL001
   6
CONTINUOUS
  62
3
  10
 151.000
  20
 131.000
  30
0.0
  11
 162.000
  21
 131.000
  31
0.0
   0
LINE
   8
LEVEL001
   6
CONTINUOUS
  62
3
  10
 151.000
  20
 133.000
  30
0.0
  11
 162.000
  21
 133.000
  31
0.0
   0
LINE
   8
LEVEL001
   6
CONTINUOUS
  62
3
  10
 151.000
  20
 135.000
  30
0.0
  11
 162.000
  21
 135.000
  31
0.0
   0
LINE
   8
LEVEL001
   6
CONTINUOUS
  62
3
  10
 151.000
  20
 137.000
  30
0.0
  11
 162.000
  21
 137.000
  31
0.0
   0
ARC
   8
LEVEL001
   6
CONTINUOUS
  62
7
  10
 146.000
  20
 141.000
  30
0.0
  40
 1.50000
  50
 90.0000
  51
 180.000
   0
LINE
   8
LEVEL001
   6
CONTINUOUS
  62
7
  10
 146.000
  20
 142.500
  30
0.0
  11
 151.000
  21
 142.500
  31
0.0
   0
ARC
   8
LEVEL001
   6
CONTINUOUS
  62
7
  10
 167.000
  20
 141.000
  30
0.0
  40
 1.50000
  50
0.0
  51
 90.0000
   0
LINE
   8
LEVEL001
   6
CONTINUOUS
  62
7
  10
 162.000
  20
 142.500
  30
0.0
  11
 167.000
  21
 142.500
  31
0.0
   0
ARC
   8
LEVEL001
   6
DASHDOT
  62
1
  10
 177.500
  20
 141.000
  30
0.0
  40
 1.00000
  50
0.0
  51
 90.0000
   0
LINE
   8
LEVEL001
   6
DASHDOT
  62
1
  10
 169.500
  20
 142.000
  30
0.0
  11
 177.500
  21
 142.000
  31
0.0
   0
ARC
   8
LEVEL001
   6
DASHDOT
  62
1
  10
 169.500
  20
 141.000
  30
0.0
  40
 1.00000
  50
 90.0000
  51
 180.000
   0
LINE
   8
LEVEL001
   6
CONTINUOUS
  62
3
  10
 151.000
  20
 139.000
  30
0.0
  11
 162.000
  21
 139.000
  31
0.0
   0
LINE
   8
LEVEL001
   6
CONTINUOUS
  62
3
  10
 151.000
  20
 141.000
  30
0.0
  11
 162.000
  21
 141.000
  31
0.0
   0
LINE
   8
LEVEL003
   6
CONTINUOUS
  62
3
  10
 188.500
  20
 42.0000
  30
0.0
  11
 202.000
  21
 42.0000
  31
0.0
   0
LINE
   8
LEVEL003
   6
CONTINUOUS
  62
3
  10
 116.500
  20
 20.0000
  30
0.0
  11
 202.000
  21
 20.0000
  31
0.0
   0
LINE
   8
LEVEL003
   6
CONTINUOUS
  62
3
  10
 200.000
  20
 42.0000
  30
0.0
  11
 200.000
  21
 20.0000
  31
0.0
   0
LINE
   8
LEVEL003
   6
CONTINUOUS
  62
3
  10
 200.000
  20
 42.0000
  30
0.0
  11
 199.471
  21
 39.0000
  31
0.0
   0
LINE
   8
LEVEL003
   6
CONTINUOUS
  62
3
  10
 200.000
  20
 42.0000
  30
0.0
  11
 200.529
  21
 39.0000
  31
0.0
   0
LINE
   8
LEVEL003
   6
CONTINUOUS
  62
3
  10
 200.000
  20
 20.0000
  30
0.0
  11
 200.529
  21
 23.0000
  31
0.0
   0
LINE
   8
LEVEL003
   6
CONTINUOUS
  62
3
  10
 200.000
  20
 20.0000
  30
0.0
  11
 199.471
  21
 23.0000
  31
0.0
   0
TEXT
   8
LEVEL003
  62
3
  10
 199.200
  20
 29.0000
  30
0.0
  40
 4.00000
   1
22
  50
 90.0000
  41
 0.500000
   7
STANDARD
  72
1
  11
 199.200
  21
 31.0000
  31
0.0
   0
LINE
   8
LEVEL003
   6
CONTINUOUS
  62
3
  10
 116.000
  20
 187.000
  30
0.0
  11
 202.000
  21
 187.000
  31
0.0
   0
LINE
   8
LEVEL003
   6
CONTINUOUS
  62
3
  10
 188.500
  20
 128.000
  30
0.0
  11
 202.000
  21
 128.000
  31
0.0
   0
LINE
   8
LEVEL003
   6
CONTINUOUS
  62
3
  10
 200.000
  20
 187.000
  30
0.0
  11
 200.000
  21
 128.000
  31
0.0
   0
LINE
   8
LEVEL003
   6
CONTINUOUS
  62
3
  10
 200.000
  20
 187.000
  30
0.0
  11
 199.471
  21
 184.000
  31
0.0
   0
LINE
   8
LEVEL003
   6
CONTINUOUS
  62
3
  10
 200.000
  20
 187.000
  30
0.0
  11
 200.529
  21
 184.000
  31
0.0
   0
LINE
   8
LEVEL003
   6
CONTINUOUS
  62
3
  10
 200.000
  20
 128.000
  30
0.0
  11
 200.529
  21
 131.000
  31
0.0
   0
LINE
   8
LEVEL003
   6
CONTINUOUS
  62
3
  10
 200.000
  20
 128.000
  30
0.0
  11
 199.471
  21
 131.000
  31
0.0
   0
TEXT
   8
LEVEL003
  62
3
  10
 199.200
  20
 155.500
  30
0.0
  40
 4.00000
   1
59
  50
 90.0000
  41
 0.500000
   7
STANDARD
  72
1
  11
 199.200
  21
 157.500
  31
0.0
   0
LINE
   8
LEVEL003
   6
CONTINUOUS
  62
3
  10
 100.000
  20
 225.000
  30
0.0
  11
 202.000
  21
 225.000
  31
0.0
   0
LINE
   8
LEVEL003
   6
CONTINUOUS
  62
3
  10
 116.000
  20
 187.000
  30
0.0
  11
 202.000
  21
 187.000
  31
0.0
   0
LINE
   8
LEVEL003
   6
CONTINUOUS
  62
3
  10
 200.000
  20
 225.000
  30
0.0
  11
 200.000
  21
 187.000
  31
0.0
   0
LINE
   8
LEVEL003
   6
CONTINUOUS
  62
3
  10
 200.000
  20
 225.000
  30
0.0
  11
 199.471
  21
 222.000
  31
0.0
   0
LINE
   8
LEVEL003
   6
CONTINUOUS
  62
3
  10
 200.000
  20
 225.000
  30
0.0
  11
 200.529
  21
 222.000
  31
0.0
   0
LINE
   8
LEVEL003
   6
CONTINUOUS
  62
3
  10
 200.000
  20
 187.000
  30
0.0
  11
 200.529
  21
 190.000
  31
0.0
   0
LINE
   8
LEVEL003
   6
CONTINUOUS
  62
3
  10
 200.000
  20
 187.000
  30
0.0
  11
 199.471
  21
 190.000
  31
0.0
   0
TEXT
   8
LEVEL003
  62
3
  10
 199.200
  20
 204.000
  30
0.0
  40
 4.00000
   1
38
  50
 90.0000
  41
 0.500000
   7
STANDARD
  72
1
  11
 199.200
  21
 206.000
  31
0.0
   0
LINE
   8
LEVEL003
   6
CONTINUOUS
  62
3
  10
 100.000
  20
 225.000
  30
0.0
  11
 222.000
  21
 225.000
  31
0.0
   0
LINE
   8
LEVEL003
   6
CONTINUOUS
  62
3
  10
 116.500
  20
 20.0000
  30
0.0
  11
 222.000
  21
 20.0000
  31
0.0
   0
LINE
   8
LEVEL003
   6
CONTINUOUS
  62
3
  10
 220.000
  20
 225.000
  30
0.0
  11
 220.000
  21
 20.0000
  31
0.0
   0
LINE
   8
LEVEL003
   6
CONTINUOUS
  62
3
  10
 220.000
  20
 225.000
  30
0.0
  11
 219.471
  21
 222.000
  31
0.0
   0
LINE
   8
LEVEL003
   6
CONTINUOUS
  62
3
  10
 220.000
  20
 225.000
  30
0.0
  11
 220.529
  21
 222.000
  31
0.0
   0
LINE
   8
LEVEL003
   6
CONTINUOUS
  62
3
  10
 220.000
  20
 20.0000
  30
0.0
  11
 220.529
  21
 23.0000
  31
0.0
   0
LINE
   8
LEVEL003
   6
CONTINUOUS
  62
3
  10
 220.000
  20
 20.0000
  30
0.0
  11
 219.471
  21
 23.0000
  31
0.0
   0
TEXT
   8
LEVEL003
  62
3
  10
 219.200
  20
 119.500
  30
0.0
  40
 4.00000
   1
205
  50
 90.0000
  41
 0.500000
   7
STANDARD
  72
1
  11
 219.200
  21
 122.500
  31
0.0
   0
LINE
   8
LEVEL003
   6
CONTINUOUS
  62
3
  10
 93.0000
  20
 215.000
  30
0.0
  11
 147.000
  21
 215.000
  31
0.0
   0
LINE
   8
LEVEL003
   6
CONTINUOUS
  62
3
  10
 96.0000
  20
 192.000
  30
0.0
  11
 147.000
  21
 192.000
  31
0.0
   0
LINE
   8
LEVEL003
   6
CONTINUOUS
  62
3
  10
 145.000
  20
 215.000
  30
0.0
  11
 145.000
  21
 192.000
  31
0.0
   0
LINE
   8
LEVEL003
   6
CONTINUOUS
  62
3
  10
 145.000
  20
 215.000
  30
0.0
  11
 144.471
  21
 212.000
  31
0.0
   0
LINE
   8
LEVEL003
   6
CONTINUOUS
  62
3
  10
 145.000
  20
 215.000
  30
0.0
  11
 145.529
  21
 212.000
  31
0.0
   0
LINE
   8
LEVEL003
   6
CONTINUOUS
  62
3
  10
 145.000
  20
 192.000
  30
0.0
  11
 145.529
  21
 195.000
  31
0.0
   0
LINE
   8
LEVEL003
   6
CONTINUOUS
  62
3
  10
 145.000
  20
 192.000
  30
0.0
  11
 144.471
  21
 195.000
  31
0.0
   0
TEXT
   8
LEVEL003
  62
3
  10
 144.200
  20
 201.500
  30
0.0
  40
 4.00000
   1
23
  50
 90.0000
  41
 0.500000
   7
STANDARD
  72
1
  11
 144.200
  21
 203.500
  31
0.0
   0
LINE
   8
LEVEL003
   6
CONTINUOUS
  62
3
  10
 100.000
  20
 225.000
  30
0.0
  11
 147.000
  21
 225.000
  31
0.0
   0
LINE
   8
LEVEL003
   6
CONTINUOUS
  62
3
  10
 93.0000
  20
 215.000
  30
0.0
  11
 147.000
  21
 215.000
  31
0.0
   0
LINE
   8
LEVEL003
   6
CONTINUOUS
  62
3
  10
 145.000
  20
 225.000
  30
0.0
  11
 145.000
  21
 215.000
  31
0.0
   0
LINE
   8
LEVEL003
   6
CONTINUOUS
  62
3
  10
 145.000
  20
 225.000
  30
0.0
  11
 144.471
  21
 222.000
  31
0.0
   0
LINE
   8
LEVEL003
   6
CONTINUOUS
  62
3
  10
 145.000
  20
 225.000
  30
0.0
  11
 145.529
  21
 222.000
  31
0.0
   0
LINE
   8
LEVEL003
   6
CONTINUOUS
  62
3
  10
 145.000
  20
 215.000
  30
0.0
  11
 145.529
  21
 218.000
  31
0.0
   0
LINE
   8
LEVEL003
   6
CONTINUOUS
  62
3
  10
 145.000
  20
 215.000
  30
0.0
  11
 144.471
  21
 218.000
  31
0.0
   0
TEXT
   8
LEVEL003
  62
3
  10
 144.200
  20
 218.000
  30
0.0
  40
 4.00000
   1
10
  50
 90.0000
  41
 0.500000
   7
STANDARD
  72
1
  11
 144.200
  21
 220.000
  31
0.0
   0
LINE
   8
LEVEL001
   6
CONTINUOUS
  62
3
  10
 116.500
  20
 147.000
  30
0.0
  11
 117.500
  21
 143.268
  31
0.0
   0
LINE
   8
LEVEL001
   6
CONTINUOUS
  62
7
  10
 115.000
  20
 187.000
  30
0.0
  11
 116.000
  21
 186.000
  31
0.0
   0
LINE
   8
LEVEL001
   6
CONTINUOUS
  62
7
  10
 116.000
  20
 186.000
  30
0.0
  11
 116.000
  21
 182.000
  31
0.0
   0
LINE
   8
LEVEL001
   6
CONTINUOUS
  62
7
  10
 95.0000
  20
 192.000
  30
0.0
  11
 96.0000
  21
 189.000
  31
0.0
   0
ARC
   8
LEVEL001
   6
CONTINUOUS
  62
7
  10
 93.0000
  20
 194.000
  30
0.0
  40
 1.00000
  50
 90.0000
  51
 180.000
   0
ARC
   8
LEVEL001
   6
CONTINUOUS
  62
7
  10
 93.0000
  20
 193.000
  30
0.0
  40
 1.00000
  50
 180.000
  51
 270.000
   0
LINE
   8
LEVEL001
   6
CONTINUOUS
  62
7
  10
 92.0000
  20
 194.000
  30
0.0
  11
 92.0000
  21
 193.000
  31
0.0
   0
LINE
   8
LEVEL001
   6
CONTINUOUS
  62
7
  10
 99.0000
  20
 225.000
  30
0.0
  11
 100.000
  21
 224.000
  31
0.0
   0
LINE
   8
LEVEL001
   6
CONTINUOUS
  62
7
  10
 100.000
  20
 196.000
  30
0.0
  11
 99.0000
  21
 195.000
  31
0.0
   0
LINE
   8
LEVEL001
   6
CONTINUOUS
  62
7
  10
 100.000
  20
 224.000
  30
0.0
  11
 100.000
  21
 196.000
  31
0.0
   0
LINE
   8
LEVEL001
   6
CONTINUOUS
  62
7
  10
 99.0000
  20
 195.000
  30
0.0
  11
 93.0000
  21
 195.000
  31
0.0
   0
LINE
   8
LEVEL001
   6
CONTINUOUS
  62
7
  10
 33.5000
  20
 182.000
  30
0.0
  11
 32.5000
  21
 181.000
  31
0.0
   0
LINE
   8
LEVEL001
   6
CONTINUOUS
  62
7
  10
 32.5000
  20
 181.000
  30
0.0
  11
 32.5000
  21
 143.268
  31
0.0
   0
LINE
   8
LEVEL001
   6
CONTINUOUS
  62
3
  10
 33.5000
  20
 147.000
  30
0.0
  11
 32.5000
  21
 143.268
  31
0.0
   0
LINE
   8
LEVEL001
   6
CONTINUOUS
  62
7
  10
 35.0000
  20
 187.000
  30
0.0
  11
 34.0000
  21
 186.000
  31
0.0
   0
LINE
   8
LEVEL001
   6
CONTINUOUS
  62
7
  10
 34.0000
  20
 186.000
  30
0.0
  11
 34.0000
  21
 182.000
  31
0.0
   0
LINE
   8
LEVEL001
   6
CONTINUOUS
  62
7
  10
 32.5000
  20
 143.268
  30
0.0
  11
 32.5000
  21
 22.0000
  31
0.0
   0
LINE
   8
LEVEL001
   6
CONTINUOUS
  62
7
  10
 55.0000
  20
 192.000
  30
0.0
  11
 54.0000
  21
 189.000
  31
0.0
   0
ARC
   8
LEVEL001
   6
CONTINUOUS
  62
7
  10
 57.0000
  20
 194.000
  30
0.0
  40
 1.00000
  50
 0.879360E-10
  51
 90.0000
   0
ARC
   8
LEVEL001
   6
CONTINUOUS
  62
7
  10
 57.0000
  20
 193.000
  30
0.0
  40
 1.00000
  50
 270.000
  51
0.0
   0
LINE
   8
LEVEL001
   6
CONTINUOUS
  62
7
  10
 58.0000
  20
 194.000
  30
0.0
  11
 58.0000
  21
 193.000
  31
0.0
   0
LINE
   8
LEVEL001
   6
CONTINUOUS
  62
7
  10
 51.0000
  20
 225.000
  30
0.0
  11
 50.0000
  21
 224.000
  31
0.0
   0
LINE
   8
LEVEL001
   6
CONTINUOUS
  62
7
  10
 50.0000
  20
 196.000
  30
0.0
  11
 51.0000
  21
 195.000
  31
0.0
   0
LINE
   8
LEVEL001
   6
CONTINUOUS
  62
7
  10
 50.0000
  20
 224.000
  30
0.0
  11
 50.0000
  21
 196.000
  31
0.0
   0
LINE
   8
LEVEL001
   6
CONTINUOUS
  62
7
  10
 51.0000
  20
 195.000
  30
0.0
  11
 57.0000
  21
 195.000
  31
0.0
   0
LINE
   8
LEVEL001
   6
CONTINUOUS
  62
7
  10
 96.0000
  20
 189.000
  30
0.0
  11
 54.0000
  21
 189.000
  31
0.0
   0
LINE
   8
LEVEL001
   6
CONTINUOUS
  62
7
  10
 95.0000
  20
 192.000
  30
0.0
  11
 55.0000
  21
 192.000
  31
0.0
   0
LINE
   8
LEVEL001
   6
CONTINUOUS
  62
7
  10
 93.0000
  20
 195.000
  30
0.0
  11
 57.0000
  21
 195.000
  31
0.0
   0
LINE
   8
LEVEL001
   6
CONTINUOUS
  62
7
  10
 99.0000
  20
 225.000
  30
0.0
  11
 51.0000
  21
 225.000
  31
0.0
   0
LINE
   8
LEVEL001
   6
DASHDOT
  62
1
  10
 120.500
  20
 182.000
  30
0.0
  11
 120.500
  21
 147.000
  31
0.0
   0
LINE
   8
LEVEL001
   6
DASHDOT
  62
1
  10
 120.500
  20
 147.000
  30
0.0
  11
 117.500
  21
 147.000
  31
0.0
   0
LINE
   8
LEVEL001
   6
DASHDOT
  62
1
  10
 120.500
  20
 182.000
  30
0.0
  11
 116.500
  21
 182.000
  31
0.0
   0
LINE
   8
LEVEL001
   6
DASHDOT
  62
1
  10
 29.5000
  20
 147.000
  30
0.0
  11
 32.5000
  21
 147.000
  31
0.0
   0
LINE
   8
LEVEL001
   6
DASHDOT
  62
1
  10
 29.5000
  20
 182.000
  30
0.0
  11
 29.5000
  21
 147.000
  31
0.0
   0
LINE
   8
LEVEL001
   6
DASHDOT
  62
1
  10
 29.5000
  20
 182.000
  30
0.0
  11
 33.5000
  21
 182.000
  31
0.0
   0
LINE
   8
LEVEL001
   6
CONTINUOUS
  62
7
  10
 32.5000
  20
 22.0000
  30
0.0
  11
 34.5000
  21
 20.0000
  31
0.0
   0
LINE
   8
LEVEL001
   6
CONTINUOUS
  62
7
  10
 115.500
  20
 20.0000
  30
0.0
  11
 34.5000
  21
 20.0000
  31
0.0
   0
LINE
   8
LEVEL001
   6
CONTINUOUS
  62
7
  10
 117.500
  20
 22.0000
  30
0.0
  11
 115.500
  21
 20.0000
  31
0.0
   0
LINE
   8
LEVEL003
   6
CONTINUOUS
  62
3
  10
 120.000
  20
 33.5909
  30
0.0
  11
 140.000
  21
 5.00000
  31
0.0
   0
LINE
   8
LEVEL003
   6
CONTINUOUS
  62
3
  10
 120.000
  20
 33.5909
  30
0.0
  11
 121.286
  21
 30.8294
  31
0.0
   0
LINE
   8
LEVEL003
   6
CONTINUOUS
  62
3
  10
 120.000
  20
 33.5909
  30
0.0
  11
 122.153
  21
 31.4358
  31
0.0
   0
TEXT
   8
LEVEL003
  62
3
  10
 140.000
  20
 5.00000
  30
0.0
  40
 4.00000
   1
ＮＰＴ３／８
   7
STANDARD
   0
LINE
   8
LEVEL003
   6
CONTINUOUS
  62
3
  10
 45.0000
  20
 110.000
  30
0.0
  11
 105.000
  21
 110.000
  31
0.0
   0
LINE
   8
LEVEL003
   6
CONTINUOUS
  62
3
  10
 45.0000
  20
 110.000
  30
0.0
  11
 48.0000
  21
 109.471
  31
0.0
   0
LINE
   8
LEVEL003
   6
CONTINUOUS
  62
3
  10
 45.0000
  20
 110.000
  30
0.0
  11
 48.0000
  21
 110.529
  31
0.0
   0
LINE
   8
LEVEL003
   6
CONTINUOUS
  62
3
  10
 105.000
  20
 110.000
  30
0.0
  11
 102.000
  21
 110.529
  31
0.0
   0
LINE
   8
LEVEL003
   6
CONTINUOUS
  62
3
  10
 105.000
  20
 110.000
  30
0.0
  11
 102.000
  21
 109.471
  31
0.0
   0
TEXT
   8
LEVEL003
  62
3
  10
 71.0000
  20
 110.800
  30
0.0
  40
 4.00000
   1
%%c60
   7
STANDARD
  72
1
  11
 75.0000
  21
 110.800
  31
0.0
   0
LINE
   8
LEVEL003
   6
CONTINUOUS
  62
3
  10
 32.5000
  20
 100.000
  30
0.0
  11
 117.500
  21
 100.000
  31
0.0
   0
LINE
   8
LEVEL003
   6
CONTINUOUS
  62
3
  10
 32.5000
  20
 100.000
  30
0.0
  11
 35.5000
  21
 99.4710
  31
0.0
   0
LINE
   8
LEVEL003
   6
CONTINUOUS
  62
3
  10
 32.5000
  20
 100.000
  30
0.0
  11
 35.5000
  21
 100.529
  31
0.0
   0
LINE
   8
LEVEL003
   6
CONTINUOUS
  62
3
  10
 117.500
  20
 100.000
  30
0.0
  11
 114.500
  21
 100.529
  31
0.0
   0
LINE
   8
LEVEL003
   6
CONTINUOUS
  62
3
  10
 117.500
  20
 100.000
  30
0.0
  11
 114.500
  21
 99.4710
  31
0.0
   0
TEXT
   8
LEVEL003
  62
3
  10
 71.0000
  20
 100.800
  30
0.0
  40
 4.00000
   1
%%c85
   7
STANDARD
  72
1
  11
 75.0000
  21
 100.800
  31
0.0
   0
LINE
   8
LEVEL003
   6
CONTINUOUS
  62
3
  10
 54.0000
  20
 120.000
  30
0.0
  11
 96.0000
  21
 120.000
  31
0.0
   0
LINE
   8
LEVEL003
   6
CONTINUOUS
  62
3
  10
 54.0000
  20
 120.000
  30
0.0
  11
 57.0000
  21
 119.471
  31
0.0
   0
LINE
   8
LEVEL003
   6
CONTINUOUS
  62
3
  10
 54.0000
  20
 120.000
  30
0.0
  11
 57.0000
  21
 120.529
  31
0.0
   0
LINE
   8
LEVEL003
   6
CONTINUOUS
  62
3
  10
 96.0000
  20
 120.000
  30
0.0
  11
 93.0000
  21
 120.529
  31
0.0
   0
LINE
   8
LEVEL003
   6
CONTINUOUS
  62
3
  10
 96.0000
  20
 120.000
  30
0.0
  11
 93.0000
  21
 119.471
  31
0.0
   0
TEXT
   8
LEVEL003
  62
3
  10
 71.0000
  20
 120.800
  30
0.0
  40
 4.00000
   1
%%c42
   7
STANDARD
  72
1
  11
 75.0000
  21
 120.800
  31
0.0
   0
LINE
   8
LEVEL001
   6
CONTINUOUS
  62
7
  10
 116.500
  20
 182.000
  30
0.0
  11
 117.500
  21
 181.000
  31
0.0
   0
LINE
   8
LEVEL001
   6
CONTINUOUS
  62
7
  10
 117.500
  20
 181.000
  30
0.0
  11
 117.500
  21
 22.0000
  31
0.0
   0
LINE
   8
LEVEL001
   6
CONTINUOUS
  62
7
  10
 127.500
  20
 50.6435
  30
0.0
  11
 117.500
  21
 50.3310
  31
0.0
   0
LINE
   8
LEVEL001
   6
CONTINUOUS
  62
3
  10
 123.884
  20
 49.6745
  30
0.0
  11
 117.500
  21
 49.4750
  31
0.0
   0
LINE
   8
LEVEL001
   6
CONTINUOUS
  62
3
  10
 123.884
  20
 34.3255
  30
0.0
  11
 117.500
  21
 34.5250
  31
0.0
   0
LINE
   8
LEVEL001
   6
CONTINUOUS
  62
7
  10
 127.500
  20
 33.3565
  30
0.0
  11
 117.500
  21
 33.6690
  31
0.0
   0
LINE
   8
LEVEL001
   6
CONTINUOUS
  62
7
  10
 127.500
  20
 136.643
  30
0.0
  11
 117.500
  21
 136.331
  31
0.0
   0
LINE
   8
LEVEL001
   6
CONTINUOUS
  62
3
  10
 123.884
  20
 135.674
  30
0.0
  11
 117.500
  21
 135.475
  31
0.0
   0
LINE
   8
LEVEL001
   6
CONTINUOUS
  62
3
  10
 123.884
  20
 120.325
  30
0.0
  11
 117.500
  21
 120.525
  31
0.0
   0
LINE
   8
LEVEL001
   6
CONTINUOUS
  62
7
  10
 127.500
  20
 119.356
  30
0.0
  11
 117.500
  21
 119.669
  31
0.0
   0
LINE
   8
LEVEL001
   6
CONTINUOUS
  62
3
  10
 58.0000
  20
 195.000
  30
0.0
  11
 58.0000
  21
 194.000
  31
0.0
   0
LINE
   8
LEVEL001
   6
CONTINUOUS
  62
3
  10
 92.0000
  20
 195.000
  30
0.0
  11
 92.0000
  21
 194.000
  31
0.0
   0
LINE
   8
LEVEL001
   6
CONTINUOUS
  62
7
  10
 54.0000
  20
 189.000
  30
0.0
  11
 54.0000
  21
 187.000
  31
0.0
   0
LINE
   8
LEVEL001
   6
CONTINUOUS
  62
7
  10
 96.0000
  20
 189.000
  30
0.0
  11
 96.0000
  21
 187.000
  31
0.0
   0
LINE
   8
LEVEL001
   6
CONTINUOUS
  62
7
  10
 34.0000
  20
 186.000
  30
0.0
  11
 116.000
  21
 186.000
  31
0.0
   0
LINE
   8
LEVEL001
   6
CONTINUOUS
  62
7
  10
 116.500
  20
 182.000
  30
0.0
  11
 33.5000
  21
 182.000
  31
0.0
   0
LINE
   8
LEVEL001
   6
CONTINUOUS
  62
3
  10
 116.500
  20
 182.000
  30
0.0
  11
 116.500
  21
 147.000
  31
0.0
   0
LINE
   8
LEVEL001
   6
CONTINUOUS
  62
3
  10
 33.5000
  20
 182.000
  30
0.0
  11
 33.5000
  21
 147.000
  31
0.0
   0
LINE
   8
LEVEL001
   6
CONTINUOUS
  62
3
  10
 32.5000
  20
 147.000
  30
0.0
  11
 117.500
  21
 147.000
  31
0.0
   0
LINE
   8
LEVEL001
   6
CONTINUOUS
  62
7
  10
 117.500
  20
 143.268
  30
0.0
  11
 32.5000
  21
 143.268
  31
0.0
   0
LINE
   8
LEVEL001
   6
CONTINUOUS
  62
3
  10
 32.5000
  20
 181.000
  30
0.0
  11
 117.500
  21
 181.000
  31
0.0
   0
LINE
   8
LEVEL001
   6
CONTINUOUS
  62
7
  10
 115.000
  20
 187.000
  30
0.0
  11
 35.0000
  21
 187.000
  31
0.0
   0
LINE
   8
LEVEL001
   6
CONTINUOUS
  62
7
  10
 32.5000
  20
 22.0000
  30
0.0
  11
 117.500
  21
 22.0000
  31
0.0
   0
LINE
   8
LEVEL001
   6
DASHDOT
  62
1
  10
 187.500
  20
 42.0000
  30
0.0
  11
 110.000
  21
 42.0000
  31
0.0
   0
LINE
   8
LEVEL001
   6
DASHDOT
  62
1
  10
 187.500
  20
 128.000
  30
0.0
  11
 110.000
  21
 128.000
  31
0.0
   0
LINE
   8
LEVEL001
   6
DASHDOT
  62
1
  10
 75.0000
  20
 230.000
  30
0.0
  11
 75.0000
  21
 15.0000
  31
0.0
   0
LINE
   8
LEVEL004
   6
DOT
  62
3
  10
 45.0000
  20
 152.000
  30
0.0
  11
 45.0000
  21
 50.0000
  31
0.0
   0
LINE
   8
LEVEL004
   6
DOT
  62
3
  10
 105.000
  20
 152.000
  30
0.0
  11
 105.000
  21
 50.0000
  31
0.0
   0
ARC
   8
LEVEL004
   6
DOT
  62
3
  10
 58.0000
  20
 214.000
  30
0.0
  40
 1.00000
  50
 90.0000
  51
 180.000
   0
LINE
   8
LEVEL004
   6
DOT
  62
3
  10
 57.0000
  20
 195.000
  30
0.0
  11
 58.0000
  21
 196.000
  31
0.0
   0
LINE
   8
LEVEL004
   6
DOT
  62
3
  10
 58.0000
  20
 196.000
  30
0.0
  11
 58.0000
  21
 211.000
  31
0.0
   0
ARC
   8
LEVEL004
   6
DOT
  62
3
  10
 58.0000
  20
 212.000
  30
0.0
  40
 1.00000
  50
 180.000
  51
 270.000
   0
LINE
   8
LEVEL004
   6
DOT
  62
3
  10
 57.0000
  20
 214.000
  30
0.0
  11
 57.0000
  21
 212.000
  31
0.0
   0
LINE
   8
LEVEL004
   6
DOT
  62
3
  10
 58.0000
  20
 215.000
  30
0.0
  11
 58.0000
  21
 211.000
  31
0.0
   0
LINE
   8
LEVEL004
   6
DOT
  62
3
  10
 58.0000
  20
 215.000
  30
0.0
  11
 57.0000
  21
 214.000
  31
0.0
   0
LINE
   8
LEVEL004
   6
DOT
  62
3
  10
 57.0000
  20
 214.000
  30
0.0
  11
 57.0000
  21
 195.000
  31
0.0
   0
ARC
   8
LEVEL004
   6
DOT
  62
3
  10
 92.0000
  20
 214.000
  30
0.0
  40
 1.00000
  50
0.0
  51
 90.0000
   0
LINE
   8
LEVEL004
   6
DOT
  62
3
  10
 93.0000
  20
 214.000
  30
0.0
  11
 57.0000
  21
 214.000
  31
0.0
   0
LINE
   8
LEVEL004
   6
DOT
  62
3
  10
 92.0000
  20
 215.000
  30
0.0
  11
 58.0000
  21
 215.000
  31
0.0
   0
ARC
   8
LEVEL004
   6
DOT
  62
3
  10
 92.0000
  20
 212.000
  30
0.0
  40
 1.00000
  50
 270.000
  51
0.0
   0
LINE
   8
LEVEL004
   6
DOT
  62
3
  10
 93.0000
  20
 214.000
  30
0.0
  11
 93.0000
  21
 212.000
  31
0.0
   0
LINE
   8
LEVEL004
   6
DOT
  62
3
  10
 92.0000
  20
 215.000
  30
0.0
  11
 93.0000
  21
 214.000
  31
0.0
   0
LINE
   8
LEVEL004
   6
DOT
  62
3
  10
 93.0000
  20
 214.000
  30
0.0
  11
 93.0000
  21
 195.000
  31
0.0
   0
LINE
   8
LEVEL004
   6
DOT
  62
3
  10
 92.0000
  20
 215.000
  30
0.0
  11
 92.0000
  21
 211.000
  31
0.0
   0
LINE
   8
LEVEL004
   6
DOT
  62
3
  10
 58.0000
  20
 196.000
  30
0.0
  11
 58.0000
  21
 195.000
  31
0.0
   0
LINE
   8
LEVEL004
   6
DOT
  62
3
  10
 92.0000
  20
 196.000
  30
0.0
  11
 92.0000
  21
 195.000
  31
0.0
   0
LINE
   8
LEVEL004
   6
DOT
  62
3
  10
 92.5000
  20
 195.500
  30
0.0
  11
 92.0000
  21
 196.000
  31
0.0
   0
LINE
   8
LEVEL004
   6
DOT
  62
3
  10
 92.0000
  20
 196.000
  30
0.0
  11
 92.0000
  21
 211.000
  31
0.0
   0
LINE
   8
LEVEL004
   6
DOT
  62
3
  10
 96.0000
  20
 90.0000
  30
0.0
  11
 96.0000
  21
 187.000
  31
0.0
   0
LINE
   8
LEVEL004
   6
DOT
  62
3
  10
 54.0000
  20
 90.0000
  30
0.0
  11
 54.0000
  21
 187.000
  31
0.0
   0
ARC
   8
LEVEL004
   6
DOT
  62
3
  10
 55.0000
  20
 225.000
  30
0.0
  40
 1.50000
  50
 180.000
  51
0.0
   0
ARC
   8
LEVEL004
   6
DOT
  62
3
  10
 62.5000
  20
 225.000
  30
0.0
  40
 1.50000
  50
 180.000
  51
0.0
   0
ARC
   8
LEVEL004
   6
DOT
  62
3
  10
 87.5000
  20
 225.000
  30
0.0
  40
 1.50000
  50
 180.000
  51
0.0
   0
ARC
   8
LEVEL004
   6
DOT
  62
3
  10
 95.0000
  20
 225.000
  30
0.0
  40
 1.50000
  50
 180.000
  51
0.0
   0
LINE
   8
LEVEL001
   6
CONTINUOUS
  62
7
  10
 100.000
  20
 224.000
  30
0.0
  11
 50.0000
  21
 224.000
  31
0.0
   0
LINE
   8
LEVEL001
   6
CONTINUOUS
  62
7
  10
 50.0000
  20
 196.000
  30
0.0
  11
 100.000
  21
 196.000
  31
0.0
   0
CIRCLE
   8
LEVEL003
   6
CONTINUOUS
  62
7
  10
 234.718
  20
 12.2707
  30
0.0
  40
 3.00000
   0
LINE
   8
LEVEL003
   6
CONTINUOUS
  62
7
  10
 240.606
  20
 15.2707
  30
0.0
  11
 236.797
  21
 8.67067
  31
0.0
   0
LINE
   8
LEVEL003
   6
CONTINUOUS
  62
7
  10
 236.797
  20
 8.67067
  30
0.0
  11
 229.176
  21
 8.67067
  31
0.0
   0
LINE
   8
LEVEL003
   6
CONTINUOUS
  62
7
  10
 228.309
  20
 7.17067
  30
0.0
  11
 241.930
  21
 7.17067
  31
0.0
   0
LINE
   8
LEVEL003
   6
CONTINUOUS
  62
7
  10
 241.930
  20
 7.17067
  30
0.0
  11
 246.606
  21
 15.2707
  31
0.0
   0
LINE
   8
LEVEL003
   6
CONTINUOUS
  62
7
  10
 246.606
  20
 15.2707
  30
0.0
  11
 240.606
  21
 15.2707
  31
0.0
   0
LINE
   8
LEVEL003
   6
CONTINUOUS
  62
7
  10
 229.176
  20
 8.67067
  30
0.0
  11
 228.309
  21
 7.17067
  31
0.0
   0
TEXT
   8
LEVEL003
  62
7
  10
 246.691
  20
 5.21997
  30
0.0
  40
 10.0000
   1
ＯＳＡＫＡ ＪＡＣＫ
   7
STANDARD
   0
TEXT
   8
LEVEL003
  62
7
  10
 249.602
  20
 22.1134
  30
0.0
  40
 6.00000
   1
Model : Ｅ２０Ｈ５
   7
STANDARD
   0
LINE
   8
LEVEL003
   6
CONTINUOUS
  62
3
  10
 150.000
  20
 155.000
  30
0.0
  11
 174.797
  21
 155.000
  31
0.0
   0
LINE
   8
LEVEL003
   6
CONTINUOUS
  62
3
  10
 140.000
  20
 5.00000
  30
0.0
  11
 168.000
  21
 5.00000
  31
0.0
   0
ENDSEC
   0
EOF
