   0
SECTION
   2
HEADER
   9
$LIMMIN
  10
0.0
  20
0.0
   9
$LIMMAX
  10
 882.000
  20
 446.000
   9
$EXTMIN
  10
0.0
  20
0.0
   9
$EXTMAX
  10
 882.000
  20
 446.000
   9
$LTSCALE
  40
 17.6400
   0
ENDSEC
   0
SECTION
   2
TABLES
  0
TABLE
  2
LTYPE
 70
    25
  0
LTYPE
  2
CONTINUOUS
 70
    64
  3
Solid line
 72
    65
 73
     0
 40
0.0
  0
LTYPE
  2
BORDER
 70
    64
  3
__ __ . __ __ . __ __ . __ __ . __ __ . __ __ .
 72
    65
 73
     6
 40
1.75
 49
0.5
 49
-0.25
 49
0.5
 49
-0.25
 49
0.0
 49
-0.25
  0
LTYPE
  2
BORDER2
 70
    64
  3
__.__.__.__.__.__.__.__.__.__.__.__.__.__.__.__
 72
    65
 73
     6
 40
0.875
 49
0.25
 49
-0.125
 49
0.25
 49
-0.125
 49
0.0
 49
-0.125
  0
LTYPE
  2
BORDERX2
 70
    64
  3
____  ____  .  ____  ____  .  ____  ____  .  __
 72
    65
 73
     6
 40
3.5
 49
1.0
 49
-0.5
 49
1.0
 49
-0.5
 49
0.0
 49
-0.5
  0
LTYPE
  2
CENTER
 70
    64
  3
____ _ ____ _ ____ _ ____ _ ____ _ ____ _ ____ 
 72
    65
 73
     4
 40
2.0
 49
1.25
 49
-0.25
 49
0.25
 49
-0.25
  0
LTYPE
  2
CENTER2
 70
    64
  3
___ _ ___ _ ___ _ ___ _ ___ _ ___ _ ___ _ ___ _
 72
    65
 73
     4
 40
1.125
 49
0.75
 49
-0.125
 49
0.125
 49
-0.125
  0
LTYPE
  2
CENTERX2
 70
    64
  3
________  __  ________  __  ________  __  _____
 72
    65
 73
     4
 40
4.0
 49
2.5
 49
-0.5
 49
0.5
 49
-0.5
  0
LTYPE
  2
DASHDOT
 70
    64
  3
__ . __ . __ . __ . __ . __ . __ . __ . __ . __
 72
    65
 73
     4
 40
1.0
 49
0.5
 49
-0.25
 49
0.0
 49
-0.25
  0
LTYPE
  2
DASHDOT2
 70
    64
  3
_._._._._._._._._._._._._._._._._._._._._._._._
 72
    65
 73
     4
 40
0.5
 49
0.25
 49
-0.125
 49
0.0
 49
-0.125
  0
LTYPE
  2
DASHDOTX2
 70
    64
  3
____  .  ____  .  ____  .  ____  .  ____  .  __
 72
    65
 73
     4
 40
2.0
 49
1.0
 49
-0.5
 49
0.0
 49
-0.5
  0
LTYPE
  2
DASHED
 70
    64
  3
__ __ __ __ __ __ __ __ __ __ __ __ __ __ __ __
 72
    65
 73
     2
 40
0.75
 49
0.5
 49
-0.25
  0
LTYPE
  2
DASHED2
 70
    64
  3
_ _ _ _ _ _ _ _ _ _ _ _ _ _ _ _ _ _ _ _ _ _ _ _
 72
    65
 73
     2
 40
0.375
 49
0.25
 49
-0.125
  0
LTYPE
  2
DASHEDX2
 70
    64
  3
____  ____  ____  ____  ____  ____  ____  ____ 
 72
    65
 73
     2
 40
1.5
 49
1.0
 49
-0.5
  0
LTYPE
  2
DIVIDE
 70
    64
  3
____ . . ____ . . ____ . . ____ . . ____ . . __
 72
    65
 73
     6
 40
1.25
 49
0.5
 49
-0.25
 49
0.0
 49
-0.25
 49
0.0
 49
-0.25
  0
LTYPE
  2
DIVIDE2
 70
    64
  3
__..__..__..__..__..__..__..__..__..__..__..__.
 72
    65
 73
     6
 40
0.625
 49
0.25
 49
-0.125
 49
0.0
 49
-0.125
 49
0.0
 49
-0.125
  0
LTYPE
  2
DIVIDEX2
 70
    64
  3
________  .  .  ________  .  .  ________  .  . 
 72
    65
 73
     6
 40
2.5
 49
1.0
 49
-0.5
 49
0.0
 49
-0.5
 49
0.0
 49
-0.5
  0
LTYPE
  2
DOT
 70
    64
  3
. . . . . . . . . . . . . . . . . . . . . . . .
 72
    65
 73
     2
 40
0.25
 49
0.0
 49
-0.25
  0
LTYPE
  2
DOT2
 70
    64
  3
...............................................
 72
    65
 73
     2
 40
0.125
 49
0.0
 49
-0.125
  0
LTYPE
  2
DOTX2
 70
    64
  3
.  .  .  .  .  .  .  .  .  .  .  .  .  .  .  . 
 72
    65
 73
     2
 40
0.5
 49
0.0
 49
-0.5
  0
LTYPE
  2
HIDDEN
 70
    64
  3
__ __ __ __ __ __ __ __ __ __ __ __ __ __ __ __
 72
    65
 73
     2
 40
0.375
 49
0.25
 49
-0.125
  0
LTYPE
  2
HIDDEN2
 70
    64
  3
_ _ _ _ _ _ _ _ _ _ _ _ _ _ _ _ _ _ _ _ _ _ _ _
 72
    65
 73
     2
 40
0.1875
 49
0.125
 49
-0.0625
  0
LTYPE
  2
HIDDENX2
 70
    64
  3
____ ____ ____ ____ ____ ____ ____ ____ ____ __
 72
    65
 73
     2
 40
0.75
 49
0.5
 49
-0.25
  0
LTYPE
  2
PHANTOM
 70
    64
  3
______  __  __  ______  __  __  ______  __  __ 
 72
    65
 73
     6
 40
2.5
 49
1.25
 49
-0.25
 49
0.25
 49
-0.25
 49
0.25
 49
-0.25
  0
LTYPE
  2
PHANTOM2
 70
    64
  3
___ _ _ ___ _ _ ___ _ _ ___ _ _ ___ _ _ ___ _ _
 72
    65
 73
     6
 40
1.25
 49
0.625
 49
-0.125
 49
0.125
 49
-0.125
 49
0.125
 49
-0.125
  0
LTYPE
  2
PHANTOMX2
 70
    64
  3
____________    ____    ____    ____________   
 72
    65
 73
     6
 40
5.0
 49
2.5
 49
-0.5
 49
0.5
 49
-0.5
 49
0.5
 49
-0.5
  0
ENDTAB
  0
TABLE
  2
STYLE
 70
     2
  0
STYLE
  2
STANDARD
 70
0
 40
0.0
 41
1.0
 50
0.0
 71
0
 42
0.2
  3
TXT
  4
BIGFONT
  0
STYLE
  2
STANDARD1
 70
     4
 40
0.0
 41
1.0
 50
0.0
 71
     0
 42
0.2
  3
TXT
  4
BIGFONT
  0
ENDTAB
   0
TABLE
   2
LAYER
  70
4
   0
LAYER
   2
0
  70
0
  62
7
   6
CONTINUOUS
   0
LAYER
   2
LEVEL001
  70
0
  62
7
   6
CONTINUOUS
   0
LAYER
   2
LEVEL003
  70
0
  62
7
   6
CONTINUOUS
   0
LAYER
   2
LEVEL004
  70
0
  62
7
   6
CONTINUOUS
   0
ENDTAB
   0
ENDSEC
   0
SECTION
   2
ENTITIES
   0
LINE
   8
LEVEL001
   6
CONTINUOUS
  62
3
  10
 761.356
  20
 271.500
  30
0.0
  11
 762.325
  21
 267.884
  31
0.0
   0
LINE
   8
LEVEL001
   6
CONTINUOUS
  62
3
  10
 778.644
  20
 271.500
  30
0.0
  11
 777.674
  21
 267.884
  31
0.0
   0
LINE
   8
LEVEL001
   6
CONTINUOUS
  62
7
  10
 761.356
  20
 271.500
  30
0.0
  11
 760.500
  21
 272.984
  31
0.0
   0
LINE
   8
LEVEL001
   6
CONTINUOUS
  62
7
  10
 760.500
  20
 288.500
  30
0.0
  11
 760.500
  21
 272.984
  31
0.0
   0
LINE
   8
LEVEL001
   6
CONTINUOUS
  62
7
  10
 778.644
  20
 271.500
  30
0.0
  11
 779.500
  21
 272.984
  31
0.0
   0
LINE
   8
LEVEL001
   6
CONTINUOUS
  62
7
  10
 779.500
  20
 288.500
  30
0.0
  11
 779.500
  21
 272.984
  31
0.0
   0
LINE
   8
LEVEL001
   6
CONTINUOUS
  62
7
  10
 779.500
  20
 272.984
  30
0.0
  11
 775.831
  21
 272.984
  31
0.0
   0
LINE
   8
LEVEL001
   6
CONTINUOUS
  62
7
  10
 764.169
  20
 272.984
  30
0.0
  11
 760.500
  21
 272.984
  31
0.0
   0
LINE
   8
LEVEL001
   6
CONTINUOUS
  62
7
  10
 774.039
  20
 267.500
  30
0.0
  11
 764.169
  21
 281.500
  31
0.0
   0
LINE
   8
LEVEL001
   6
CONTINUOUS
  62
7
  10
 765.961
  20
 267.500
  30
0.0
  11
 775.831
  21
 281.500
  31
0.0
   0
LINE
   8
LEVEL001
   6
CONTINUOUS
  62
3
  10
 762.326
  20
 267.884
  30
0.0
  11
 765.961
  21
 267.884
  31
0.0
   0
LINE
   8
LEVEL001
   6
CONTINUOUS
  62
3
  10
 774.039
  20
 267.884
  30
0.0
  11
 777.674
  21
 267.884
  31
0.0
   0
LINE
   8
LEVEL001
   6
CONTINUOUS
  62
7
  10
 761.356
  20
 271.500
  30
0.0
  11
 765.703
  21
 271.500
  31
0.0
   0
LINE
   8
LEVEL001
   6
CONTINUOUS
  62
7
  10
 774.297
  20
 271.500
  30
0.0
  11
 778.644
  21
 271.500
  31
0.0
   0
LINE
   8
LEVEL001
   6
CONTINUOUS
  62
7
  10
 774.039
  20
 267.500
  30
0.0
  11
 765.961
  21
 267.500
  31
0.0
   0
LINE
   8
LEVEL001
   6
CONTINUOUS
  62
7
  10
 765.961
  20
 267.500
  30
0.0
  11
 765.703
  21
 271.500
  31
0.0
   0
LINE
   8
LEVEL001
   6
CONTINUOUS
  62
7
  10
 765.703
  20
 271.500
  30
0.0
  11
 764.169
  21
 272.984
  31
0.0
   0
LINE
   8
LEVEL001
   6
CONTINUOUS
  62
7
  10
 764.169
  20
 272.984
  30
0.0
  11
 764.169
  21
 281.500
  31
0.0
   0
LINE
   8
LEVEL001
   6
CONTINUOUS
  62
7
  10
 764.169
  20
 281.500
  30
0.0
  11
 775.831
  21
 281.500
  31
0.0
   0
LINE
   8
LEVEL001
   6
CONTINUOUS
  62
7
  10
 775.831
  20
 281.500
  30
0.0
  11
 775.831
  21
 272.984
  31
0.0
   0
LINE
   8
LEVEL001
   6
CONTINUOUS
  62
7
  10
 775.831
  20
 272.984
  30
0.0
  11
 774.297
  21
 271.500
  31
0.0
   0
LINE
   8
LEVEL001
   6
CONTINUOUS
  62
7
  10
 774.297
  20
 271.500
  30
0.0
  11
 774.039
  21
 267.500
  31
0.0
   0
ARC
   8
LEVEL001
   6
CONTINUOUS
  62
7
  10
 757.000
  20
 290.000
  30
0.0
  40
 1.50000
  50
 180.000
  51
 270.000
   0
LINE
   8
LEVEL001
   6
CONTINUOUS
  62
7
  10
 755.500
  20
 290.000
  30
0.0
  11
 755.500
  21
 295.000
  31
0.0
   0
ARC
   8
LEVEL001
   6
CONTINUOUS
  62
7
  10
 783.000
  20
 290.000
  30
0.0
  40
 1.50000
  50
 270.000
  51
0.0
   0
LINE
   8
LEVEL001
   6
CONTINUOUS
  62
7
  10
 783.000
  20
 288.500
  30
0.0
  11
 757.000
  21
 288.500
  31
0.0
   0
LINE
   8
LEVEL001
   6
CONTINUOUS
  62
7
  10
 784.500
  20
 290.000
  30
0.0
  11
 784.500
  21
 295.000
  31
0.0
   0
ARC
   8
LEVEL001
   6
CONTINUOUS
  62
7
  10
 757.000
  20
 311.000
  30
0.0
  40
 1.50000
  50
 90.0000
  51
 180.000
   0
LINE
   8
LEVEL001
   6
CONTINUOUS
  62
7
  10
 755.500
  20
 306.000
  30
0.0
  11
 755.500
  21
 311.000
  31
0.0
   0
ARC
   8
LEVEL001
   6
CONTINUOUS
  62
7
  10
 783.000
  20
 311.000
  30
0.0
  40
 1.50000
  50
0.0
  51
 90.0000
   0
LINE
   8
LEVEL001
   6
CONTINUOUS
  62
7
  10
 784.500
  20
 306.000
  30
0.0
  11
 784.500
  21
 311.000
  31
0.0
   0
LINE
   8
LEVEL001
   6
CONTINUOUS
  62
7
  10
 757.000
  20
 312.500
  30
0.0
  11
 783.000
  21
 312.500
  31
0.0
   0
ARC
   8
LEVEL001
   6
DASHDOT
  62
1
  10
 757.000
  20
 321.500
  30
0.0
  40
 1.00000
  50
 90.0000
  51
 180.000
   0
LINE
   8
LEVEL001
   6
DASHDOT
  62
1
  10
 756.000
  20
 313.500
  30
0.0
  11
 756.000
  21
 321.500
  31
0.0
   0
ARC
   8
LEVEL001
   6
DASHDOT
  62
1
  10
 783.000
  20
 321.500
  30
0.0
  40
 1.00000
  50
0.0
  51
 90.0000
   0
LINE
   8
LEVEL001
   6
DASHDOT
  62
1
  10
 784.000
  20
 313.500
  30
0.0
  11
 784.000
  21
 321.500
  31
0.0
   0
LINE
   8
LEVEL001
   6
DASHDOT
  62
1
  10
 757.000
  20
 322.500
  30
0.0
  11
 783.000
  21
 322.500
  31
0.0
   0
CIRCLE
   8
LEVEL001
   6
DASHDOT
  62
1
  10
 770.000
  20
 325.500
  30
0.0
  40
 1.50000
   0
ARC
   8
LEVEL001
   6
DASHDOT
  62
1
  10
 783.000
  20
 313.500
  30
0.0
  40
 1.00000
  50
 270.000
  51
0.0
   0
ARC
   8
LEVEL001
   6
DASHDOT
  62
1
  10
 757.000
  20
 313.500
  30
0.0
  40
 1.00000
  50
 180.000
  51
 270.000
   0
ARC
   8
LEVEL001
   6
DASHDOT
  62
1
  10
 764.500
  20
 324.500
  30
0.0
  40
 2.00000
  50
 270.000
  51
0.0
   0
ARC
   8
LEVEL001
   6
DASHDOT
  62
1
  10
 775.500
  20
 324.500
  30
0.0
  40
 2.00000
  50
 180.000
  51
 270.000
   0
LINE
   8
LEVEL001
   6
DASHDOT
  62
1
  10
 766.500
  20
 324.500
  30
0.0
  11
 766.500
  21
 325.000
  31
0.0
   0
LINE
   8
LEVEL001
   6
DASHDOT
  62
1
  10
 773.500
  20
 324.500
  30
0.0
  11
 773.500
  21
 325.000
  31
0.0
   0
ARC
   8
LEVEL001
   6
DASHDOT
  62
1
  10
 770.000
  20
 325.000
  30
0.0
  40
 3.50000
  50
0.0
  51
 180.000
   0
LINE
   8
LEVEL001
   6
CONTINUOUS
  62
3
  10
 783.000
  20
 295.000
  30
0.0
  11
 783.000
  21
 306.000
  31
0.0
   0
LINE
   8
LEVEL001
   6
CONTINUOUS
  62
3
  10
 781.000
  20
 295.000
  30
0.0
  11
 781.000
  21
 306.000
  31
0.0
   0
LINE
   8
LEVEL001
   6
CONTINUOUS
  62
3
  10
 779.000
  20
 295.000
  30
0.0
  11
 779.000
  21
 306.000
  31
0.0
   0
LINE
   8
LEVEL001
   6
CONTINUOUS
  62
3
  10
 777.000
  20
 295.000
  30
0.0
  11
 777.000
  21
 306.000
  31
0.0
   0
LINE
   8
LEVEL001
   6
CONTINUOUS
  62
3
  10
 775.000
  20
 295.000
  30
0.0
  11
 775.000
  21
 306.000
  31
0.0
   0
LINE
   8
LEVEL001
   6
CONTINUOUS
  62
3
  10
 773.000
  20
 295.000
  30
0.0
  11
 773.000
  21
 306.000
  31
0.0
   0
LINE
   8
LEVEL001
   6
CONTINUOUS
  62
3
  10
 771.000
  20
 295.000
  30
0.0
  11
 771.000
  21
 306.000
  31
0.0
   0
LINE
   8
LEVEL001
   6
CONTINUOUS
  62
3
  10
 769.000
  20
 295.000
  30
0.0
  11
 769.000
  21
 306.000
  31
0.0
   0
LINE
   8
LEVEL001
   6
CONTINUOUS
  62
3
  10
 767.000
  20
 295.000
  30
0.0
  11
 767.000
  21
 306.000
  31
0.0
   0
LINE
   8
LEVEL001
   6
CONTINUOUS
  62
3
  10
 765.000
  20
 295.000
  30
0.0
  11
 765.000
  21
 306.000
  31
0.0
   0
LINE
   8
LEVEL001
   6
CONTINUOUS
  62
3
  10
 763.000
  20
 295.000
  30
0.0
  11
 763.000
  21
 306.000
  31
0.0
   0
LINE
   8
LEVEL001
   6
CONTINUOUS
  62
3
  10
 761.000
  20
 295.000
  30
0.0
  11
 761.000
  21
 306.000
  31
0.0
   0
LINE
   8
LEVEL001
   6
CONTINUOUS
  62
3
  10
 759.000
  20
 295.000
  30
0.0
  11
 759.000
  21
 306.000
  31
0.0
   0
LINE
   8
LEVEL001
   6
CONTINUOUS
  62
3
  10
 757.000
  20
 295.000
  30
0.0
  11
 757.000
  21
 306.000
  31
0.0
   0
LINE
   8
LEVEL001
   6
CONTINUOUS
  62
7
  10
 785.000
  20
 295.000
  30
0.0
  11
 755.000
  21
 295.000
  31
0.0
   0
LINE
   8
LEVEL001
   6
CONTINUOUS
  62
7
  10
 755.000
  20
 295.000
  30
0.0
  11
 755.000
  21
 306.000
  31
0.0
   0
LINE
   8
LEVEL001
   6
CONTINUOUS
  62
7
  10
 755.000
  20
 306.000
  30
0.0
  11
 785.000
  21
 306.000
  31
0.0
   0
LINE
   8
LEVEL001
   6
CONTINUOUS
  62
7
  10
 785.000
  20
 306.000
  30
0.0
  11
 785.000
  21
 295.000
  31
0.0
   0
LINE
   8
LEVEL003
   6
CONTINUOUS
  62
3
  10
 826.500
  20
 240.000
  30
0.0
  11
 853.000
  21
 240.000
  31
0.0
   0
LINE
   8
LEVEL003
   6
CONTINUOUS
  62
3
  10
 826.500
  20
 195.000
  30
0.0
  11
 853.000
  21
 195.000
  31
0.0
   0
LINE
   8
LEVEL003
   6
CONTINUOUS
  62
3
  10
 850.000
  20
 240.000
  30
0.0
  11
 850.000
  21
 195.000
  31
0.0
   0
LINE
   8
LEVEL003
   6
CONTINUOUS
  62
3
  10
 850.000
  20
 240.000
  30
0.0
  11
 849.207
  21
 235.500
  31
0.0
   0
LINE
   8
LEVEL003
   6
CONTINUOUS
  62
3
  10
 850.000
  20
 240.000
  30
0.0
  11
 850.793
  21
 235.500
  31
0.0
   0
LINE
   8
LEVEL003
   6
CONTINUOUS
  62
3
  10
 850.000
  20
 195.000
  30
0.0
  11
 850.793
  21
 199.500
  31
0.0
   0
LINE
   8
LEVEL003
   6
CONTINUOUS
  62
3
  10
 850.000
  20
 195.000
  30
0.0
  11
 849.207
  21
 199.500
  31
0.0
   0
TEXT
   8
LEVEL003
  62
3
  10
 848.800
  20
 208.500
  30
0.0
  40
 6.00000
   1
M45×2
  50
 90.0000
   7
STANDARD
  72
1
  11
 848.800
  21
 217.500
  31
0.0
   0
LINE
   8
LEVEL003
   6
CONTINUOUS
  62
3
  10
 803.000
  20
 225.000
  30
0.0
  11
 825.000
  21
 225.000
  31
0.0
   0
LINE
   8
LEVEL003
   6
CONTINUOUS
  62
3
  10
 803.000
  20
 225.000
  30
0.0
  11
 807.500
  21
 224.207
  31
0.0
   0
LINE
   8
LEVEL003
   6
CONTINUOUS
  62
3
  10
 803.000
  20
 225.000
  30
0.0
  11
 807.500
  21
 225.793
  31
0.0
   0
LINE
   8
LEVEL003
   6
CONTINUOUS
  62
3
  10
 825.000
  20
 225.000
  30
0.0
  11
 820.500
  21
 225.793
  31
0.0
   0
LINE
   8
LEVEL003
   6
CONTINUOUS
  62
3
  10
 825.000
  20
 225.000
  30
0.0
  11
 820.500
  21
 224.207
  31
0.0
   0
TEXT
   8
LEVEL003
  62
3
  10
 811.000
  20
 226.200
  30
0.0
  40
 6.00000
   1
22
  41
 0.500000
   7
STANDARD
  72
1
  11
 814.000
  21
 226.200
  31
0.0
   0
LINE
   8
LEVEL001
   6
CONTINUOUS
  62
7
  10
 824.000
  20
 261.500
  30
0.0
  11
 825.000
  21
 260.500
  31
0.0
   0
LINE
   8
LEVEL001
   6
CONTINUOUS
  62
7
  10
 825.000
  20
 174.500
  30
0.0
  11
 824.000
  21
 173.500
  31
0.0
   0
LINE
   8
LEVEL001
   6
CONTINUOUS
  62
7
  10
 825.000
  20
 260.500
  30
0.0
  11
 825.000
  21
 174.500
  31
0.0
   0
TEXT
   8
LEVEL003
  62
3
  10
 832.500
  20
 300.000
  30
0.0
  40
 6.00000
   1
ＮＰＴ３／８
   7
STANDARD
   0
LINE
   8
LEVEL003
   6
CONTINUOUS
  62
3
  10
 778.457
  20
 265.545
  30
0.0
  11
 832.500
  21
 300.000
  31
0.0
   0
LINE
   8
LEVEL003
   6
CONTINUOUS
  62
3
  10
 778.457
  20
 265.545
  30
0.0
  11
 782.678
  21
 267.295
  31
0.0
   0
LINE
   8
LEVEL003
   6
CONTINUOUS
  62
3
  10
 778.457
  20
 265.545
  30
0.0
  11
 781.825
  21
 268.633
  31
0.0
   0
LINE
   8
LEVEL003
   6
CONTINUOUS
  62
3
  10
 825.000
  20
 262.000
  30
0.0
  11
 825.000
  21
 340.500
  31
0.0
   0
LINE
   8
LEVEL003
   6
CONTINUOUS
  62
3
  10
 770.000
  20
 332.000
  30
0.0
  11
 770.000
  21
 340.500
  31
0.0
   0
LINE
   8
LEVEL003
   6
CONTINUOUS
  62
3
  10
 825.000
  20
 337.500
  30
0.0
  11
 770.000
  21
 337.500
  31
0.0
   0
LINE
   8
LEVEL003
   6
CONTINUOUS
  62
3
  10
 825.000
  20
 337.500
  30
0.0
  11
 820.500
  21
 338.293
  31
0.0
   0
LINE
   8
LEVEL003
   6
CONTINUOUS
  62
3
  10
 825.000
  20
 337.500
  30
0.0
  11
 820.500
  21
 336.707
  31
0.0
   0
LINE
   8
LEVEL003
   6
CONTINUOUS
  62
3
  10
 770.000
  20
 337.500
  30
0.0
  11
 774.500
  21
 336.707
  31
0.0
   0
LINE
   8
LEVEL003
   6
CONTINUOUS
  62
3
  10
 770.000
  20
 337.500
  30
0.0
  11
 774.500
  21
 338.293
  31
0.0
   0
TEXT
   8
LEVEL003
  62
3
  10
 794.500
  20
 338.700
  30
0.0
  40
 6.00000
   1
55
  41
 0.500000
   7
STANDARD
  72
1
  11
 797.500
  21
 338.700
  31
0.0
   0
LINE
   8
LEVEL001
   6
CONTINUOUS
  62
7
  10
 40.0000
  20
 241.000
  30
0.0
  11
 41.5000
  21
 242.500
  31
0.0
   0
LINE
   8
LEVEL001
   6
CONTINUOUS
  62
7
  10
 40.0000
  20
 194.000
  30
0.0
  11
 41.5000
  21
 192.500
  31
0.0
   0
LINE
   8
LEVEL001
   6
CONTINUOUS
  62
7
  10
 68.0000
  20
 242.500
  30
0.0
  11
 70.0000
  21
 240.500
  31
0.0
   0
LINE
   8
LEVEL001
   6
CONTINUOUS
  62
7
  10
 41.5000
  20
 242.500
  30
0.0
  11
 68.0000
  21
 242.500
  31
0.0
   0
ARC
   8
LEVEL001
   6
CONTINUOUS
  62
7
  10
 71.0000
  20
 235.500
  30
0.0
  40
 1.00000
  50
 180.000
  51
 270.000
   0
ARC
   8
LEVEL001
   6
CONTINUOUS
  62
7
  10
 72.0000
  20
 235.500
  30
0.0
  40
 1.00000
  50
 270.000
  51
0.0
   0
LINE
   8
LEVEL001
   6
CONTINUOUS
  62
7
  10
 71.0000
  20
 234.500
  30
0.0
  11
 72.0000
  21
 234.500
  31
0.0
   0
ARC
   8
LEVEL001
   6
CONTINUOUS
  62
7
  10
 71.0000
  20
 199.500
  30
0.0
  40
 1.00000
  50
 90.0000
  51
 180.000
   0
ARC
   8
LEVEL001
   6
CONTINUOUS
  62
7
  10
 72.0000
  20
 199.500
  30
0.0
  40
 1.00000
  50
 0.130276E-10
  51
 90.0000
   0
LINE
   8
LEVEL001
   6
CONTINUOUS
  62
7
  10
 71.0000
  20
 200.500
  30
0.0
  11
 72.0000
  21
 200.500
  31
0.0
   0
LINE
   8
LEVEL001
   6
CONTINUOUS
  62
7
  10
 68.0000
  20
 192.500
  30
0.0
  11
 70.0000
  21
 194.500
  31
0.0
   0
LINE
   8
LEVEL001
   6
CONTINUOUS
  62
7
  10
 41.5000
  20
 192.500
  30
0.0
  11
 68.0000
  21
 192.500
  31
0.0
   0
LINE
   8
LEVEL003
   6
CONTINUOUS
  62
3
  10
 40.0000
  20
 192.500
  30
0.0
  11
 7.00000
  21
 192.500
  31
0.0
   0
LINE
   8
LEVEL003
   6
CONTINUOUS
  62
3
  10
 40.0000
  20
 242.500
  30
0.0
  11
 7.00000
  21
 242.500
  31
0.0
   0
LINE
   8
LEVEL003
   6
CONTINUOUS
  62
3
  10
 10.0000
  20
 192.500
  30
0.0
  11
 10.0000
  21
 242.500
  31
0.0
   0
LINE
   8
LEVEL003
   6
CONTINUOUS
  62
3
  10
 10.0000
  20
 192.500
  30
0.0
  11
 10.7935
  21
 197.000
  31
0.0
   0
LINE
   8
LEVEL003
   6
CONTINUOUS
  62
3
  10
 10.0000
  20
 192.500
  30
0.0
  11
 9.20653
  21
 197.000
  31
0.0
   0
LINE
   8
LEVEL003
   6
CONTINUOUS
  62
3
  10
 10.0000
  20
 242.500
  30
0.0
  11
 9.20653
  21
 238.000
  31
0.0
   0
LINE
   8
LEVEL003
   6
CONTINUOUS
  62
3
  10
 10.0000
  20
 242.500
  30
0.0
  11
 10.7935
  21
 238.000
  31
0.0
   0
TEXT
   8
LEVEL003
  62
3
  10
 8.80000
  20
 211.500
  30
0.0
  40
 6.00000
   1
%%c50
  50
 90.0000
   7
STANDARD
  72
1
  11
 8.80000
  21
 217.500
  31
0.0
   0
LINE
   8
LEVEL003
   6
CONTINUOUS
  62
3
  10
 49.5000
  20
 235.500
  30
0.0
  11
 22.0000
  21
 235.500
  31
0.0
   0
LINE
   8
LEVEL003
   6
CONTINUOUS
  62
3
  10
 49.5000
  20
 199.500
  30
0.0
  11
 22.0000
  21
 199.500
  31
0.0
   0
LINE
   8
LEVEL003
   6
CONTINUOUS
  62
3
  10
 25.0000
  20
 235.500
  30
0.0
  11
 25.0000
  21
 199.500
  31
0.0
   0
LINE
   8
LEVEL003
   6
CONTINUOUS
  62
3
  10
 25.0000
  20
 235.500
  30
0.0
  11
 24.2065
  21
 231.000
  31
0.0
   0
LINE
   8
LEVEL003
   6
CONTINUOUS
  62
3
  10
 25.0000
  20
 235.500
  30
0.0
  11
 25.7935
  21
 231.000
  31
0.0
   0
LINE
   8
LEVEL003
   6
CONTINUOUS
  62
3
  10
 25.0000
  20
 199.500
  30
0.0
  11
 25.7935
  21
 204.000
  31
0.0
   0
LINE
   8
LEVEL003
   6
CONTINUOUS
  62
3
  10
 25.0000
  20
 199.500
  30
0.0
  11
 24.2065
  21
 204.000
  31
0.0
   0
TEXT
   8
LEVEL003
  62
3
  10
 23.8000
  20
 208.500
  30
0.0
  40
 6.00000
   1
M36×2
  50
 90.0000
   7
STANDARD
  72
1
  11
 23.8000
  21
 217.500
  31
0.0
   0
LINE
   8
LEVEL001
   6
CONTINUOUS
  62
7
  10
 40.0000
  20
 194.000
  30
0.0
  11
 40.0000
  21
 241.000
  31
0.0
   0
LINE
   8
LEVEL003
   6
CONTINUOUS
  62
3
  10
 40.0000
  20
 192.500
  30
0.0
  11
 40.0000
  21
 139.500
  31
0.0
   0
LINE
   8
LEVEL003
   6
CONTINUOUS
  62
3
  10
 50.0000
  20
 199.000
  30
0.0
  11
 50.0000
  21
 139.500
  31
0.0
   0
LINE
   8
LEVEL003
   6
CONTINUOUS
  62
3
  10
 40.0000
  20
 142.500
  30
0.0
  11
 50.0000
  21
 142.500
  31
0.0
   0
LINE
   8
LEVEL003
   6
CONTINUOUS
  62
3
  10
 40.0000
  20
 142.500
  30
0.0
  11
 44.5000
  21
 141.707
  31
0.0
   0
LINE
   8
LEVEL003
   6
CONTINUOUS
  62
3
  10
 40.0000
  20
 142.500
  30
0.0
  11
 44.5000
  21
 143.293
  31
0.0
   0
LINE
   8
LEVEL003
   6
CONTINUOUS
  62
3
  10
 50.0000
  20
 142.500
  30
0.0
  11
 45.5000
  21
 143.293
  31
0.0
   0
LINE
   8
LEVEL003
   6
CONTINUOUS
  62
3
  10
 50.0000
  20
 142.500
  30
0.0
  11
 45.5000
  21
 141.707
  31
0.0
   0
TEXT
   8
LEVEL003
  62
3
  10
 42.0000
  20
 143.700
  30
0.0
  40
 6.00000
   1
10
  41
 0.500000
   7
STANDARD
  72
1
  11
 45.0000
  21
 143.700
  31
0.0
   0
TEXT
   8
LEVEL003
  62
3
  10
 45.6266
  20
 300.000
  30
0.0
  40
 6.00000
   1
Ｍ８５×２
   7
STANDARD
   0
LINE
   8
LEVEL001
   6
CONTINUOUS
  62
3
  10
 154.356
  20
 271.500
  30
0.0
  11
 155.325
  21
 267.884
  31
0.0
   0
LINE
   8
LEVEL001
   6
CONTINUOUS
  62
3
  10
 171.644
  20
 271.500
  30
0.0
  11
 170.674
  21
 267.884
  31
0.0
   0
LINE
   8
LEVEL001
   6
CONTINUOUS
  62
7
  10
 154.356
  20
 271.500
  30
0.0
  11
 153.500
  21
 272.984
  31
0.0
   0
LINE
   8
LEVEL001
   6
CONTINUOUS
  62
7
  10
 153.500
  20
 288.500
  30
0.0
  11
 153.500
  21
 272.984
  31
0.0
   0
LINE
   8
LEVEL001
   6
CONTINUOUS
  62
7
  10
 171.644
  20
 271.500
  30
0.0
  11
 172.500
  21
 272.984
  31
0.0
   0
LINE
   8
LEVEL001
   6
CONTINUOUS
  62
7
  10
 172.500
  20
 288.500
  30
0.0
  11
 172.500
  21
 272.984
  31
0.0
   0
ARC
   8
LEVEL001
   6
CONTINUOUS
  62
7
  10
 150.000
  20
 290.000
  30
0.0
  40
 1.50000
  50
 180.000
  51
 270.000
   0
LINE
   8
LEVEL001
   6
CONTINUOUS
  62
7
  10
 148.500
  20
 290.000
  30
0.0
  11
 148.500
  21
 295.000
  31
0.0
   0
ARC
   8
LEVEL001
   6
CONTINUOUS
  62
7
  10
 176.000
  20
 290.000
  30
0.0
  40
 1.50000
  50
 270.000
  51
0.0
   0
LINE
   8
LEVEL001
   6
CONTINUOUS
  62
7
  10
 176.000
  20
 288.500
  30
0.0
  11
 150.000
  21
 288.500
  31
0.0
   0
LINE
   8
LEVEL001
   6
CONTINUOUS
  62
7
  10
 177.500
  20
 290.000
  30
0.0
  11
 177.500
  21
 295.000
  31
0.0
   0
ARC
   8
LEVEL001
   6
CONTINUOUS
  62
7
  10
 150.000
  20
 311.000
  30
0.0
  40
 1.50000
  50
 90.0000
  51
 180.000
   0
LINE
   8
LEVEL001
   6
CONTINUOUS
  62
7
  10
 148.500
  20
 306.000
  30
0.0
  11
 148.500
  21
 311.000
  31
0.0
   0
ARC
   8
LEVEL001
   6
CONTINUOUS
  62
7
  10
 176.000
  20
 311.000
  30
0.0
  40
 1.50000
  50
0.0
  51
 90.0000
   0
LINE
   8
LEVEL001
   6
CONTINUOUS
  62
7
  10
 177.500
  20
 306.000
  30
0.0
  11
 177.500
  21
 311.000
  31
0.0
   0
LINE
   8
LEVEL001
   6
CONTINUOUS
  62
7
  10
 150.000
  20
 312.500
  30
0.0
  11
 176.000
  21
 312.500
  31
0.0
   0
ARC
   8
LEVEL001
   6
DASHDOT
  62
1
  10
 150.000
  20
 321.500
  30
0.0
  40
 1.00000
  50
 90.0000
  51
 180.000
   0
LINE
   8
LEVEL001
   6
DASHDOT
  62
1
  10
 149.000
  20
 313.500
  30
0.0
  11
 149.000
  21
 321.500
  31
0.0
   0
ARC
   8
LEVEL001
   6
DASHDOT
  62
1
  10
 176.000
  20
 321.500
  30
0.0
  40
 1.00000
  50
0.0
  51
 90.0000
   0
LINE
   8
LEVEL001
   6
DASHDOT
  62
1
  10
 177.000
  20
 313.500
  30
0.0
  11
 177.000
  21
 321.500
  31
0.0
   0
LINE
   8
LEVEL001
   6
DASHDOT
  62
1
  10
 150.000
  20
 322.500
  30
0.0
  11
 176.000
  21
 322.500
  31
0.0
   0
CIRCLE
   8
LEVEL001
   6
DASHDOT
  62
1
  10
 163.000
  20
 325.500
  30
0.0
  40
 1.50000
   0
ARC
   8
LEVEL001
   6
DASHDOT
  62
1
  10
 176.000
  20
 313.500
  30
0.0
  40
 1.00000
  50
 270.000
  51
0.0
   0
ARC
   8
LEVEL001
   6
DASHDOT
  62
1
  10
 150.000
  20
 313.500
  30
0.0
  40
 1.00000
  50
 180.000
  51
 270.000
   0
ARC
   8
LEVEL001
   6
DASHDOT
  62
1
  10
 157.500
  20
 324.500
  30
0.0
  40
 2.00000
  50
 270.000
  51
0.0
   0
ARC
   8
LEVEL001
   6
DASHDOT
  62
1
  10
 168.500
  20
 324.500
  30
0.0
  40
 2.00000
  50
 180.000
  51
 270.000
   0
LINE
   8
LEVEL001
   6
DASHDOT
  62
1
  10
 159.500
  20
 324.500
  30
0.0
  11
 159.500
  21
 325.000
  31
0.0
   0
LINE
   8
LEVEL001
   6
DASHDOT
  62
1
  10
 166.500
  20
 324.500
  30
0.0
  11
 166.500
  21
 325.000
  31
0.0
   0
ARC
   8
LEVEL001
   6
DASHDOT
  62
1
  10
 163.000
  20
 325.000
  30
0.0
  40
 3.50000
  50
0.0
  51
 180.000
   0
LINE
   8
LEVEL001
   6
CONTINUOUS
  62
7
  10
 172.500
  20
 272.984
  30
0.0
  11
 168.831
  21
 272.984
  31
0.0
   0
LINE
   8
LEVEL001
   6
CONTINUOUS
  62
7
  10
 157.169
  20
 272.984
  30
0.0
  11
 153.500
  21
 272.984
  31
0.0
   0
LINE
   8
LEVEL001
   6
CONTINUOUS
  62
7
  10
 167.039
  20
 267.500
  30
0.0
  11
 157.169
  21
 281.500
  31
0.0
   0
LINE
   8
LEVEL001
   6
CONTINUOUS
  62
7
  10
 158.961
  20
 267.500
  30
0.0
  11
 168.831
  21
 281.500
  31
0.0
   0
LINE
   8
LEVEL001
   6
CONTINUOUS
  62
3
  10
 155.326
  20
 267.884
  30
0.0
  11
 158.961
  21
 267.884
  31
0.0
   0
LINE
   8
LEVEL001
   6
CONTINUOUS
  62
3
  10
 167.039
  20
 267.884
  30
0.0
  11
 170.674
  21
 267.884
  31
0.0
   0
LINE
   8
LEVEL001
   6
CONTINUOUS
  62
7
  10
 154.356
  20
 271.500
  30
0.0
  11
 158.703
  21
 271.500
  31
0.0
   0
LINE
   8
LEVEL001
   6
CONTINUOUS
  62
7
  10
 167.297
  20
 271.500
  30
0.0
  11
 171.644
  21
 271.500
  31
0.0
   0
LINE
   8
LEVEL001
   6
CONTINUOUS
  62
3
  10
 176.000
  20
 295.000
  30
0.0
  11
 176.000
  21
 306.000
  31
0.0
   0
LINE
   8
LEVEL001
   6
CONTINUOUS
  62
3
  10
 174.000
  20
 295.000
  30
0.0
  11
 174.000
  21
 306.000
  31
0.0
   0
LINE
   8
LEVEL001
   6
CONTINUOUS
  62
3
  10
 172.000
  20
 295.000
  30
0.0
  11
 172.000
  21
 306.000
  31
0.0
   0
LINE
   8
LEVEL001
   6
CONTINUOUS
  62
3
  10
 170.000
  20
 295.000
  30
0.0
  11
 170.000
  21
 306.000
  31
0.0
   0
LINE
   8
LEVEL001
   6
CONTINUOUS
  62
3
  10
 168.000
  20
 295.000
  30
0.0
  11
 168.000
  21
 306.000
  31
0.0
   0
LINE
   8
LEVEL001
   6
CONTINUOUS
  62
3
  10
 166.000
  20
 295.000
  30
0.0
  11
 166.000
  21
 306.000
  31
0.0
   0
LINE
   8
LEVEL001
   6
CONTINUOUS
  62
3
  10
 164.000
  20
 295.000
  30
0.0
  11
 164.000
  21
 306.000
  31
0.0
   0
LINE
   8
LEVEL001
   6
CONTINUOUS
  62
3
  10
 162.000
  20
 295.000
  30
0.0
  11
 162.000
  21
 306.000
  31
0.0
   0
LINE
   8
LEVEL001
   6
CONTINUOUS
  62
3
  10
 160.000
  20
 295.000
  30
0.0
  11
 160.000
  21
 306.000
  31
0.0
   0
LINE
   8
LEVEL001
   6
CONTINUOUS
  62
3
  10
 158.000
  20
 295.000
  30
0.0
  11
 158.000
  21
 306.000
  31
0.0
   0
LINE
   8
LEVEL001
   6
CONTINUOUS
  62
3
  10
 156.000
  20
 295.000
  30
0.0
  11
 156.000
  21
 306.000
  31
0.0
   0
LINE
   8
LEVEL001
   6
CONTINUOUS
  62
3
  10
 154.000
  20
 295.000
  30
0.0
  11
 154.000
  21
 306.000
  31
0.0
   0
LINE
   8
LEVEL001
   6
CONTINUOUS
  62
3
  10
 152.000
  20
 295.000
  30
0.0
  11
 152.000
  21
 306.000
  31
0.0
   0
LINE
   8
LEVEL001
   6
CONTINUOUS
  62
3
  10
 150.000
  20
 295.000
  30
0.0
  11
 150.000
  21
 306.000
  31
0.0
   0
LINE
   8
LEVEL001
   6
CONTINUOUS
  62
7
  10
 167.039
  20
 267.500
  30
0.0
  11
 158.961
  21
 267.500
  31
0.0
   0
LINE
   8
LEVEL001
   6
CONTINUOUS
  62
7
  10
 158.961
  20
 267.500
  30
0.0
  11
 158.703
  21
 271.500
  31
0.0
   0
LINE
   8
LEVEL001
   6
CONTINUOUS
  62
7
  10
 158.703
  20
 271.500
  30
0.0
  11
 157.169
  21
 272.984
  31
0.0
   0
LINE
   8
LEVEL001
   6
CONTINUOUS
  62
7
  10
 157.169
  20
 272.984
  30
0.0
  11
 157.169
  21
 281.500
  31
0.0
   0
LINE
   8
LEVEL001
   6
CONTINUOUS
  62
7
  10
 157.169
  20
 281.500
  30
0.0
  11
 168.831
  21
 281.500
  31
0.0
   0
LINE
   8
LEVEL001
   6
CONTINUOUS
  62
7
  10
 168.831
  20
 281.500
  30
0.0
  11
 168.831
  21
 272.984
  31
0.0
   0
LINE
   8
LEVEL001
   6
CONTINUOUS
  62
7
  10
 168.831
  20
 272.984
  30
0.0
  11
 167.297
  21
 271.500
  31
0.0
   0
LINE
   8
LEVEL001
   6
CONTINUOUS
  62
7
  10
 167.297
  20
 271.500
  30
0.0
  11
 167.039
  21
 267.500
  31
0.0
   0
LINE
   8
LEVEL001
   6
CONTINUOUS
  62
7
  10
 178.000
  20
 295.000
  30
0.0
  11
 148.000
  21
 295.000
  31
0.0
   0
LINE
   8
LEVEL001
   6
CONTINUOUS
  62
7
  10
 148.000
  20
 295.000
  30
0.0
  11
 148.000
  21
 306.000
  31
0.0
   0
LINE
   8
LEVEL001
   6
CONTINUOUS
  62
7
  10
 148.000
  20
 306.000
  30
0.0
  11
 178.000
  21
 306.000
  31
0.0
   0
LINE
   8
LEVEL001
   6
CONTINUOUS
  62
7
  10
 178.000
  20
 306.000
  30
0.0
  11
 178.000
  21
 295.000
  31
0.0
   0
LINE
   8
LEVEL001
   6
CONTINUOUS
  62
7
  10
 79.0000
  20
 259.000
  30
0.0
  11
 83.0000
  21
 259.000
  31
0.0
   0
LINE
   8
LEVEL001
   6
CONTINUOUS
  62
7
  10
 79.0000
  20
 259.000
  30
0.0
  11
 78.0000
  21
 258.000
  31
0.0
   0
LINE
   8
LEVEL003
   6
CONTINUOUS
  62
3
  10
 93.3333
  20
 260.000
  30
0.0
  11
 80.0000
  21
 300.000
  31
0.0
   0
LINE
   8
LEVEL003
   6
CONTINUOUS
  62
3
  10
 80.0000
  20
 300.000
  30
0.0
  11
 45.6266
  21
 300.000
  31
0.0
   0
LINE
   8
LEVEL003
   6
CONTINUOUS
  62
3
  10
 93.3333
  20
 260.000
  30
0.0
  11
 92.6631
  21
 264.520
  31
0.0
   0
LINE
   8
LEVEL003
   6
CONTINUOUS
  62
3
  10
 93.3333
  20
 260.000
  30
0.0
  11
 91.1576
  21
 264.018
  31
0.0
   0
LINE
   8
LEVEL001
   6
CONTINUOUS
  62
7
  10
 79.0000
  20
 176.000
  30
0.0
  11
 83.0000
  21
 176.000
  31
0.0
   0
LINE
   8
LEVEL001
   6
CONTINUOUS
  62
7
  10
 79.0000
  20
 176.000
  30
0.0
  11
 78.0000
  21
 177.000
  31
0.0
   0
LINE
   8
LEVEL003
   6
CONTINUOUS
  62
3
  10
 40.0000
  20
 192.500
  30
0.0
  11
 40.0000
  21
 124.500
  31
0.0
   0
LINE
   8
LEVEL003
   6
CONTINUOUS
  62
3
  10
 118.000
  20
 168.500
  30
0.0
  11
 118.000
  21
 124.500
  31
0.0
   0
LINE
   8
LEVEL003
   6
CONTINUOUS
  62
3
  10
 40.0000
  20
 127.500
  30
0.0
  11
 118.000
  21
 127.500
  31
0.0
   0
LINE
   8
LEVEL003
   6
CONTINUOUS
  62
3
  10
 40.0000
  20
 127.500
  30
0.0
  11
 44.5000
  21
 126.707
  31
0.0
   0
LINE
   8
LEVEL003
   6
CONTINUOUS
  62
3
  10
 40.0000
  20
 127.500
  30
0.0
  11
 44.5000
  21
 128.293
  31
0.0
   0
LINE
   8
LEVEL003
   6
CONTINUOUS
  62
3
  10
 118.000
  20
 127.500
  30
0.0
  11
 113.500
  21
 128.293
  31
0.0
   0
LINE
   8
LEVEL003
   6
CONTINUOUS
  62
3
  10
 118.000
  20
 127.500
  30
0.0
  11
 113.500
  21
 126.707
  31
0.0
   0
TEXT
   8
LEVEL003
  62
3
  10
 76.0000
  20
 128.700
  30
0.0
  40
 6.00000
   1
78
  41
 0.500000
   7
STANDARD
  72
1
  11
 79.0000
  21
 128.700
  31
0.0
   0
LINE
   8
LEVEL003
   6
CONTINUOUS
  62
3
  10
 78.0000
  20
 175.500
  30
0.0
  11
 78.0000
  21
 139.500
  31
0.0
   0
LINE
   8
LEVEL003
   6
CONTINUOUS
  62
3
  10
 118.000
  20
 168.500
  30
0.0
  11
 118.000
  21
 139.500
  31
0.0
   0
LINE
   8
LEVEL003
   6
CONTINUOUS
  62
3
  10
 78.0000
  20
 142.500
  30
0.0
  11
 118.000
  21
 142.500
  31
0.0
   0
LINE
   8
LEVEL003
   6
CONTINUOUS
  62
3
  10
 78.0000
  20
 142.500
  30
0.0
  11
 82.5000
  21
 141.707
  31
0.0
   0
LINE
   8
LEVEL003
   6
CONTINUOUS
  62
3
  10
 78.0000
  20
 142.500
  30
0.0
  11
 82.5000
  21
 143.293
  31
0.0
   0
LINE
   8
LEVEL003
   6
CONTINUOUS
  62
3
  10
 118.000
  20
 142.500
  30
0.0
  11
 113.500
  21
 143.293
  31
0.0
   0
LINE
   8
LEVEL003
   6
CONTINUOUS
  62
3
  10
 118.000
  20
 142.500
  30
0.0
  11
 113.500
  21
 141.707
  31
0.0
   0
TEXT
   8
LEVEL003
  62
3
  10
 95.0000
  20
 143.700
  30
0.0
  40
 6.00000
   1
40
  41
 0.500000
   7
STANDARD
  72
1
  11
 98.0000
  21
 143.700
  31
0.0
   0
LINE
   8
LEVEL003
   6
CONTINUOUS
  62
3
  10
 78.0000
  20
 175.500
  30
0.0
  11
 78.0000
  21
 154.500
  31
0.0
   0
LINE
   8
LEVEL003
   6
CONTINUOUS
  62
3
  10
 83.0000
  20
 168.500
  30
0.0
  11
 83.0000
  21
 154.500
  31
0.0
   0
LINE
   8
LEVEL003
   6
CONTINUOUS
  62
3
  10
 78.0000
  20
 157.500
  30
0.0
  11
 83.0000
  21
 157.500
  31
0.0
   0
LINE
   8
LEVEL003
   6
CONTINUOUS
  62
3
  10
 83.0000
  20
 157.500
  30
0.0
  11
 92.0000
  21
 157.500
  31
0.0
   0
LINE
   8
LEVEL003
   6
CONTINUOUS
  62
3
  10
 78.0000
  20
 157.500
  30
0.0
  11
 73.5000
  21
 158.293
  31
0.0
   0
LINE
   8
LEVEL003
   6
CONTINUOUS
  62
3
  10
 78.0000
  20
 157.500
  30
0.0
  11
 73.5000
  21
 156.707
  31
0.0
   0
LINE
   8
LEVEL003
   6
CONTINUOUS
  62
3
  10
 83.0000
  20
 157.500
  30
0.0
  11
 87.5000
  21
 156.707
  31
0.0
   0
LINE
   8
LEVEL003
   6
CONTINUOUS
  62
3
  10
 83.0000
  20
 157.500
  30
0.0
  11
 87.5000
  21
 158.293
  31
0.0
   0
LINE
   8
LEVEL003
   6
CONTINUOUS
  62
3
  10
 78.0000
  20
 157.500
  30
0.0
  11
 72.3750
  21
 157.500
  31
0.0
   0
LINE
   8
LEVEL003
   6
CONTINUOUS
  62
3
  10
 83.0000
  20
 157.500
  30
0.0
  11
 92.0000
  21
 157.500
  31
0.0
   0
TEXT
   8
LEVEL003
  62
3
  10
 87.5000
  20
 158.700
  30
0.0
  40
 6.00000
   1
5
  41
 0.500000
   7
STANDARD
  72
1
  11
 89.0000
  21
 158.700
  31
0.0
   0
ARC
   8
LEVEL001
   6
CONTINUOUS
  62
7
  10
 74.0000
  20
 239.779
  30
0.0
  40
 1.00000
  50
 108.435
  51
 180.000
   0
LINE
   8
LEVEL001
   6
CONTINUOUS
  62
7
  10
 73.6838
  20
 240.728
  30
0.0
  11
 76.0000
  21
 241.500
  31
0.0
   0
ARC
   8
LEVEL001
   6
CONTINUOUS
  62
7
  10
 74.0000
  20
 195.221
  30
0.0
  40
 1.00000
  50
 180.000
  51
 251.565
   0
LINE
   8
LEVEL001
   6
CONTINUOUS
  62
7
  10
 73.6838
  20
 194.272
  30
0.0
  11
 76.0000
  21
 193.500
  31
0.0
   0
LINE
   8
LEVEL003
   6
CONTINUOUS
  62
3
  10
 50.0000
  20
 199.000
  30
0.0
  11
 50.0000
  21
 139.500
  31
0.0
   0
LINE
   8
LEVEL003
   6
CONTINUOUS
  62
3
  10
 73.0000
  20
 193.000
  30
0.0
  11
 73.0000
  21
 139.500
  31
0.0
   0
LINE
   8
LEVEL003
   6
CONTINUOUS
  62
3
  10
 50.0000
  20
 142.500
  30
0.0
  11
 73.0000
  21
 142.500
  31
0.0
   0
LINE
   8
LEVEL003
   6
CONTINUOUS
  62
3
  10
 50.0000
  20
 142.500
  30
0.0
  11
 54.5000
  21
 141.707
  31
0.0
   0
LINE
   8
LEVEL003
   6
CONTINUOUS
  62
3
  10
 50.0000
  20
 142.500
  30
0.0
  11
 54.5000
  21
 143.293
  31
0.0
   0
LINE
   8
LEVEL003
   6
CONTINUOUS
  62
3
  10
 73.0000
  20
 142.500
  30
0.0
  11
 68.5000
  21
 143.293
  31
0.0
   0
LINE
   8
LEVEL003
   6
CONTINUOUS
  62
3
  10
 73.0000
  20
 142.500
  30
0.0
  11
 68.5000
  21
 141.707
  31
0.0
   0
TEXT
   8
LEVEL003
  62
3
  10
 58.5000
  20
 143.700
  30
0.0
  40
 6.00000
   1
23
  41
 0.500000
   7
STANDARD
  72
1
  11
 61.5000
  21
 143.700
  31
0.0
   0
LINE
   8
LEVEL001
   6
CONTINUOUS
  62
7
  10
 83.0000
  20
 259.000
  30
0.0
  11
 84.0000
  21
 260.000
  31
0.0
   0
LINE
   8
LEVEL001
   6
CONTINUOUS
  62
7
  10
 84.0000
  20
 260.000
  30
0.0
  11
 121.769
  21
 260.000
  31
0.0
   0
LINE
   8
LEVEL001
   6
CONTINUOUS
  62
3
  10
 118.000
  20
 176.000
  30
0.0
  11
 121.769
  21
 175.000
  31
0.0
   0
LINE
   8
LEVEL001
   6
CONTINUOUS
  62
7
  10
 83.0000
  20
 176.000
  30
0.0
  11
 84.0000
  21
 175.000
  31
0.0
   0
LINE
   8
LEVEL001
   6
CONTINUOUS
  62
7
  10
 84.0000
  20
 175.000
  30
0.0
  11
 121.769
  21
 175.000
  31
0.0
   0
LINE
   8
LEVEL001
   6
CONTINUOUS
  62
3
  10
 118.000
  20
 259.000
  30
0.0
  11
 122.000
  21
 260.062
  31
0.0
   0
LINE
   8
LEVEL001
   6
CONTINUOUS
  62
7
  10
 122.000
  20
 260.062
  30
0.0
  11
 125.000
  21
 261.500
  31
0.0
   0
LINE
   8
LEVEL001
   6
CONTINUOUS
  62
7
  10
 122.000
  20
 174.938
  30
0.0
  11
 125.000
  21
 173.500
  31
0.0
   0
LINE
   8
LEVEL001
   6
DASHDOT
  62
1
  10
 83.0000
  20
 175.000
  30
0.0
  11
 83.0000
  21
 170.000
  31
0.0
   0
LINE
   8
LEVEL001
   6
DASHDOT
  62
1
  10
 83.0000
  20
 170.000
  30
0.0
  11
 118.000
  21
 170.000
  31
0.0
   0
LINE
   8
LEVEL001
   6
DASHDOT
  62
1
  10
 118.000
  20
 170.000
  30
0.0
  11
 118.000
  21
 175.000
  31
0.0
   0
LINE
   8
LEVEL001
   6
DASHDOT
  62
1
  10
 83.0000
  20
 260.000
  30
0.0
  11
 83.0000
  21
 265.000
  31
0.0
   0
LINE
   8
LEVEL001
   6
DASHDOT
  62
1
  10
 83.0000
  20
 265.000
  30
0.0
  11
 118.000
  21
 265.000
  31
0.0
   0
LINE
   8
LEVEL001
   6
DASHDOT
  62
1
  10
 118.000
  20
 265.000
  30
0.0
  11
 118.000
  21
 260.000
  31
0.0
   0
LINE
   8
LEVEL003
   6
CONTINUOUS
  62
3
  10
 770.000
  20
 332.000
  30
0.0
  11
 770.000
  21
 340.500
  31
0.0
   0
LINE
   8
LEVEL003
   6
CONTINUOUS
  62
3
  10
 163.000
  20
 333.000
  30
0.0
  11
 163.000
  21
 340.500
  31
0.0
   0
LINE
   8
LEVEL003
   6
CONTINUOUS
  62
3
  10
 770.000
  20
 337.500
  30
0.0
  11
 163.000
  21
 337.500
  31
0.0
   0
LINE
   8
LEVEL003
   6
CONTINUOUS
  62
3
  10
 770.000
  20
 337.500
  30
0.0
  11
 765.500
  21
 338.293
  31
0.0
   0
LINE
   8
LEVEL003
   6
CONTINUOUS
  62
3
  10
 770.000
  20
 337.500
  30
0.0
  11
 765.500
  21
 336.707
  31
0.0
   0
LINE
   8
LEVEL003
   6
CONTINUOUS
  62
3
  10
 163.000
  20
 337.500
  30
0.0
  11
 167.500
  21
 336.707
  31
0.0
   0
LINE
   8
LEVEL003
   6
CONTINUOUS
  62
3
  10
 163.000
  20
 337.500
  30
0.0
  11
 167.500
  21
 338.293
  31
0.0
   0
TEXT
   8
LEVEL003
  62
3
  10
 462.000
  20
 338.700
  30
0.0
  40
 6.00000
   1
607
  41
 0.500000
   7
STANDARD
  72
1
  11
 466.500
  21
 338.700
  31
0.0
   0
LINE
   8
LEVEL001
   6
DASHDOT
  62
1
  10
 30.0000
  20
 217.500
  30
0.0
  11
 834.500
  21
 217.500
  31
0.0
   0
LINE
   8
LEVEL001
   6
CONTINUOUS
  62
7
  10
 70.0000
  20
 240.500
  30
0.0
  11
 70.0000
  21
 194.500
  31
0.0
   0
LINE
   8
LEVEL001
   6
CONTINUOUS
  62
7
  10
 73.0000
  20
 195.221
  30
0.0
  11
 73.0000
  21
 239.779
  31
0.0
   0
LINE
   8
LEVEL001
   6
CONTINUOUS
  62
7
  10
 68.0000
  20
 242.500
  30
0.0
  11
 68.0000
  21
 192.500
  31
0.0
   0
LINE
   8
LEVEL001
   6
CONTINUOUS
  62
7
  10
 41.5000
  20
 192.500
  30
0.0
  11
 41.5000
  21
 242.500
  31
0.0
   0
LINE
   8
LEVEL001
   6
CONTINUOUS
  62
3
  10
 70.0000
  20
 234.500
  30
0.0
  11
 71.0000
  21
 234.500
  31
0.0
   0
LINE
   8
LEVEL001
   6
CONTINUOUS
  62
3
  10
 70.0000
  20
 200.500
  30
0.0
  11
 71.0000
  21
 200.500
  31
0.0
   0
LINE
   8
LEVEL001
   6
CONTINUOUS
  62
7
  10
 78.0000
  20
 258.000
  30
0.0
  11
 78.0000
  21
 177.000
  31
0.0
   0
LINE
   8
LEVEL001
   6
CONTINUOUS
  62
7
  10
 76.0000
  20
 241.500
  30
0.0
  11
 78.0000
  21
 241.500
  31
0.0
   0
LINE
   8
LEVEL001
   6
CONTINUOUS
  62
7
  10
 76.0000
  20
 193.500
  30
0.0
  11
 78.0000
  21
 193.500
  31
0.0
   0
LINE
   8
LEVEL001
   6
CONTINUOUS
  62
7
  10
 76.0000
  20
 241.500
  30
0.0
  11
 76.0000
  21
 193.500
  31
0.0
   0
LINE
   8
LEVEL001
   6
CONTINUOUS
  62
7
  10
 79.0000
  20
 259.000
  30
0.0
  11
 79.0000
  21
 176.000
  31
0.0
   0
LINE
   8
LEVEL001
   6
CONTINUOUS
  62
7
  10
 83.0000
  20
 259.000
  30
0.0
  11
 83.0000
  21
 176.000
  31
0.0
   0
LINE
   8
LEVEL001
   6
CONTINUOUS
  62
3
  10
 83.0000
  20
 259.000
  30
0.0
  11
 118.000
  21
 259.000
  31
0.0
   0
LINE
   8
LEVEL001
   6
CONTINUOUS
  62
3
  10
 83.0000
  20
 176.000
  30
0.0
  11
 118.000
  21
 176.000
  31
0.0
   0
LINE
   8
LEVEL001
   6
CONTINUOUS
  62
7
  10
 122.000
  20
 260.062
  30
0.0
  11
 122.000
  21
 174.938
  31
0.0
   0
LINE
   8
LEVEL001
   6
CONTINUOUS
  62
7
  10
 125.000
  20
 173.500
  30
0.0
  11
 125.000
  21
 261.500
  31
0.0
   0
LINE
   8
LEVEL001
   6
CONTINUOUS
  62
3
  10
 118.000
  20
 175.000
  30
0.0
  11
 118.000
  21
 260.000
  31
0.0
   0
LINE
   8
LEVEL001
   6
CONTINUOUS
  62
3
  10
 84.0000
  20
 175.000
  30
0.0
  11
 84.0000
  21
 260.000
  31
0.0
   0
LINE
   8
LEVEL001
   6
CONTINUOUS
  62
7
  10
 154.356
  20
 271.500
  30
0.0
  11
 154.669
  21
 261.500
  31
0.0
   0
LINE
   8
LEVEL001
   6
CONTINUOUS
  62
7
  10
 171.644
  20
 271.500
  30
0.0
  11
 171.331
  21
 261.500
  31
0.0
   0
LINE
   8
LEVEL001
   6
CONTINUOUS
  62
3
  10
 155.326
  20
 267.884
  30
0.0
  11
 155.525
  21
 261.500
  31
0.0
   0
LINE
   8
LEVEL001
   6
CONTINUOUS
  62
3
  10
 170.674
  20
 267.884
  30
0.0
  11
 170.475
  21
 261.500
  31
0.0
   0
LINE
   8
LEVEL001
   6
DASHDOT
  62
1
  10
 163.000
  20
 331.500
  30
0.0
  11
 163.000
  21
 255.000
  31
0.0
   0
LINE
   8
LEVEL001
   6
CONTINUOUS
  62
7
  10
 778.644
  20
 271.500
  30
0.0
  11
 778.331
  21
 261.500
  31
0.0
   0
LINE
   8
LEVEL001
   6
CONTINUOUS
  62
7
  10
 761.356
  20
 271.500
  30
0.0
  11
 761.669
  21
 261.500
  31
0.0
   0
LINE
   8
LEVEL001
   6
CONTINUOUS
  62
7
  10
 125.000
  20
 261.500
  30
0.0
  11
 824.000
  21
 261.500
  31
0.0
   0
LINE
   8
LEVEL001
   6
CONTINUOUS
  62
3
  10
 777.674
  20
 267.884
  30
0.0
  11
 777.475
  21
 261.500
  31
0.0
   0
LINE
   8
LEVEL001
   6
CONTINUOUS
  62
3
  10
 762.326
  20
 267.884
  30
0.0
  11
 762.525
  21
 261.500
  31
0.0
   0
LINE
   8
LEVEL001
   6
DASHDOT
  62
1
  10
 770.000
  20
 331.500
  30
0.0
  11
 770.000
  21
 255.000
  31
0.0
   0
LINE
   8
LEVEL001
   6
CONTINUOUS
  62
7
  10
 125.000
  20
 173.500
  30
0.0
  11
 824.000
  21
 173.500
  31
0.0
   0
LINE
   8
LEVEL001
   6
CONTINUOUS
  62
7
  10
 824.000
  20
 261.500
  30
0.0
  11
 824.000
  21
 173.500
  31
0.0
   0
LINE
   8
LEVEL003
   6
CONTINUOUS
  62
3
  10
 40.0000
  20
 192.500
  30
0.0
  11
 40.0000
  21
 109.500
  31
0.0
   0
LINE
   8
LEVEL003
   6
CONTINUOUS
  62
3
  10
 825.000
  20
 173.000
  30
0.0
  11
 825.000
  21
 109.500
  31
0.0
   0
LINE
   8
LEVEL003
   6
CONTINUOUS
  62
3
  10
 40.0000
  20
 112.500
  30
0.0
  11
 825.000
  21
 112.500
  31
0.0
   0
LINE
   8
LEVEL003
   6
CONTINUOUS
  62
3
  10
 40.0000
  20
 112.500
  30
0.0
  11
 44.5000
  21
 111.707
  31
0.0
   0
LINE
   8
LEVEL003
   6
CONTINUOUS
  62
3
  10
 40.0000
  20
 112.500
  30
0.0
  11
 44.5000
  21
 113.293
  31
0.0
   0
LINE
   8
LEVEL003
   6
CONTINUOUS
  62
3
  10
 825.000
  20
 112.500
  30
0.0
  11
 820.500
  21
 113.293
  31
0.0
   0
LINE
   8
LEVEL003
   6
CONTINUOUS
  62
3
  10
 825.000
  20
 112.500
  30
0.0
  11
 820.500
  21
 111.707
  31
0.0
   0
TEXT
   8
LEVEL003
  62
3
  10
 428.000
  20
 113.700
  30
0.0
  40
 6.00000
   1
785
  41
 0.500000
   7
STANDARD
  72
1
  11
 432.500
  21
 113.700
  31
0.0
   0
LINE
   8
LEVEL003
   6
CONTINUOUS
  62
3
  10
 301.200
  20
 261.500
  30
0.0
  11
 301.200
  21
 173.500
  31
0.0
   0
LINE
   8
LEVEL003
   6
CONTINUOUS
  62
3
  10
 301.200
  20
 261.500
  30
0.0
  11
 300.407
  21
 257.000
  31
0.0
   0
LINE
   8
LEVEL003
   6
CONTINUOUS
  62
3
  10
 301.200
  20
 261.500
  30
0.0
  11
 301.993
  21
 257.000
  31
0.0
   0
LINE
   8
LEVEL003
   6
CONTINUOUS
  62
3
  10
 301.200
  20
 173.500
  30
0.0
  11
 301.993
  21
 178.000
  31
0.0
   0
LINE
   8
LEVEL003
   6
CONTINUOUS
  62
3
  10
 301.200
  20
 173.500
  30
0.0
  11
 300.407
  21
 178.000
  31
0.0
   0
TEXT
   8
LEVEL003
  62
3
  10
 300.000
  20
 211.500
  30
0.0
  40
 6.00000
   1
%%c88
  50
 90.0000
   7
STANDARD
  72
1
  11
 300.000
  21
 217.500
  31
0.0
   0
LINE
   8
LEVEL003
   6
CONTINUOUS
  62
3
  10
 286.200
  20
 185.000
  30
0.0
  11
 286.200
  21
 250.000
  31
0.0
   0
LINE
   8
LEVEL003
   6
CONTINUOUS
  62
3
  10
 286.200
  20
 185.000
  30
0.0
  11
 286.993
  21
 189.500
  31
0.0
   0
LINE
   8
LEVEL003
   6
CONTINUOUS
  62
3
  10
 286.200
  20
 185.000
  30
0.0
  11
 285.407
  21
 189.500
  31
0.0
   0
LINE
   8
LEVEL003
   6
CONTINUOUS
  62
3
  10
 286.200
  20
 250.000
  30
0.0
  11
 285.407
  21
 245.500
  31
0.0
   0
LINE
   8
LEVEL003
   6
CONTINUOUS
  62
3
  10
 286.200
  20
 250.000
  30
0.0
  11
 286.993
  21
 245.500
  31
0.0
   0
TEXT
   8
LEVEL003
  62
3
  10
 285.000
  20
 211.500
  30
0.0
  40
 6.00000
   1
%%c65
  50
 90.0000
   7
STANDARD
  72
1
  11
 285.000
  21
 217.500
  31
0.0
   0
LINE
   8
LEVEL003
   6
CONTINUOUS
  62
3
  10
 271.200
  20
 241.500
  30
0.0
  11
 271.200
  21
 193.500
  31
0.0
   0
LINE
   8
LEVEL003
   6
CONTINUOUS
  62
3
  10
 271.200
  20
 241.500
  30
0.0
  11
 270.407
  21
 237.000
  31
0.0
   0
LINE
   8
LEVEL003
   6
CONTINUOUS
  62
3
  10
 271.200
  20
 241.500
  30
0.0
  11
 271.993
  21
 237.000
  31
0.0
   0
LINE
   8
LEVEL003
   6
CONTINUOUS
  62
3
  10
 271.200
  20
 193.500
  30
0.0
  11
 271.993
  21
 198.000
  31
0.0
   0
LINE
   8
LEVEL003
   6
CONTINUOUS
  62
3
  10
 271.200
  20
 193.500
  30
0.0
  11
 270.407
  21
 198.000
  31
0.0
   0
TEXT
   8
LEVEL003
  62
3
  10
 270.000
  20
 211.500
  30
0.0
  40
 6.00000
   1
%%c48
  50
 90.0000
   7
STANDARD
  72
1
  11
 270.000
  21
 217.500
  31
0.0
   0
ARC
   8
LEVEL004
   6
DOT
  62
3
  10
 40.0000
  20
 237.500
  30
0.0
  40
 1.50000
  50
 270.000
  51
 90.0000
   0
ARC
   8
LEVEL004
   6
DOT
  62
3
  10
 40.0000
  20
 230.000
  30
0.0
  40
 1.50000
  50
 270.000
  51
 90.0000
   0
ARC
   8
LEVEL004
   6
DOT
  62
3
  10
 40.0000
  20
 205.000
  30
0.0
  40
 1.50000
  50
 270.000
  51
 90.0000
   0
ARC
   8
LEVEL004
   6
DOT
  62
3
  10
 40.0000
  20
 197.500
  30
0.0
  40
 1.50000
  50
 270.000
  51
 90.0000
   0
LINE
   8
LEVEL004
   6
DOT
  62
3
  10
 70.0000
  20
 235.500
  30
0.0
  11
 69.0000
  21
 234.500
  31
0.0
   0
LINE
   8
LEVEL004
   6
DOT
  62
3
  10
 69.0000
  20
 234.500
  30
0.0
  11
 53.0000
  21
 234.500
  31
0.0
   0
ARC
   8
LEVEL004
   6
DOT
  62
3
  10
 52.0000
  20
 234.500
  30
0.0
  40
 1.00000
  50
0.0
  51
 90.0000
   0
ARC
   8
LEVEL004
   6
DOT
  62
3
  10
 51.0000
  20
 234.500
  30
0.0
  40
 1.00000
  50
 90.0000
  51
 180.000
   0
LINE
   8
LEVEL004
   6
DOT
  62
3
  10
 50.0000
  20
 234.500
  30
0.0
  11
 51.0000
  21
 235.500
  31
0.0
   0
LINE
   8
LEVEL004
   6
DOT
  62
3
  10
 51.0000
  20
 235.500
  30
0.0
  11
 70.0000
  21
 235.500
  31
0.0
   0
LINE
   8
LEVEL004
   6
DOT
  62
3
  10
 50.0000
  20
 234.500
  30
0.0
  11
 53.0000
  21
 234.500
  31
0.0
   0
ARC
   8
LEVEL004
   6
DOT
  62
3
  10
 52.0000
  20
 200.500
  30
0.0
  40
 1.00000
  50
 270.000
  51
0.0
   0
ARC
   8
LEVEL004
   6
DOT
  62
3
  10
 51.0000
  20
 200.500
  30
0.0
  40
 1.00000
  50
 180.000
  51
 270.000
   0
LINE
   8
LEVEL004
   6
DOT
  62
3
  10
 50.0000
  20
 200.500
  30
0.0
  11
 53.0000
  21
 200.500
  31
0.0
   0
LINE
   8
LEVEL004
   6
DOT
  62
3
  10
 50.0000
  20
 234.500
  30
0.0
  11
 50.0000
  21
 200.500
  31
0.0
   0
LINE
   8
LEVEL004
   6
DOT
  62
3
  10
 50.0000
  20
 200.500
  30
0.0
  11
 51.0000
  21
 199.500
  31
0.0
   0
LINE
   8
LEVEL004
   6
DOT
  62
3
  10
 51.0000
  20
 199.500
  30
0.0
  11
 70.0000
  21
 199.500
  31
0.0
   0
LINE
   8
LEVEL004
   6
DOT
  62
3
  10
 70.0000
  20
 199.500
  30
0.0
  11
 69.0000
  21
 200.500
  31
0.0
   0
LINE
   8
LEVEL004
   6
DOT
  62
3
  10
 69.0000
  20
 200.500
  30
0.0
  11
 53.0000
  21
 200.500
  31
0.0
   0
LINE
   8
LEVEL004
   6
DOT
  62
3
  10
 69.0000
  20
 234.500
  30
0.0
  11
 70.0000
  21
 234.500
  31
0.0
   0
LINE
   8
LEVEL004
   6
DOT
  62
3
  10
 69.0000
  20
 200.500
  30
0.0
  11
 70.0000
  21
 200.500
  31
0.0
   0
LINE
   8
LEVEL004
   6
DOT
  62
3
  10
 153.000
  20
 250.000
  30
0.0
  11
 661.000
  21
 250.000
  31
0.0
   0
LINE
   8
LEVEL004
   6
DOT
  62
3
  10
 157.000
  20
 241.500
  30
0.0
  11
 657.000
  21
 241.500
  31
0.0
   0
LINE
   8
LEVEL004
   6
DOT
  62
3
  10
 153.000
  20
 185.000
  30
0.0
  11
 661.000
  21
 185.000
  31
0.0
   0
LINE
   8
LEVEL004
   6
DOT
  62
3
  10
 157.000
  20
 193.500
  30
0.0
  11
 657.000
  21
 193.500
  31
0.0
   0
LINE
   8
LEVEL004
   6
DOT
  62
3
  10
 824.000
  20
 239.000
  30
0.0
  11
 824.000
  21
 217.500
  31
0.0
   0
LINE
   8
LEVEL004
   6
DOT
  62
3
  10
 825.000
  20
 240.000
  30
0.0
  11
 824.000
  21
 239.000
  31
0.0
   0
LINE
   8
LEVEL004
   6
DOT
  62
3
  10
 824.000
  20
 239.000
  30
0.0
  11
 803.000
  21
 239.000
  31
0.0
   0
ARC
   8
LEVEL004
   6
DOT
  62
3
  10
 802.000
  20
 239.000
  30
0.0
  40
 1.00000
  50
0.0
  51
 90.0017
   0
ARC
   8
LEVEL004
   6
DOT
  62
3
  10
 801.000
  20
 239.000
  30
0.0
  40
 1.00000
  50
 90.0009
  51
 180.000
   0
LINE
   8
LEVEL004
   6
DOT
  62
3
  10
 802.000
  20
 240.000
  30
0.0
  11
 801.000
  21
 240.000
  31
0.0
   0
LINE
   8
LEVEL004
   6
DOT
  62
3
  10
 825.000
  20
 240.000
  30
0.0
  11
 802.000
  21
 240.000
  31
0.0
   0
LINE
   8
LEVEL004
   6
DOT
  62
3
  10
 824.000
  20
 196.000
  30
0.0
  11
 824.000
  21
 217.500
  31
0.0
   0
LINE
   8
LEVEL004
   6
DOT
  62
3
  10
 825.000
  20
 195.000
  30
0.0
  11
 824.000
  21
 196.000
  31
0.0
   0
LINE
   8
LEVEL004
   6
DOT
  62
3
  10
 824.000
  20
 196.000
  30
0.0
  11
 803.000
  21
 196.000
  31
0.0
   0
ARC
   8
LEVEL004
   6
DOT
  62
3
  10
 802.000
  20
 196.000
  30
0.0
  40
 1.00000
  50
 269.998
  51
 0.435449E-3
   0
ARC
   8
LEVEL004
   6
DOT
  62
3
  10
 801.000
  20
 196.000
  30
0.0
  40
 1.00000
  50
 180.000
  51
 269.999
   0
LINE
   8
LEVEL004
   6
DOT
  62
3
  10
 802.000
  20
 195.000
  30
0.0
  11
 801.000
  21
 195.000
  31
0.0
   0
LINE
   8
LEVEL004
   6
DOT
  62
3
  10
 825.000
  20
 195.000
  30
0.0
  11
 802.000
  21
 195.000
  31
0.0
   0
LINE
   8
LEVEL004
   6
DOT
  62
3
  10
 803.000
  20
 196.000
  30
0.0
  11
 803.000
  21
 239.000
  31
0.0
   0
LINE
   8
LEVEL004
   6
DOT
  62
3
  10
 800.000
  20
 196.000
  30
0.0
  11
 800.000
  21
 239.000
  31
0.0
   0
LINE
   8
LEVEL003
   6
CONTINUOUS
  62
3
  10
 832.500
  20
 300.000
  30
0.0
  11
 874.421
  21
 300.000
  31
0.0
   0
CIRCLE
   8
LEVEL003
   6
CONTINUOUS
  62
7
  10
 705.024
  20
 47.4112
  30
0.0
  40
 3.00000
   0
LINE
   8
LEVEL003
   6
CONTINUOUS
  62
7
  10
 710.912
  20
 50.4112
  30
0.0
  11
 707.103
  21
 43.8112
  31
0.0
   0
LINE
   8
LEVEL003
   6
CONTINUOUS
  62
7
  10
 707.103
  20
 43.8112
  30
0.0
  11
 699.482
  21
 43.8112
  31
0.0
   0
LINE
   8
LEVEL003
   6
CONTINUOUS
  62
7
  10
 698.615
  20
 42.3112
  30
0.0
  11
 712.236
  21
 42.3112
  31
0.0
   0
LINE
   8
LEVEL003
   6
CONTINUOUS
  62
7
  10
 712.236
  20
 42.3112
  30
0.0
  11
 716.912
  21
 50.4112
  31
0.0
   0
LINE
   8
LEVEL003
   6
CONTINUOUS
  62
7
  10
 716.912
  20
 50.4112
  30
0.0
  11
 710.912
  21
 50.4112
  31
0.0
   0
LINE
   8
LEVEL003
   6
CONTINUOUS
  62
7
  10
 699.482
  20
 43.8112
  30
0.0
  11
 698.615
  21
 42.3112
  31
0.0
   0
TEXT
   8
LEVEL003
  62
7
  10
 716.997
  20
 40.3605
  30
0.0
  40
 10.0000
   1
ＯＳＡＫＡ ＪＡＣＫ
   7
STANDARD
   0
TEXT
   8
LEVEL003
  62
7
  10
 719.908
  20
 57.2539
  30
0.0
  40
 6.00000
   1
Model : Ｅ２０Ｈ５０
   7
STANDARD
   0
ENDSEC
   0
EOF
