   0
SECTION
   2
HEADER
   9
$LIMMIN
  10
0.0
  20
0.0
   9
$LIMMAX
  10
 630.000
  20
 446.000
   9
$EXTMIN
  10
0.0
  20
0.0
   9
$EXTMAX
  10
 630.000
  20
 446.000
   9
$LTSCALE
  40
 12.6000
   0
ENDSEC
   0
SECTION
   2
TABLES
  0
TABLE
  2
LTYPE
 70
    25
  0
LTYPE
  2
CONTINUOUS
 70
    64
  3
Solid line
 72
    65
 73
     0
 40
0.0
  0
LTYPE
  2
BORDER
 70
    64
  3
__ __ . __ __ . __ __ . __ __ . __ __ . __ __ .
 72
    65
 73
     6
 40
1.75
 49
0.5
 49
-0.25
 49
0.5
 49
-0.25
 49
0.0
 49
-0.25
  0
LTYPE
  2
BORDER2
 70
    64
  3
__.__.__.__.__.__.__.__.__.__.__.__.__.__.__.__
 72
    65
 73
     6
 40
0.875
 49
0.25
 49
-0.125
 49
0.25
 49
-0.125
 49
0.0
 49
-0.125
  0
LTYPE
  2
BORDERX2
 70
    64
  3
____  ____  .  ____  ____  .  ____  ____  .  __
 72
    65
 73
     6
 40
3.5
 49
1.0
 49
-0.5
 49
1.0
 49
-0.5
 49
0.0
 49
-0.5
  0
LTYPE
  2
CENTER
 70
    64
  3
____ _ ____ _ ____ _ ____ _ ____ _ ____ _ ____ 
 72
    65
 73
     4
 40
2.0
 49
1.25
 49
-0.25
 49
0.25
 49
-0.25
  0
LTYPE
  2
CENTER2
 70
    64
  3
___ _ ___ _ ___ _ ___ _ ___ _ ___ _ ___ _ ___ _
 72
    65
 73
     4
 40
1.125
 49
0.75
 49
-0.125
 49
0.125
 49
-0.125
  0
LTYPE
  2
CENTERX2
 70
    64
  3
________  __  ________  __  ________  __  _____
 72
    65
 73
     4
 40
4.0
 49
2.5
 49
-0.5
 49
0.5
 49
-0.5
  0
LTYPE
  2
DASHDOT
 70
    64
  3
__ . __ . __ . __ . __ . __ . __ . __ . __ . __
 72
    65
 73
     4
 40
1.0
 49
0.5
 49
-0.25
 49
0.0
 49
-0.25
  0
LTYPE
  2
DASHDOT2
 70
    64
  3
_._._._._._._._._._._._._._._._._._._._._._._._
 72
    65
 73
     4
 40
0.5
 49
0.25
 49
-0.125
 49
0.0
 49
-0.125
  0
LTYPE
  2
DASHDOTX2
 70
    64
  3
____  .  ____  .  ____  .  ____  .  ____  .  __
 72
    65
 73
     4
 40
2.0
 49
1.0
 49
-0.5
 49
0.0
 49
-0.5
  0
LTYPE
  2
DASHED
 70
    64
  3
__ __ __ __ __ __ __ __ __ __ __ __ __ __ __ __
 72
    65
 73
     2
 40
0.75
 49
0.5
 49
-0.25
  0
LTYPE
  2
DASHED2
 70
    64
  3
_ _ _ _ _ _ _ _ _ _ _ _ _ _ _ _ _ _ _ _ _ _ _ _
 72
    65
 73
     2
 40
0.375
 49
0.25
 49
-0.125
  0
LTYPE
  2
DASHEDX2
 70
    64
  3
____  ____  ____  ____  ____  ____  ____  ____ 
 72
    65
 73
     2
 40
1.5
 49
1.0
 49
-0.5
  0
LTYPE
  2
DIVIDE
 70
    64
  3
____ . . ____ . . ____ . . ____ . . ____ . . __
 72
    65
 73
     6
 40
1.25
 49
0.5
 49
-0.25
 49
0.0
 49
-0.25
 49
0.0
 49
-0.25
  0
LTYPE
  2
DIVIDE2
 70
    64
  3
__..__..__..__..__..__..__..__..__..__..__..__.
 72
    65
 73
     6
 40
0.625
 49
0.25
 49
-0.125
 49
0.0
 49
-0.125
 49
0.0
 49
-0.125
  0
LTYPE
  2
DIVIDEX2
 70
    64
  3
________  .  .  ________  .  .  ________  .  . 
 72
    65
 73
     6
 40
2.5
 49
1.0
 49
-0.5
 49
0.0
 49
-0.5
 49
0.0
 49
-0.5
  0
LTYPE
  2
DOT
 70
    64
  3
. . . . . . . . . . . . . . . . . . . . . . . .
 72
    65
 73
     2
 40
0.25
 49
0.0
 49
-0.25
  0
LTYPE
  2
DOT2
 70
    64
  3
...............................................
 72
    65
 73
     2
 40
0.125
 49
0.0
 49
-0.125
  0
LTYPE
  2
DOTX2
 70
    64
  3
.  .  .  .  .  .  .  .  .  .  .  .  .  .  .  . 
 72
    65
 73
     2
 40
0.5
 49
0.0
 49
-0.5
  0
LTYPE
  2
HIDDEN
 70
    64
  3
__ __ __ __ __ __ __ __ __ __ __ __ __ __ __ __
 72
    65
 73
     2
 40
0.375
 49
0.25
 49
-0.125
  0
LTYPE
  2
HIDDEN2
 70
    64
  3
_ _ _ _ _ _ _ _ _ _ _ _ _ _ _ _ _ _ _ _ _ _ _ _
 72
    65
 73
     2
 40
0.1875
 49
0.125
 49
-0.0625
  0
LTYPE
  2
HIDDENX2
 70
    64
  3
____ ____ ____ ____ ____ ____ ____ ____ ____ __
 72
    65
 73
     2
 40
0.75
 49
0.5
 49
-0.25
  0
LTYPE
  2
PHANTOM
 70
    64
  3
______  __  __  ______  __  __  ______  __  __ 
 72
    65
 73
     6
 40
2.5
 49
1.25
 49
-0.25
 49
0.25
 49
-0.25
 49
0.25
 49
-0.25
  0
LTYPE
  2
PHANTOM2
 70
    64
  3
___ _ _ ___ _ _ ___ _ _ ___ _ _ ___ _ _ ___ _ _
 72
    65
 73
     6
 40
1.25
 49
0.625
 49
-0.125
 49
0.125
 49
-0.125
 49
0.125
 49
-0.125
  0
LTYPE
  2
PHANTOMX2
 70
    64
  3
____________    ____    ____    ____________   
 72
    65
 73
     6
 40
5.0
 49
2.5
 49
-0.5
 49
0.5
 49
-0.5
 49
0.5
 49
-0.5
  0
ENDTAB
  0
TABLE
  2
STYLE
 70
     2
  0
STYLE
  2
STANDARD
 70
0
 40
0.0
 41
1.0
 50
0.0
 71
0
 42
0.2
  3
TXT
  4
BIGFONT
  0
STYLE
  2
STANDARD1
 70
     4
 40
0.0
 41
1.0
 50
0.0
 71
     0
 42
0.2
  3
TXT
  4
BIGFONT
  0
ENDTAB
   0
TABLE
   2
LAYER
  70
4
   0
LAYER
   2
0
  70
0
  62
7
   6
CONTINUOUS
   0
LAYER
   2
LEVEL001
  70
0
  62
7
   6
CONTINUOUS
   0
LAYER
   2
LEVEL003
  70
0
  62
7
   6
CONTINUOUS
   0
LAYER
   2
LEVEL004
  70
0
  62
7
   6
CONTINUOUS
   0
ENDTAB
   0
ENDSEC
   0
SECTION
   2
ENTITIES
   0
LINE
   8
LEVEL001
   6
CONTINUOUS
  62
7
  10
 221.000
  20
 375.000
  30
0.0
  11
 222.000
  21
 374.000
  31
0.0
   0
LINE
   8
LEVEL001
   6
CONTINUOUS
  62
7
  10
 222.000
  20
 374.000
  30
0.0
  11
 222.000
  21
 370.000
  31
0.0
   0
LINE
   8
LEVEL001
   6
CONTINUOUS
  62
7
  10
 223.500
  20
 32.0000
  30
0.0
  11
 221.500
  21
 30.0000
  31
0.0
   0
LINE
   8
LEVEL001
   6
CONTINUOUS
  62
7
  10
 222.500
  20
 370.000
  30
0.0
  11
 223.500
  21
 369.000
  31
0.0
   0
LINE
   8
LEVEL001
   6
CONTINUOUS
  62
7
  10
 223.500
  20
 369.000
  30
0.0
  11
 223.500
  21
 326.268
  31
0.0
   0
LINE
   8
LEVEL001
   6
CONTINUOUS
  62
3
  10
 222.500
  20
 330.000
  30
0.0
  11
 223.500
  21
 326.268
  31
0.0
   0
LINE
   8
LEVEL001
   6
CONTINUOUS
  62
7
  10
 196.500
  20
 385.000
  30
0.0
  11
 197.500
  21
 384.000
  31
0.0
   0
LINE
   8
LEVEL001
   6
CONTINUOUS
  62
7
  10
 197.500
  20
 384.000
  30
0.0
  11
 197.500
  21
 375.000
  31
0.0
   0
LINE
   8
LEVEL001
   6
DASHDOT
  62
1
  10
 226.500
  20
 370.000
  30
0.0
  11
 226.500
  21
 330.000
  31
0.0
   0
LINE
   8
LEVEL001
   6
DASHDOT
  62
1
  10
 222.500
  20
 370.000
  30
0.0
  11
 226.500
  21
 370.000
  31
0.0
   0
LINE
   8
LEVEL001
   6
DASHDOT
  62
1
  10
 223.500
  20
 330.000
  30
0.0
  11
 226.500
  21
 330.000
  31
0.0
   0
LINE
   8
LEVEL001
   6
CONTINUOUS
  62
7
  10
 124.000
  20
 375.000
  30
0.0
  11
 123.000
  21
 374.000
  31
0.0
   0
LINE
   8
LEVEL001
   6
CONTINUOUS
  62
7
  10
 123.000
  20
 374.000
  30
0.0
  11
 123.000
  21
 370.000
  31
0.0
   0
LINE
   8
LEVEL001
   6
CONTINUOUS
  62
7
  10
 121.500
  20
 32.0000
  30
0.0
  11
 123.500
  21
 30.0000
  31
0.0
   0
LINE
   8
LEVEL001
   6
CONTINUOUS
  62
7
  10
 123.000
  20
 370.000
  30
0.0
  11
 122.500
  21
 370.000
  31
0.0
   0
LINE
   8
LEVEL001
   6
CONTINUOUS
  62
7
  10
 121.500
  20
 326.268
  30
0.0
  11
 121.500
  21
 32.0000
  31
0.0
   0
LINE
   8
LEVEL001
   6
CONTINUOUS
  62
7
  10
 122.500
  20
 370.000
  30
0.0
  11
 121.500
  21
 369.000
  31
0.0
   0
LINE
   8
LEVEL001
   6
CONTINUOUS
  62
7
  10
 121.500
  20
 369.000
  30
0.0
  11
 121.500
  21
 326.268
  31
0.0
   0
LINE
   8
LEVEL001
   6
CONTINUOUS
  62
3
  10
 122.500
  20
 330.000
  30
0.0
  11
 121.500
  21
 326.268
  31
0.0
   0
LINE
   8
LEVEL001
   6
CONTINUOUS
  62
7
  10
 148.500
  20
 385.000
  30
0.0
  11
 147.500
  21
 384.000
  31
0.0
   0
LINE
   8
LEVEL001
   6
CONTINUOUS
  62
7
  10
 147.500
  20
 384.000
  30
0.0
  11
 147.500
  21
 375.000
  31
0.0
   0
LINE
   8
LEVEL001
   6
DASHDOT
  62
1
  10
 118.500
  20
 370.000
  30
0.0
  11
 118.500
  21
 330.000
  31
0.0
   0
LINE
   8
LEVEL001
   6
DASHDOT
  62
1
  10
 122.500
  20
 370.000
  30
0.0
  11
 118.500
  21
 370.000
  31
0.0
   0
LINE
   8
LEVEL001
   6
DASHDOT
  62
1
  10
 121.500
  20
 330.000
  30
0.0
  11
 118.500
  21
 330.000
  31
0.0
   0
ARC
   8
LEVEL001
   6
CONTINUOUS
  62
7
  10
 250.500
  20
 255.000
  30
0.0
  40
 10.0000
  50
0.0
  51
 90.0000
   0
ARC
   8
LEVEL001
   6
CONTINUOUS
  62
7
  10
 250.500
  20
 255.000
  30
0.0
  40
 24.0000
  50
 0.407111E-12
  51
 90.0000
   0
ARC
   8
LEVEL001
   6
CONTINUOUS
  62
7
  10
 250.500
  20
 155.000
  30
0.0
  40
 10.0000
  50
 270.000
  51
 0.409811E-4
   0
LINE
   8
LEVEL001
   6
CONTINUOUS
  62
7
  10
 260.500
  20
 155.000
  30
0.0
  11
 260.500
  21
 255.000
  31
0.0
   0
ARC
   8
LEVEL001
   6
CONTINUOUS
  62
7
  10
 250.500
  20
 155.000
  30
0.0
  40
 24.0000
  50
 270.000
  51
0.0
   0
LINE
   8
LEVEL001
   6
CONTINUOUS
  62
7
  10
 274.500
  20
 255.000
  30
0.0
  11
 274.500
  21
 155.000
  31
0.0
   0
ARC
   8
LEVEL001
   6
DASHDOT
  62
1
  10
 250.500
  20
 155.000
  30
0.0
  40
 17.0000
  50
 270.000
  51
 0.964263E-5
   0
LINE
   8
LEVEL001
   6
DASHDOT
  62
1
  10
 267.500
  20
 255.000
  30
0.0
  11
 267.500
  21
 155.000
  31
0.0
   0
ARC
   8
LEVEL001
   6
DASHDOT
  62
1
  10
 250.500
  20
 255.000
  30
0.0
  40
 17.0000
  50
 0.289279E-4
  51
 90.0000
   0
LINE
   8
LEVEL001
   6
DASHDOT
  62
1
  10
 217.500
  20
 272.000
  30
0.0
  11
 250.500
  21
 272.000
  31
0.0
   0
LINE
   8
LEVEL001
   6
DASHDOT
  62
1
  10
 250.500
  20
 138.000
  30
0.0
  11
 217.500
  21
 138.000
  31
0.0
   0
LINE
   8
LEVEL001
   6
CONTINUOUS
  62
7
  10
 226.500
  20
 145.000
  30
0.0
  11
 223.500
  21
 148.000
  31
0.0
   0
LINE
   8
LEVEL001
   6
CONTINUOUS
  62
7
  10
 226.500
  20
 131.000
  30
0.0
  11
 223.500
  21
 128.000
  31
0.0
   0
LINE
   8
LEVEL001
   6
CONTINUOUS
  62
7
  10
 226.500
  20
 265.000
  30
0.0
  11
 223.500
  21
 262.000
  31
0.0
   0
LINE
   8
LEVEL001
   6
CONTINUOUS
  62
7
  10
 226.500
  20
 279.000
  30
0.0
  11
 223.500
  21
 282.000
  31
0.0
   0
LINE
   8
LEVEL001
   6
CONTINUOUS
  62
7
  10
 226.500
  20
 145.000
  30
0.0
  11
 226.500
  21
 131.000
  31
0.0
   0
LINE
   8
LEVEL001
   6
CONTINUOUS
  62
7
  10
 226.500
  20
 279.000
  30
0.0
  11
 226.500
  21
 265.000
  31
0.0
   0
LINE
   8
LEVEL001
   6
CONTINUOUS
  62
7
  10
 226.500
  20
 145.000
  30
0.0
  11
 250.500
  21
 145.000
  31
0.0
   0
LINE
   8
LEVEL001
   6
CONTINUOUS
  62
7
  10
 250.500
  20
 131.000
  30
0.0
  11
 226.500
  21
 131.000
  31
0.0
   0
LINE
   8
LEVEL001
   6
CONTINUOUS
  62
7
  10
 226.500
  20
 279.000
  30
0.0
  11
 250.500
  21
 279.000
  31
0.0
   0
LINE
   8
LEVEL001
   6
CONTINUOUS
  62
7
  10
 250.500
  20
 265.000
  30
0.0
  11
 226.500
  21
 265.000
  31
0.0
   0
LINE
   8
LEVEL003
   6
CONTINUOUS
  62
3
  10
 147.500
  20
 385.500
  30
0.0
  11
 147.500
  21
 400.500
  31
0.0
   0
LINE
   8
LEVEL003
   6
CONTINUOUS
  62
3
  10
 197.500
  20
 385.500
  30
0.0
  11
 197.500
  21
 400.500
  31
0.0
   0
LINE
   8
LEVEL003
   6
CONTINUOUS
  62
3
  10
 147.500
  20
 397.500
  30
0.0
  11
 197.500
  21
 397.500
  31
0.0
   0
LINE
   8
LEVEL003
   6
CONTINUOUS
  62
3
  10
 147.500
  20
 397.500
  30
0.0
  11
 152.000
  21
 396.707
  31
0.0
   0
LINE
   8
LEVEL003
   6
CONTINUOUS
  62
3
  10
 147.500
  20
 397.500
  30
0.0
  11
 152.000
  21
 398.293
  31
0.0
   0
LINE
   8
LEVEL003
   6
CONTINUOUS
  62
3
  10
 197.500
  20
 397.500
  30
0.0
  11
 193.000
  21
 398.293
  31
0.0
   0
LINE
   8
LEVEL003
   6
CONTINUOUS
  62
3
  10
 197.500
  20
 397.500
  30
0.0
  11
 193.000
  21
 396.707
  31
0.0
   0
TEXT
   8
LEVEL003
  62
3
  10
 166.500
  20
 398.700
  30
0.0
  40
 6.00000
   1
%%c50
   7
STANDARD
  72
1
  11
 172.500
  21
 398.700
  31
0.0
   0
LINE
   8
LEVEL003
   6
CONTINUOUS
  62
3
  10
 145.000
  20
 247.500
  30
0.0
  11
 200.000
  21
 247.500
  31
0.0
   0
LINE
   8
LEVEL003
   6
CONTINUOUS
  62
3
  10
 145.000
  20
 247.500
  30
0.0
  11
 149.500
  21
 246.707
  31
0.0
   0
LINE
   8
LEVEL003
   6
CONTINUOUS
  62
3
  10
 145.000
  20
 247.500
  30
0.0
  11
 149.500
  21
 248.293
  31
0.0
   0
LINE
   8
LEVEL003
   6
CONTINUOUS
  62
3
  10
 200.000
  20
 247.500
  30
0.0
  11
 195.500
  21
 248.293
  31
0.0
   0
LINE
   8
LEVEL003
   6
CONTINUOUS
  62
3
  10
 200.000
  20
 247.500
  30
0.0
  11
 195.500
  21
 246.707
  31
0.0
   0
TEXT
   8
LEVEL003
  62
3
  10
 166.500
  20
 248.700
  30
0.0
  40
 6.00000
   1
%%c55
   7
STANDARD
  72
1
  11
 172.500
  21
 248.700
  31
0.0
   0
LINE
   8
LEVEL003
   6
CONTINUOUS
  62
3
  10
 135.000
  20
 232.500
  30
0.0
  11
 210.000
  21
 232.500
  31
0.0
   0
LINE
   8
LEVEL003
   6
CONTINUOUS
  62
3
  10
 135.000
  20
 232.500
  30
0.0
  11
 139.500
  21
 231.707
  31
0.0
   0
LINE
   8
LEVEL003
   6
CONTINUOUS
  62
3
  10
 135.000
  20
 232.500
  30
0.0
  11
 139.500
  21
 233.293
  31
0.0
   0
LINE
   8
LEVEL003
   6
CONTINUOUS
  62
3
  10
 210.000
  20
 232.500
  30
0.0
  11
 205.500
  21
 233.293
  31
0.0
   0
LINE
   8
LEVEL003
   6
CONTINUOUS
  62
3
  10
 210.000
  20
 232.500
  30
0.0
  11
 205.500
  21
 231.707
  31
0.0
   0
TEXT
   8
LEVEL003
  62
3
  10
 166.500
  20
 233.700
  30
0.0
  40
 6.00000
   1
%%c75
   7
STANDARD
  72
1
  11
 172.500
  21
 233.700
  31
0.0
   0
LINE
   8
LEVEL003
   6
CONTINUOUS
  62
3
  10
 121.500
  20
 217.500
  30
0.0
  11
 223.500
  21
 217.500
  31
0.0
   0
LINE
   8
LEVEL003
   6
CONTINUOUS
  62
3
  10
 121.500
  20
 217.500
  30
0.0
  11
 126.000
  21
 216.707
  31
0.0
   0
LINE
   8
LEVEL003
   6
CONTINUOUS
  62
3
  10
 121.500
  20
 217.500
  30
0.0
  11
 126.000
  21
 218.293
  31
0.0
   0
LINE
   8
LEVEL003
   6
CONTINUOUS
  62
3
  10
 223.500
  20
 217.500
  30
0.0
  11
 219.000
  21
 218.293
  31
0.0
   0
LINE
   8
LEVEL003
   6
CONTINUOUS
  62
3
  10
 223.500
  20
 217.500
  30
0.0
  11
 219.000
  21
 216.707
  31
0.0
   0
TEXT
   8
LEVEL003
  62
3
  10
 165.000
  20
 218.700
  30
0.0
  40
 6.00000
   1
%%c102
   7
STANDARD
  72
1
  11
 172.500
  21
 218.700
  31
0.0
   0
LINE
   8
LEVEL003
   6
CONTINUOUS
  62
3
  10
 198.000
  20
 385.000
  30
0.0
  11
 250.500
  21
 385.000
  31
0.0
   0
LINE
   8
LEVEL003
   6
CONTINUOUS
  62
3
  10
 222.500
  20
 375.000
  30
0.0
  11
 250.500
  21
 375.000
  31
0.0
   0
LINE
   8
LEVEL003
   6
CONTINUOUS
  62
3
  10
 247.500
  20
 385.000
  30
0.0
  11
 247.500
  21
 375.000
  31
0.0
   0
LINE
   8
LEVEL003
   6
CONTINUOUS
  62
3
  10
 247.500
  20
 385.000
  30
0.0
  11
 246.707
  21
 380.500
  31
0.0
   0
LINE
   8
LEVEL003
   6
CONTINUOUS
  62
3
  10
 247.500
  20
 385.000
  30
0.0
  11
 248.293
  21
 380.500
  31
0.0
   0
LINE
   8
LEVEL003
   6
CONTINUOUS
  62
3
  10
 247.500
  20
 375.000
  30
0.0
  11
 248.293
  21
 379.500
  31
0.0
   0
LINE
   8
LEVEL003
   6
CONTINUOUS
  62
3
  10
 247.500
  20
 375.000
  30
0.0
  11
 246.707
  21
 379.500
  31
0.0
   0
TEXT
   8
LEVEL003
  62
3
  10
 246.300
  20
 377.000
  30
0.0
  40
 6.00000
   1
10
  50
 90.0000
  41
 0.500000
   7
STANDARD
  72
1
  11
 246.300
  21
 380.000
  31
0.0
   0
LINE
   8
LEVEL003
   6
CONTINUOUS
  62
3
  10
 222.500
  20
 375.000
  30
0.0
  11
 250.500
  21
 375.000
  31
0.0
   0
LINE
   8
LEVEL003
   6
CONTINUOUS
  62
3
  10
 228.000
  20
 330.000
  30
0.0
  11
 250.500
  21
 330.000
  31
0.0
   0
LINE
   8
LEVEL003
   6
CONTINUOUS
  62
3
  10
 247.500
  20
 375.000
  30
0.0
  11
 247.500
  21
 330.000
  31
0.0
   0
LINE
   8
LEVEL003
   6
CONTINUOUS
  62
3
  10
 247.500
  20
 375.000
  30
0.0
  11
 246.707
  21
 370.500
  31
0.0
   0
LINE
   8
LEVEL003
   6
CONTINUOUS
  62
3
  10
 247.500
  20
 375.000
  30
0.0
  11
 248.293
  21
 370.500
  31
0.0
   0
LINE
   8
LEVEL003
   6
CONTINUOUS
  62
3
  10
 247.500
  20
 330.000
  30
0.0
  11
 248.293
  21
 334.500
  31
0.0
   0
LINE
   8
LEVEL003
   6
CONTINUOUS
  62
3
  10
 247.500
  20
 330.000
  30
0.0
  11
 246.707
  21
 334.500
  31
0.0
   0
TEXT
   8
LEVEL003
  62
3
  10
 246.300
  20
 349.500
  30
0.0
  40
 6.00000
   1
45
  50
 90.0000
  41
 0.500000
   7
STANDARD
  72
1
  11
 246.300
  21
 352.500
  31
0.0
   0
LINE
   8
LEVEL003
   6
CONTINUOUS
  62
3
  10
 222.500
  20
 375.000
  30
0.0
  11
 235.500
  21
 375.000
  31
0.0
   0
LINE
   8
LEVEL003
   6
CONTINUOUS
  62
3
  10
 228.000
  20
 370.000
  30
0.0
  11
 235.500
  21
 370.000
  31
0.0
   0
LINE
   8
LEVEL003
   6
CONTINUOUS
  62
3
  10
 232.500
  20
 375.000
  30
0.0
  11
 232.500
  21
 370.000
  31
0.0
   0
LINE
   8
LEVEL003
   6
CONTINUOUS
  62
3
  10
 232.500
  20
 375.000
  30
0.0
  11
 232.500
  21
 381.000
  31
0.0
   0
LINE
   8
LEVEL003
   6
CONTINUOUS
  62
3
  10
 232.500
  20
 375.000
  30
0.0
  11
 233.293
  21
 379.500
  31
0.0
   0
LINE
   8
LEVEL003
   6
CONTINUOUS
  62
3
  10
 232.500
  20
 375.000
  30
0.0
  11
 231.707
  21
 379.500
  31
0.0
   0
LINE
   8
LEVEL003
   6
CONTINUOUS
  62
3
  10
 232.500
  20
 370.000
  30
0.0
  11
 231.707
  21
 365.500
  31
0.0
   0
LINE
   8
LEVEL003
   6
CONTINUOUS
  62
3
  10
 232.500
  20
 370.000
  30
0.0
  11
 233.293
  21
 365.500
  31
0.0
   0
LINE
   8
LEVEL003
   6
CONTINUOUS
  62
3
  10
 232.500
  20
 375.000
  30
0.0
  11
 232.500
  21
 381.000
  31
0.0
   0
LINE
   8
LEVEL003
   6
CONTINUOUS
  62
3
  10
 232.500
  20
 370.000
  30
0.0
  11
 232.500
  21
 364.375
  31
0.0
   0
TEXT
   8
LEVEL003
  62
3
  10
 231.300
  20
 376.500
  30
0.0
  40
 6.00000
   1
5
  50
 90.0000
  41
 0.500000
   7
STANDARD
  72
1
  11
 231.300
  21
 378.000
  31
0.0
   0
LINE
   8
LEVEL003
   6
CONTINUOUS
  62
3
  10
 223.500
  20
 165.000
  30
0.0
  11
 274.500
  21
 165.000
  31
0.0
   0
LINE
   8
LEVEL003
   6
CONTINUOUS
  62
3
  10
 223.500
  20
 165.000
  30
0.0
  11
 228.000
  21
 164.207
  31
0.0
   0
LINE
   8
LEVEL003
   6
CONTINUOUS
  62
3
  10
 223.500
  20
 165.000
  30
0.0
  11
 228.000
  21
 165.793
  31
0.0
   0
LINE
   8
LEVEL003
   6
CONTINUOUS
  62
3
  10
 274.500
  20
 165.000
  30
0.0
  11
 270.000
  21
 165.793
  31
0.0
   0
LINE
   8
LEVEL003
   6
CONTINUOUS
  62
3
  10
 274.500
  20
 165.000
  30
0.0
  11
 270.000
  21
 164.207
  31
0.0
   0
TEXT
   8
LEVEL003
  62
3
  10
 246.000
  20
 166.200
  30
0.0
  40
 6.00000
   1
51
  41
 0.500000
   7
STANDARD
  72
1
  11
 249.000
  21
 166.200
  31
0.0
   0
LINE
   8
LEVEL003
   6
CONTINUOUS
  62
3
  10
 240.000
  20
 265.000
  30
0.0
  11
 240.000
  21
 145.000
  31
0.0
   0
LINE
   8
LEVEL003
   6
CONTINUOUS
  62
3
  10
 240.000
  20
 265.000
  30
0.0
  11
 239.207
  21
 260.500
  31
0.0
   0
LINE
   8
LEVEL003
   6
CONTINUOUS
  62
3
  10
 240.000
  20
 265.000
  30
0.0
  11
 240.793
  21
 260.500
  31
0.0
   0
LINE
   8
LEVEL003
   6
CONTINUOUS
  62
3
  10
 240.000
  20
 145.000
  30
0.0
  11
 240.793
  21
 149.500
  31
0.0
   0
LINE
   8
LEVEL003
   6
CONTINUOUS
  62
3
  10
 240.000
  20
 145.000
  30
0.0
  11
 239.207
  21
 149.500
  31
0.0
   0
TEXT
   8
LEVEL003
  62
3
  10
 238.800
  20
 200.500
  30
0.0
  40
 6.00000
   1
120
  50
 90.0000
  41
 0.500000
   7
STANDARD
  72
1
  11
 238.800
  21
 205.000
  31
0.0
   0
LINE
   8
LEVEL003
   6
CONTINUOUS
  62
3
  10
 154.500
  20
 28.5000
  30
0.0
  11
 154.500
  21
 12.0000
  31
0.0
   0
LINE
   8
LEVEL003
   6
CONTINUOUS
  62
3
  10
 190.500
  20
 28.5000
  30
0.0
  11
 190.500
  21
 12.0000
  31
0.0
   0
LINE
   8
LEVEL003
   6
CONTINUOUS
  62
3
  10
 154.500
  20
 15.0000
  30
0.0
  11
 190.500
  21
 15.0000
  31
0.0
   0
LINE
   8
LEVEL003
   6
CONTINUOUS
  62
3
  10
 154.500
  20
 15.0000
  30
0.0
  11
 159.000
  21
 14.2065
  31
0.0
   0
LINE
   8
LEVEL003
   6
CONTINUOUS
  62
3
  10
 154.500
  20
 15.0000
  30
0.0
  11
 159.000
  21
 15.7935
  31
0.0
   0
LINE
   8
LEVEL003
   6
CONTINUOUS
  62
3
  10
 190.500
  20
 15.0000
  30
0.0
  11
 186.000
  21
 15.7935
  31
0.0
   0
LINE
   8
LEVEL003
   6
CONTINUOUS
  62
3
  10
 190.500
  20
 15.0000
  30
0.0
  11
 186.000
  21
 14.2065
  31
0.0
   0
TEXT
   8
LEVEL003
  62
3
  10
 163.500
  20
 16.2000
  30
0.0
  40
 6.00000
   1
M36×2
   7
STANDARD
  72
1
  11
 172.500
  21
 16.2000
  31
0.0
   0
TEXT
   8
LEVEL003
  62
3
  10
 210.000
  20
 397.500
  30
0.0
  40
 6.00000
   1
Ｍ３６×２
   7
STANDARD
   0
LINE
   8
LEVEL003
   6
CONTINUOUS
  62
3
  10
 190.500
  20
 352.500
  30
0.0
  11
 210.000
  21
 397.500
  31
0.0
   0
LINE
   8
LEVEL003
   6
CONTINUOUS
  62
3
  10
 210.000
  20
 397.500
  30
0.0
  11
 240.000
  21
 397.500
  31
0.0
   0
LINE
   8
LEVEL003
   6
CONTINUOUS
  62
3
  10
 190.500
  20
 352.500
  30
0.0
  11
 193.017
  21
 356.313
  31
0.0
   0
LINE
   8
LEVEL003
   6
CONTINUOUS
  62
3
  10
 190.500
  20
 352.500
  30
0.0
  11
 191.561
  21
 356.944
  31
0.0
   0
LINE
   8
LEVEL003
   6
CONTINUOUS
  62
3
  10
 189.250
  20
 375.000
  30
0.0
  11
 177.000
  21
 375.000
  31
0.0
   0
LINE
   8
LEVEL003
   6
CONTINUOUS
  62
3
  10
 180.000
  20
 375.000
  30
0.0
  11
 180.000
  21
 347.000
  31
0.0
   0
LINE
   8
LEVEL003
   6
CONTINUOUS
  62
3
  10
 180.000
  20
 375.000
  30
0.0
  11
 179.207
  21
 370.500
  31
0.0
   0
LINE
   8
LEVEL003
   6
CONTINUOUS
  62
3
  10
 180.000
  20
 375.000
  30
0.0
  11
 180.793
  21
 370.500
  31
0.0
   0
LINE
   8
LEVEL003
   6
CONTINUOUS
  62
3
  10
 180.000
  20
 347.000
  30
0.0
  11
 180.793
  21
 351.500
  31
0.0
   0
LINE
   8
LEVEL003
   6
CONTINUOUS
  62
3
  10
 180.000
  20
 347.000
  30
0.0
  11
 179.207
  21
 351.500
  31
0.0
   0
TEXT
   8
LEVEL003
  62
3
  10
 178.800
  20
 358.000
  30
0.0
  40
 6.00000
   1
28
  50
 90.0000
  41
 0.500000
   7
STANDARD
  72
1
  11
 178.800
  21
 361.000
  31
0.0
   0
TEXT
   8
LEVEL003
  62
3
  10
 262.500
  20
 337.500
  30
0.0
  40
 6.00000
   1
Ｍ１０２×２
   7
STANDARD
   0
LINE
   8
LEVEL003
   6
CONTINUOUS
  62
3
  10
 223.500
  20
 352.500
  30
0.0
  11
 262.500
  21
 337.500
  31
0.0
   0
LINE
   8
LEVEL003
   6
CONTINUOUS
  62
3
  10
 223.500
  20
 352.500
  30
0.0
  11
 227.415
  21
 350.144
  31
0.0
   0
LINE
   8
LEVEL003
   6
CONTINUOUS
  62
3
  10
 223.500
  20
 352.500
  30
0.0
  11
 227.985
  21
 351.625
  31
0.0
   0
LINE
   8
LEVEL003
   6
CONTINUOUS
  62
3
  10
 180.000
  20
 58.0000
  30
0.0
  11
 180.000
  21
 30.0000
  31
0.0
   0
LINE
   8
LEVEL003
   6
CONTINUOUS
  62
3
  10
 180.000
  20
 58.0000
  30
0.0
  11
 179.207
  21
 53.5000
  31
0.0
   0
LINE
   8
LEVEL003
   6
CONTINUOUS
  62
3
  10
 180.000
  20
 58.0000
  30
0.0
  11
 180.793
  21
 53.5000
  31
0.0
   0
LINE
   8
LEVEL003
   6
CONTINUOUS
  62
3
  10
 180.000
  20
 30.0000
  30
0.0
  11
 180.793
  21
 34.5000
  31
0.0
   0
LINE
   8
LEVEL003
   6
CONTINUOUS
  62
3
  10
 180.000
  20
 30.0000
  30
0.0
  11
 179.207
  21
 34.5000
  31
0.0
   0
TEXT
   8
LEVEL003
  62
3
  10
 178.800
  20
 41.0000
  30
0.0
  40
 6.00000
   1
28
  50
 90.0000
  41
 0.500000
   7
STANDARD
  72
1
  11
 178.800
  21
 44.0000
  31
0.0
   0
TEXT
   8
LEVEL003
  62
3
  10
 240.000
  20
 45.0000
  30
0.0
  40
 6.00000
   1
ＮＰＴ３／８
   7
STANDARD
   0
LINE
   8
LEVEL003
   6
CONTINUOUS
  62
3
  10
 225.000
  20
 67.5000
  30
0.0
  11
 240.000
  21
 45.0000
  31
0.0
   0
LINE
   8
LEVEL003
   6
CONTINUOUS
  62
3
  10
 225.000
  20
 67.5000
  30
0.0
  11
 226.836
  21
 63.3156
  31
0.0
   0
LINE
   8
LEVEL003
   6
CONTINUOUS
  62
3
  10
 225.000
  20
 67.5000
  30
0.0
  11
 228.156
  21
 64.1959
  31
0.0
   0
LINE
   8
LEVEL001
   6
CONTINUOUS
  62
7
  10
 196.500
  20
 385.000
  30
0.0
  11
 148.500
  21
 385.000
  31
0.0
   0
LINE
   8
LEVEL001
   6
CONTINUOUS
  62
7
  10
 123.500
  20
 30.0000
  30
0.0
  11
 221.500
  21
 30.0000
  31
0.0
   0
LINE
   8
LEVEL001
   6
CONTINUOUS
  62
3
  10
 233.500
  20
 67.3565
  30
0.0
  11
 229.884
  21
 68.3255
  31
0.0
   0
LINE
   8
LEVEL001
   6
CONTINUOUS
  62
7
  10
 233.500
  20
 67.3565
  30
0.0
  11
 234.984
  21
 66.5000
  31
0.0
   0
LINE
   8
LEVEL001
   6
CONTINUOUS
  62
7
  10
 250.500
  20
 66.5000
  30
0.0
  11
 234.984
  21
 66.5000
  31
0.0
   0
ARC
   8
LEVEL001
   6
CONTINUOUS
  62
7
  10
 252.000
  20
 63.0000
  30
0.0
  40
 1.50000
  50
 180.000
  51
 270.000
   0
LINE
   8
LEVEL001
   6
CONTINUOUS
  62
7
  10
 250.500
  20
 63.0000
  30
0.0
  11
 250.500
  21
 89.0000
  31
0.0
   0
ARC
   8
LEVEL001
   6
CONTINUOUS
  62
7
  10
 273.000
  20
 63.0000
  30
0.0
  40
 1.50000
  50
 270.000
  51
0.0
   0
LINE
   8
LEVEL001
   6
CONTINUOUS
  62
7
  10
 274.500
  20
 89.0000
  30
0.0
  11
 274.500
  21
 63.0000
  31
0.0
   0
ARC
   8
LEVEL001
   6
DASHDOT
  62
1
  10
 275.500
  20
 63.0000
  30
0.0
  40
 1.00000
  50
 180.000
  51
 269.999
   0
LINE
   8
LEVEL001
   6
CONTINUOUS
  62
7
  10
 234.984
  20
 66.5000
  30
0.0
  11
 234.984
  21
 70.1690
  31
0.0
   0
LINE
   8
LEVEL001
   6
CONTINUOUS
  62
7
  10
 229.500
  20
 71.9608
  30
0.0
  11
 243.500
  21
 81.8309
  31
0.0
   0
LINE
   8
LEVEL001
   6
CONTINUOUS
  62
7
  10
 229.500
  20
 80.0392
  30
0.0
  11
 243.500
  21
 70.1690
  31
0.0
   0
LINE
   8
LEVEL001
   6
CONTINUOUS
  62
3
  10
 229.884
  20
 71.9608
  30
0.0
  11
 229.884
  21
 68.3255
  31
0.0
   0
LINE
   8
LEVEL001
   6
CONTINUOUS
  62
7
  10
 233.500
  20
 71.7034
  30
0.0
  11
 233.500
  21
 67.3565
  31
0.0
   0
LINE
   8
LEVEL001
   6
CONTINUOUS
  62
3
  10
 257.000
  20
 63.0000
  30
0.0
  11
 268.000
  21
 63.0000
  31
0.0
   0
LINE
   8
LEVEL001
   6
CONTINUOUS
  62
3
  10
 257.000
  20
 65.0000
  30
0.0
  11
 268.000
  21
 65.0000
  31
0.0
   0
LINE
   8
LEVEL001
   6
CONTINUOUS
  62
3
  10
 257.000
  20
 67.0000
  30
0.0
  11
 268.000
  21
 67.0000
  31
0.0
   0
LINE
   8
LEVEL001
   6
CONTINUOUS
  62
3
  10
 257.000
  20
 69.0000
  30
0.0
  11
 268.000
  21
 69.0000
  31
0.0
   0
LINE
   8
LEVEL001
   6
CONTINUOUS
  62
3
  10
 257.000
  20
 71.0000
  30
0.0
  11
 268.000
  21
 71.0000
  31
0.0
   0
LINE
   8
LEVEL001
   6
CONTINUOUS
  62
3
  10
 257.000
  20
 73.0000
  30
0.0
  11
 268.000
  21
 73.0000
  31
0.0
   0
LINE
   8
LEVEL001
   6
CONTINUOUS
  62
3
  10
 257.000
  20
 75.0000
  30
0.0
  11
 268.000
  21
 75.0000
  31
0.0
   0
LINE
   8
LEVEL001
   6
CONTINUOUS
  62
7
  10
 229.500
  20
 71.9608
  30
0.0
  11
 229.500
  21
 80.0392
  31
0.0
   0
LINE
   8
LEVEL001
   6
CONTINUOUS
  62
7
  10
 229.500
  20
 80.0392
  30
0.0
  11
 233.500
  21
 80.2965
  31
0.0
   0
LINE
   8
LEVEL001
   6
CONTINUOUS
  62
7
  10
 233.500
  20
 80.2965
  30
0.0
  11
 234.984
  21
 81.8309
  31
0.0
   0
LINE
   8
LEVEL001
   6
CONTINUOUS
  62
7
  10
 234.984
  20
 81.8309
  30
0.0
  11
 243.500
  21
 81.8309
  31
0.0
   0
LINE
   8
LEVEL001
   6
CONTINUOUS
  62
7
  10
 243.500
  20
 81.8309
  30
0.0
  11
 243.500
  21
 70.1690
  31
0.0
   0
LINE
   8
LEVEL001
   6
CONTINUOUS
  62
7
  10
 243.500
  20
 70.1690
  30
0.0
  11
 234.984
  21
 70.1690
  31
0.0
   0
LINE
   8
LEVEL001
   6
CONTINUOUS
  62
7
  10
 234.984
  20
 70.1690
  30
0.0
  11
 233.500
  21
 71.7034
  31
0.0
   0
LINE
   8
LEVEL001
   6
CONTINUOUS
  62
7
  10
 233.500
  20
 71.7034
  30
0.0
  11
 229.500
  21
 71.9608
  31
0.0
   0
LINE
   8
LEVEL001
   6
CONTINUOUS
  62
7
  10
 257.000
  20
 61.0000
  30
0.0
  11
 257.000
  21
 91.0000
  31
0.0
   0
LINE
   8
LEVEL001
   6
CONTINUOUS
  62
7
  10
 257.000
  20
 91.0000
  30
0.0
  11
 268.000
  21
 91.0000
  31
0.0
   0
LINE
   8
LEVEL001
   6
CONTINUOUS
  62
7
  10
 268.000
  20
 91.0000
  30
0.0
  11
 268.000
  21
 61.0000
  31
0.0
   0
LINE
   8
LEVEL001
   6
CONTINUOUS
  62
7
  10
 268.000
  20
 61.0000
  30
0.0
  11
 257.000
  21
 61.0000
  31
0.0
   0
LINE
   8
LEVEL001
   6
CONTINUOUS
  62
7
  10
 252.000
  20
 61.5000
  30
0.0
  11
 257.000
  21
 61.5000
  31
0.0
   0
LINE
   8
LEVEL001
   6
CONTINUOUS
  62
7
  10
 268.000
  20
 61.5000
  30
0.0
  11
 273.000
  21
 61.5000
  31
0.0
   0
ARC
   8
LEVEL001
   6
DASHDOT
  62
1
  10
 283.500
  20
 63.0000
  30
0.0
  40
 1.00000
  50
 270.001
  51
 0.435431E-3
   0
LINE
   8
LEVEL001
   6
DASHDOT
  62
1
  10
 275.500
  20
 62.0000
  30
0.0
  11
 283.500
  21
 62.0000
  31
0.0
   0
LINE
   8
LEVEL001
   6
DASHDOT
  62
1
  10
 284.500
  20
 89.0000
  30
0.0
  11
 284.500
  21
 63.0000
  31
0.0
   0
CIRCLE
   8
LEVEL001
   6
DASHDOT
  62
1
  10
 287.500
  20
 76.0000
  30
0.0
  40
 1.50000
   0
ARC
   8
LEVEL001
   6
DASHDOT
  62
1
  10
 286.500
  20
 70.5000
  30
0.0
  40
 2.00000
  50
 89.9996
  51
 180.000
   0
LINE
   8
LEVEL001
   6
DASHDOT
  62
1
  10
 286.500
  20
 72.5000
  30
0.0
  11
 287.000
  21
 72.5000
  31
0.0
   0
ARC
   8
LEVEL001
   6
DASHDOT
  62
1
  10
 287.000
  20
 76.0000
  30
0.0
  40
 3.50000
  50
 270.000
  51
 90.0000
   0
ARC
   8
LEVEL001
   6
DASHDOT
  62
1
  10
 283.500
  20
 89.0000
  30
0.0
  40
 1.00000
  50
0.0
  51
 89.9991
   0
LINE
   8
LEVEL001
   6
DASHDOT
  62
1
  10
 275.500
  20
 90.0000
  30
0.0
  11
 283.500
  21
 90.0000
  31
0.0
   0
ARC
   8
LEVEL001
   6
DASHDOT
  62
1
  10
 286.500
  20
 81.5000
  30
0.0
  40
 2.00000
  50
 180.000
  51
 270.000
   0
LINE
   8
LEVEL001
   6
DASHDOT
  62
1
  10
 286.500
  20
 79.5000
  30
0.0
  11
 287.000
  21
 79.5000
  31
0.0
   0
LINE
   8
LEVEL001
   6
CONTINUOUS
  62
3
  10
 233.500
  20
 84.6435
  30
0.0
  11
 229.884
  21
 83.6745
  31
0.0
   0
LINE
   8
LEVEL001
   6
CONTINUOUS
  62
7
  10
 233.500
  20
 84.6435
  30
0.0
  11
 234.984
  21
 85.5000
  31
0.0
   0
LINE
   8
LEVEL001
   6
CONTINUOUS
  62
7
  10
 250.500
  20
 85.5000
  30
0.0
  11
 234.984
  21
 85.5000
  31
0.0
   0
ARC
   8
LEVEL001
   6
CONTINUOUS
  62
7
  10
 252.000
  20
 89.0000
  30
0.0
  40
 1.50000
  50
 90.0000
  51
 180.000
   0
LINE
   8
LEVEL001
   6
CONTINUOUS
  62
7
  10
 252.000
  20
 90.5000
  30
0.0
  11
 257.000
  21
 90.5000
  31
0.0
   0
ARC
   8
LEVEL001
   6
CONTINUOUS
  62
7
  10
 273.000
  20
 89.0000
  30
0.0
  40
 1.50000
  50
 0.369114E-10
  51
 90.0000
   0
LINE
   8
LEVEL001
   6
CONTINUOUS
  62
7
  10
 268.000
  20
 90.5000
  30
0.0
  11
 273.000
  21
 90.5000
  31
0.0
   0
ARC
   8
LEVEL001
   6
DASHDOT
  62
1
  10
 275.500
  20
 89.0000
  30
0.0
  40
 1.00000
  50
 90.0009
  51
 180.000
   0
LINE
   8
LEVEL001
   6
CONTINUOUS
  62
7
  10
 234.984
  20
 81.8309
  30
0.0
  11
 234.984
  21
 85.5000
  31
0.0
   0
LINE
   8
LEVEL001
   6
CONTINUOUS
  62
3
  10
 229.884
  20
 83.6745
  30
0.0
  11
 229.884
  21
 80.0392
  31
0.0
   0
LINE
   8
LEVEL001
   6
CONTINUOUS
  62
7
  10
 233.500
  20
 84.6435
  30
0.0
  11
 233.500
  21
 80.2965
  31
0.0
   0
LINE
   8
LEVEL001
   6
CONTINUOUS
  62
3
  10
 257.000
  20
 77.0000
  30
0.0
  11
 268.000
  21
 77.0000
  31
0.0
   0
LINE
   8
LEVEL001
   6
CONTINUOUS
  62
3
  10
 257.000
  20
 79.0000
  30
0.0
  11
 268.000
  21
 79.0000
  31
0.0
   0
LINE
   8
LEVEL001
   6
CONTINUOUS
  62
3
  10
 257.000
  20
 81.0000
  30
0.0
  11
 268.000
  21
 81.0000
  31
0.0
   0
LINE
   8
LEVEL001
   6
CONTINUOUS
  62
3
  10
 257.000
  20
 83.0000
  30
0.0
  11
 268.000
  21
 83.0000
  31
0.0
   0
LINE
   8
LEVEL001
   6
CONTINUOUS
  62
3
  10
 257.000
  20
 85.0000
  30
0.0
  11
 268.000
  21
 85.0000
  31
0.0
   0
LINE
   8
LEVEL001
   6
CONTINUOUS
  62
3
  10
 257.000
  20
 87.0000
  30
0.0
  11
 268.000
  21
 87.0000
  31
0.0
   0
LINE
   8
LEVEL001
   6
CONTINUOUS
  62
3
  10
 257.000
  20
 89.0000
  30
0.0
  11
 268.000
  21
 89.0000
  31
0.0
   0
LINE
   8
LEVEL003
   6
CONTINUOUS
  62
3
  10
 223.000
  20
 30.0000
  30
0.0
  11
 318.000
  21
 30.0000
  31
0.0
   0
LINE
   8
LEVEL003
   6
CONTINUOUS
  62
3
  10
 295.088
  20
 76.0000
  30
0.0
  11
 318.000
  21
 76.0000
  31
0.0
   0
LINE
   8
LEVEL003
   6
CONTINUOUS
  62
3
  10
 315.000
  20
 30.0000
  30
0.0
  11
 315.000
  21
 76.0000
  31
0.0
   0
LINE
   8
LEVEL003
   6
CONTINUOUS
  62
3
  10
 315.000
  20
 30.0000
  30
0.0
  11
 315.793
  21
 34.5000
  31
0.0
   0
LINE
   8
LEVEL003
   6
CONTINUOUS
  62
3
  10
 315.000
  20
 30.0000
  30
0.0
  11
 314.207
  21
 34.5000
  31
0.0
   0
LINE
   8
LEVEL003
   6
CONTINUOUS
  62
3
  10
 315.000
  20
 76.0000
  30
0.0
  11
 314.207
  21
 71.5000
  31
0.0
   0
LINE
   8
LEVEL003
   6
CONTINUOUS
  62
3
  10
 315.000
  20
 76.0000
  30
0.0
  11
 315.793
  21
 71.5000
  31
0.0
   0
TEXT
   8
LEVEL003
  62
3
  10
 313.800
  20
 50.0000
  30
0.0
  40
 6.00000
   1
46
  50
 90.0000
  41
 0.500000
   7
STANDARD
  72
1
  11
 313.800
  21
 53.0000
  31
0.0
   0
LINE
   8
LEVEL003
   6
CONTINUOUS
  62
3
  10
 198.000
  20
 385.000
  30
0.0
  11
 348.000
  21
 385.000
  31
0.0
   0
LINE
   8
LEVEL003
   6
CONTINUOUS
  62
3
  10
 223.000
  20
 30.0000
  30
0.0
  11
 348.000
  21
 30.0000
  31
0.0
   0
LINE
   8
LEVEL003
   6
CONTINUOUS
  62
3
  10
 345.000
  20
 385.000
  30
0.0
  11
 345.000
  21
 30.0000
  31
0.0
   0
LINE
   8
LEVEL003
   6
CONTINUOUS
  62
3
  10
 345.000
  20
 385.000
  30
0.0
  11
 344.207
  21
 380.500
  31
0.0
   0
LINE
   8
LEVEL003
   6
CONTINUOUS
  62
3
  10
 345.000
  20
 385.000
  30
0.0
  11
 345.793
  21
 380.500
  31
0.0
   0
LINE
   8
LEVEL003
   6
CONTINUOUS
  62
3
  10
 345.000
  20
 30.0000
  30
0.0
  11
 345.793
  21
 34.5000
  31
0.0
   0
LINE
   8
LEVEL003
   6
CONTINUOUS
  62
3
  10
 345.000
  20
 30.0000
  30
0.0
  11
 344.207
  21
 34.5000
  31
0.0
   0
TEXT
   8
LEVEL003
  62
3
  10
 343.800
  20
 203.000
  30
0.0
  40
 6.00000
   1
355
  50
 90.0000
  41
 0.500000
   7
STANDARD
  72
1
  11
 343.800
  21
 207.500
  31
0.0
   0
LINE
   8
LEVEL001
   6
CONTINUOUS
  62
7
  10
 250.500
  20
 298.000
  30
0.0
  11
 250.500
  21
 324.000
  31
0.0
   0
LINE
   8
LEVEL001
   6
CONTINUOUS
  62
7
  10
 229.500
  20
 306.961
  30
0.0
  11
 243.500
  21
 316.831
  31
0.0
   0
LINE
   8
LEVEL001
   6
CONTINUOUS
  62
7
  10
 229.500
  20
 315.039
  30
0.0
  11
 243.500
  21
 305.169
  31
0.0
   0
LINE
   8
LEVEL001
   6
CONTINUOUS
  62
7
  10
 229.500
  20
 306.961
  30
0.0
  11
 229.500
  21
 315.039
  31
0.0
   0
LINE
   8
LEVEL001
   6
CONTINUOUS
  62
7
  10
 229.500
  20
 315.039
  30
0.0
  11
 233.500
  21
 315.297
  31
0.0
   0
LINE
   8
LEVEL001
   6
CONTINUOUS
  62
7
  10
 233.500
  20
 315.297
  30
0.0
  11
 234.984
  21
 316.831
  31
0.0
   0
LINE
   8
LEVEL001
   6
CONTINUOUS
  62
7
  10
 234.984
  20
 316.831
  30
0.0
  11
 243.500
  21
 316.831
  31
0.0
   0
LINE
   8
LEVEL001
   6
CONTINUOUS
  62
7
  10
 243.500
  20
 316.831
  30
0.0
  11
 243.500
  21
 305.169
  31
0.0
   0
LINE
   8
LEVEL001
   6
CONTINUOUS
  62
7
  10
 243.500
  20
 305.169
  30
0.0
  11
 234.984
  21
 305.169
  31
0.0
   0
LINE
   8
LEVEL001
   6
CONTINUOUS
  62
7
  10
 234.984
  20
 305.169
  30
0.0
  11
 233.500
  21
 306.703
  31
0.0
   0
LINE
   8
LEVEL001
   6
CONTINUOUS
  62
7
  10
 233.500
  20
 306.703
  30
0.0
  11
 229.500
  21
 306.961
  31
0.0
   0
LINE
   8
LEVEL001
   6
CONTINUOUS
  62
7
  10
 257.000
  20
 296.000
  30
0.0
  11
 257.000
  21
 326.000
  31
0.0
   0
LINE
   8
LEVEL001
   6
CONTINUOUS
  62
7
  10
 257.000
  20
 326.000
  30
0.0
  11
 268.000
  21
 326.000
  31
0.0
   0
LINE
   8
LEVEL001
   6
CONTINUOUS
  62
7
  10
 268.000
  20
 326.000
  30
0.0
  11
 268.000
  21
 296.000
  31
0.0
   0
LINE
   8
LEVEL001
   6
CONTINUOUS
  62
7
  10
 268.000
  20
 296.000
  30
0.0
  11
 257.000
  21
 296.000
  31
0.0
   0
LINE
   8
LEVEL001
   6
CONTINUOUS
  62
3
  10
 233.500
  20
 319.643
  30
0.0
  11
 229.884
  21
 318.675
  31
0.0
   0
LINE
   8
LEVEL001
   6
CONTINUOUS
  62
7
  10
 233.500
  20
 319.643
  30
0.0
  11
 234.984
  21
 320.500
  31
0.0
   0
LINE
   8
LEVEL001
   6
CONTINUOUS
  62
7
  10
 250.500
  20
 320.500
  30
0.0
  11
 234.984
  21
 320.500
  31
0.0
   0
ARC
   8
LEVEL001
   6
CONTINUOUS
  62
7
  10
 252.000
  20
 324.000
  30
0.0
  40
 1.50000
  50
 90.0000
  51
 180.000
   0
LINE
   8
LEVEL001
   6
CONTINUOUS
  62
7
  10
 252.000
  20
 325.500
  30
0.0
  11
 257.000
  21
 325.500
  31
0.0
   0
LINE
   8
LEVEL001
   6
CONTINUOUS
  62
7
  10
 268.000
  20
 325.500
  30
0.0
  11
 273.000
  21
 325.500
  31
0.0
   0
LINE
   8
LEVEL001
   6
CONTINUOUS
  62
7
  10
 234.984
  20
 316.831
  30
0.0
  11
 234.984
  21
 320.500
  31
0.0
   0
LINE
   8
LEVEL001
   6
CONTINUOUS
  62
3
  10
 229.884
  20
 318.675
  30
0.0
  11
 229.884
  21
 315.039
  31
0.0
   0
LINE
   8
LEVEL001
   6
CONTINUOUS
  62
7
  10
 233.500
  20
 319.643
  30
0.0
  11
 233.500
  21
 315.297
  31
0.0
   0
LINE
   8
LEVEL001
   6
CONTINUOUS
  62
3
  10
 257.000
  20
 312.000
  30
0.0
  11
 268.000
  21
 312.000
  31
0.0
   0
LINE
   8
LEVEL001
   6
CONTINUOUS
  62
3
  10
 257.000
  20
 314.000
  30
0.0
  11
 268.000
  21
 314.000
  31
0.0
   0
LINE
   8
LEVEL001
   6
CONTINUOUS
  62
3
  10
 257.000
  20
 316.000
  30
0.0
  11
 268.000
  21
 316.000
  31
0.0
   0
LINE
   8
LEVEL001
   6
CONTINUOUS
  62
3
  10
 257.000
  20
 318.000
  30
0.0
  11
 268.000
  21
 318.000
  31
0.0
   0
LINE
   8
LEVEL001
   6
CONTINUOUS
  62
3
  10
 257.000
  20
 320.000
  30
0.0
  11
 268.000
  21
 320.000
  31
0.0
   0
LINE
   8
LEVEL001
   6
CONTINUOUS
  62
3
  10
 257.000
  20
 322.000
  30
0.0
  11
 268.000
  21
 322.000
  31
0.0
   0
LINE
   8
LEVEL001
   6
CONTINUOUS
  62
3
  10
 257.000
  20
 324.000
  30
0.0
  11
 268.000
  21
 324.000
  31
0.0
   0
ARC
   8
LEVEL001
   6
DASHDOT
  62
1
  10
 275.500
  20
 298.000
  30
0.0
  40
 1.00000
  50
 179.998
  51
 269.999
   0
ARC
   8
LEVEL001
   6
DASHDOT
  62
1
  10
 283.500
  20
 298.000
  30
0.0
  40
 1.00000
  50
 270.001
  51
 0.174683E-2
   0
LINE
   8
LEVEL001
   6
DASHDOT
  62
1
  10
 275.500
  20
 297.000
  30
0.0
  11
 283.500
  21
 297.000
  31
0.0
   0
LINE
   8
LEVEL001
   6
DASHDOT
  62
1
  10
 284.500
  20
 324.000
  30
0.0
  11
 284.500
  21
 298.000
  31
0.0
   0
CIRCLE
   8
LEVEL001
   6
DASHDOT
  62
1
  10
 287.500
  20
 311.000
  30
0.0
  40
 1.50000
   0
ARC
   8
LEVEL001
   6
DASHDOT
  62
1
  10
 286.500
  20
 305.500
  30
0.0
  40
 2.00000
  50
 89.9996
  51
 179.999
   0
LINE
   8
LEVEL001
   6
DASHDOT
  62
1
  10
 286.500
  20
 307.500
  30
0.0
  11
 287.000
  21
 307.500
  31
0.0
   0
ARC
   8
LEVEL001
   6
DASHDOT
  62
1
  10
 287.000
  20
 311.000
  30
0.0
  40
 3.50002
  50
 270.000
  51
 90.0000
   0
ARC
   8
LEVEL001
   6
DASHDOT
  62
1
  10
 283.500
  20
 324.000
  30
0.0
  40
 1.00000
  50
 359.998
  51
 89.9991
   0
LINE
   8
LEVEL001
   6
DASHDOT
  62
1
  10
 275.500
  20
 325.000
  30
0.0
  11
 283.500
  21
 325.000
  31
0.0
   0
ARC
   8
LEVEL001
   6
DASHDOT
  62
1
  10
 286.500
  20
 316.500
  30
0.0
  40
 2.00000
  50
 180.001
  51
 270.000
   0
LINE
   8
LEVEL001
   6
DASHDOT
  62
1
  10
 286.500
  20
 314.500
  30
0.0
  11
 287.000
  21
 314.500
  31
0.0
   0
ARC
   8
LEVEL001
   6
DASHDOT
  62
1
  10
 275.500
  20
 324.000
  30
0.0
  40
 1.00000
  50
 90.0009
  51
 180.002
   0
LINE
   8
LEVEL001
   6
CONTINUOUS
  62
7
  10
 233.500
  20
 302.357
  30
0.0
  11
 234.984
  21
 301.500
  31
0.0
   0
LINE
   8
LEVEL001
   6
CONTINUOUS
  62
7
  10
 250.500
  20
 301.500
  30
0.0
  11
 234.984
  21
 301.500
  31
0.0
   0
ARC
   8
LEVEL001
   6
CONTINUOUS
  62
7
  10
 252.000
  20
 298.000
  30
0.0
  40
 1.50000
  50
 180.000
  51
 270.000
   0
ARC
   8
LEVEL001
   6
CONTINUOUS
  62
7
  10
 273.000
  20
 298.000
  30
0.0
  40
 1.50000
  50
 270.000
  51
0.0
   0
LINE
   8
LEVEL001
   6
CONTINUOUS
  62
7
  10
 274.500
  20
 324.000
  30
0.0
  11
 274.500
  21
 298.000
  31
0.0
   0
LINE
   8
LEVEL001
   6
CONTINUOUS
  62
7
  10
 234.984
  20
 301.500
  30
0.0
  11
 234.984
  21
 305.169
  31
0.0
   0
LINE
   8
LEVEL001
   6
CONTINUOUS
  62
7
  10
 233.500
  20
 306.703
  30
0.0
  11
 233.500
  21
 302.357
  31
0.0
   0
LINE
   8
LEVEL001
   6
CONTINUOUS
  62
7
  10
 252.000
  20
 296.500
  30
0.0
  11
 257.000
  21
 296.500
  31
0.0
   0
LINE
   8
LEVEL001
   6
CONTINUOUS
  62
7
  10
 268.000
  20
 296.500
  30
0.0
  11
 273.000
  21
 296.500
  31
0.0
   0
ARC
   8
LEVEL001
   6
CONTINUOUS
  62
7
  10
 273.000
  20
 324.000
  30
0.0
  40
 1.50000
  50
 0.434252E-11
  51
 90.0000
   0
LINE
   8
LEVEL001
   6
CONTINUOUS
  62
3
  10
 257.000
  20
 298.000
  30
0.0
  11
 268.000
  21
 298.000
  31
0.0
   0
LINE
   8
LEVEL001
   6
CONTINUOUS
  62
3
  10
 257.000
  20
 300.000
  30
0.0
  11
 268.000
  21
 300.000
  31
0.0
   0
LINE
   8
LEVEL001
   6
CONTINUOUS
  62
3
  10
 257.000
  20
 302.000
  30
0.0
  11
 268.000
  21
 302.000
  31
0.0
   0
LINE
   8
LEVEL001
   6
CONTINUOUS
  62
3
  10
 257.000
  20
 304.000
  30
0.0
  11
 268.000
  21
 304.000
  31
0.0
   0
LINE
   8
LEVEL001
   6
CONTINUOUS
  62
3
  10
 257.000
  20
 306.000
  30
0.0
  11
 268.000
  21
 306.000
  31
0.0
   0
LINE
   8
LEVEL001
   6
CONTINUOUS
  62
3
  10
 257.000
  20
 308.000
  30
0.0
  11
 268.000
  21
 308.000
  31
0.0
   0
LINE
   8
LEVEL001
   6
CONTINUOUS
  62
3
  10
 257.000
  20
 310.000
  30
0.0
  11
 268.000
  21
 310.000
  31
0.0
   0
LINE
   8
LEVEL001
   6
CONTINUOUS
  62
3
  10
 233.500
  20
 302.357
  30
0.0
  11
 229.884
  21
 303.326
  31
0.0
   0
LINE
   8
LEVEL001
   6
CONTINUOUS
  62
3
  10
 229.884
  20
 306.961
  30
0.0
  11
 229.884
  21
 303.326
  31
0.0
   0
LINE
   8
LEVEL003
   6
CONTINUOUS
  62
3
  10
 222.500
  20
 375.000
  30
0.0
  11
 318.000
  21
 375.000
  31
0.0
   0
LINE
   8
LEVEL003
   6
CONTINUOUS
  62
3
  10
 295.088
  20
 311.000
  30
0.0
  11
 318.000
  21
 311.000
  31
0.0
   0
LINE
   8
LEVEL003
   6
CONTINUOUS
  62
3
  10
 315.000
  20
 375.000
  30
0.0
  11
 315.000
  21
 311.000
  31
0.0
   0
LINE
   8
LEVEL003
   6
CONTINUOUS
  62
3
  10
 315.000
  20
 375.000
  30
0.0
  11
 314.207
  21
 370.500
  31
0.0
   0
LINE
   8
LEVEL003
   6
CONTINUOUS
  62
3
  10
 315.000
  20
 375.000
  30
0.0
  11
 315.793
  21
 370.500
  31
0.0
   0
LINE
   8
LEVEL003
   6
CONTINUOUS
  62
3
  10
 315.000
  20
 311.000
  30
0.0
  11
 315.793
  21
 315.500
  31
0.0
   0
LINE
   8
LEVEL003
   6
CONTINUOUS
  62
3
  10
 315.000
  20
 311.000
  30
0.0
  11
 314.207
  21
 315.500
  31
0.0
   0
TEXT
   8
LEVEL003
  62
3
  10
 313.800
  20
 340.000
  30
0.0
  40
 6.00000
   1
64
  50
 90.0000
  41
 0.500000
   7
STANDARD
  72
1
  11
 313.800
  21
 343.000
  31
0.0
   0
LINE
   8
LEVEL001
   6
CONTINUOUS
  62
7
  10
 121.500
  20
 32.0000
  30
0.0
  11
 223.500
  21
 32.0000
  31
0.0
   0
LINE
   8
LEVEL001
   6
CONTINUOUS
  62
7
  10
 124.000
  20
 375.000
  30
0.0
  11
 221.000
  21
 375.000
  31
0.0
   0
LINE
   8
LEVEL001
   6
CONTINUOUS
  62
7
  10
 147.500
  20
 384.000
  30
0.0
  11
 197.500
  21
 384.000
  31
0.0
   0
LINE
   8
LEVEL001
   6
CONTINUOUS
  62
7
  10
 123.000
  20
 374.000
  30
0.0
  11
 222.000
  21
 374.000
  31
0.0
   0
LINE
   8
LEVEL001
   6
CONTINUOUS
  62
3
  10
 222.500
  20
 370.000
  30
0.0
  11
 222.500
  21
 330.000
  31
0.0
   0
LINE
   8
LEVEL001
   6
CONTINUOUS
  62
3
  10
 122.500
  20
 370.000
  30
0.0
  11
 122.500
  21
 330.000
  31
0.0
   0
LINE
   8
LEVEL001
   6
CONTINUOUS
  62
7
  10
 222.500
  20
 370.000
  30
0.0
  11
 122.500
  21
 370.000
  31
0.0
   0
LINE
   8
LEVEL001
   6
CONTINUOUS
  62
7
  10
 223.500
  20
 369.000
  30
0.0
  11
 121.500
  21
 369.000
  31
0.0
   0
LINE
   8
LEVEL001
   6
CONTINUOUS
  62
7
  10
 121.500
  20
 330.000
  30
0.0
  11
 223.500
  21
 330.000
  31
0.0
   0
LINE
   8
LEVEL001
   6
CONTINUOUS
  62
7
  10
 223.500
  20
 326.268
  30
0.0
  11
 121.500
  21
 326.268
  31
0.0
   0
LINE
   8
LEVEL001
   6
CONTINUOUS
  62
7
  10
 233.500
  20
 319.643
  30
0.0
  11
 223.500
  21
 319.331
  31
0.0
   0
LINE
   8
LEVEL001
   6
CONTINUOUS
  62
7
  10
 233.500
  20
 302.357
  30
0.0
  11
 223.500
  21
 302.669
  31
0.0
   0
LINE
   8
LEVEL001
   6
CONTINUOUS
  62
7
  10
 223.500
  20
 326.268
  30
0.0
  11
 223.500
  21
 32.0000
  31
0.0
   0
LINE
   8
LEVEL001
   6
CONTINUOUS
  62
7
  10
 233.500
  20
 84.6435
  30
0.0
  11
 223.500
  21
 84.3310
  31
0.0
   0
LINE
   8
LEVEL001
   6
CONTINUOUS
  62
7
  10
 233.500
  20
 67.3565
  30
0.0
  11
 223.500
  21
 67.6690
  31
0.0
   0
LINE
   8
LEVEL001
   6
CONTINUOUS
  62
3
  10
 229.884
  20
 68.3255
  30
0.0
  11
 223.500
  21
 68.5250
  31
0.0
   0
LINE
   8
LEVEL001
   6
CONTINUOUS
  62
3
  10
 229.884
  20
 83.6745
  30
0.0
  11
 223.500
  21
 83.4750
  31
0.0
   0
LINE
   8
LEVEL001
   6
CONTINUOUS
  62
3
  10
 229.884
  20
 303.326
  30
0.0
  11
 223.500
  21
 303.525
  31
0.0
   0
LINE
   8
LEVEL001
   6
CONTINUOUS
  62
3
  10
 229.884
  20
 318.675
  30
0.0
  11
 223.500
  21
 318.475
  31
0.0
   0
LINE
   8
LEVEL001
   6
DASHDOT
  62
1
  10
 172.500
  20
 397.500
  30
0.0
  11
 172.500
  21
 22.5000
  31
0.0
   0
LINE
   8
LEVEL001
   6
DASHDOT
  62
1
  10
 293.588
  20
 76.0000
  30
0.0
  11
 217.500
  21
 76.0000
  31
0.0
   0
LINE
   8
LEVEL001
   6
DASHDOT
  62
1
  10
 293.588
  20
 311.000
  30
0.0
  11
 217.500
  21
 311.000
  31
0.0
   0
LINE
   8
LEVEL004
   6
DOT
  62
3
  10
 145.000
  20
 120.000
  30
0.0
  11
 145.000
  21
 372.000
  31
0.0
   0
LINE
   8
LEVEL004
   6
DOT
  62
3
  10
 135.000
  20
 300.500
  30
0.0
  11
 135.000
  21
 53.0000
  31
0.0
   0
LINE
   8
LEVEL004
   6
DOT
  62
3
  10
 200.000
  20
 120.000
  30
0.0
  11
 200.000
  21
 372.000
  31
0.0
   0
LINE
   8
LEVEL004
   6
DOT
  62
3
  10
 210.000
  20
 300.500
  30
0.0
  11
 210.000
  21
 53.0000
  31
0.0
   0
LINE
   8
LEVEL004
   6
DOT
  62
3
  10
 154.500
  20
 30.0000
  30
0.0
  11
 155.500
  21
 31.0000
  31
0.0
   0
LINE
   8
LEVEL004
   6
DOT
  62
3
  10
 155.500
  20
 31.0000
  30
0.0
  11
 155.500
  21
 58.0000
  31
0.0
   0
ARC
   8
LEVEL004
   6
DOT
  62
3
  10
 155.500
  20
 59.0000
  30
0.0
  40
 1.00000
  50
 179.998
  51
 270.000
   0
ARC
   8
LEVEL004
   6
DOT
  62
3
  10
 155.500
  20
 60.0000
  30
0.0
  40
 1.00000
  50
 89.9996
  51
 179.999
   0
LINE
   8
LEVEL004
   6
DOT
  62
3
  10
 154.500
  20
 59.0000
  30
0.0
  11
 154.500
  21
 60.0000
  31
0.0
   0
LINE
   8
LEVEL004
   6
DOT
  62
3
  10
 154.500
  20
 30.0000
  30
0.0
  11
 154.500
  21
 59.0000
  31
0.0
   0
LINE
   8
LEVEL004
   6
DOT
  62
3
  10
 190.500
  20
 30.0000
  30
0.0
  11
 189.500
  21
 31.0000
  31
0.0
   0
LINE
   8
LEVEL004
   6
DOT
  62
3
  10
 189.500
  20
 31.0000
  30
0.0
  11
 189.500
  21
 58.0000
  31
0.0
   0
ARC
   8
LEVEL004
   6
DOT
  62
3
  10
 189.500
  20
 59.0000
  30
0.0
  40
 1.00000
  50
 270.000
  51
 0.174682E-2
   0
ARC
   8
LEVEL004
   6
DOT
  62
3
  10
 189.500
  20
 60.0000
  30
0.0
  40
 1.00000
  50
 0.875970E-3
  51
 90.0004
   0
LINE
   8
LEVEL004
   6
DOT
  62
3
  10
 190.500
  20
 59.0000
  30
0.0
  11
 190.500
  21
 60.0000
  31
0.0
   0
LINE
   8
LEVEL004
   6
DOT
  62
3
  10
 190.500
  20
 30.0000
  30
0.0
  11
 190.500
  21
 59.0000
  31
0.0
   0
LINE
   8
LEVEL004
   6
DOT
  62
3
  10
 155.500
  20
 31.0000
  30
0.0
  11
 189.500
  21
 31.0000
  31
0.0
   0
LINE
   8
LEVEL004
   6
DOT
  62
3
  10
 155.500
  20
 58.0000
  30
0.0
  11
 189.500
  21
 58.0000
  31
0.0
   0
LINE
   8
LEVEL004
   6
DOT
  62
3
  10
 155.500
  20
 61.0000
  30
0.0
  11
 189.500
  21
 61.0000
  31
0.0
   0
LINE
   8
LEVEL004
   6
DOT
  62
3
  10
 154.000
  20
 375.000
  30
0.0
  11
 154.500
  21
 374.500
  31
0.0
   0
LINE
   8
LEVEL004
   6
DOT
  62
3
  10
 154.500
  20
 373.000
  30
0.0
  11
 154.500
  21
 374.500
  31
0.0
   0
ARC
   8
LEVEL004
   6
DOT
  62
3
  10
 154.250
  20
 373.500
  30
0.0
  40
 1.50000
  50
 0.217126E-10
  51
 90.0000
   0
LINE
   8
LEVEL004
   6
DOT
  62
3
  10
 155.750
  20
 366.000
  30
0.0
  11
 167.750
  21
 366.000
  31
0.0
   0
LINE
   8
LEVEL004
   6
DOT
  62
3
  10
 167.750
  20
 366.000
  30
0.0
  11
 168.905
  21
 368.000
  31
0.0
   0
LINE
   8
LEVEL004
   6
DOT
  62
3
  10
 168.905
  20
 368.000
  30
0.0
  11
 167.750
  21
 370.000
  31
0.0
   0
LINE
   8
LEVEL004
   6
DOT
  62
3
  10
 167.750
  20
 370.000
  30
0.0
  11
 155.750
  21
 370.000
  31
0.0
   0
LINE
   8
LEVEL004
   6
DOT
  62
3
  10
 167.750
  20
 370.000
  30
0.0
  11
 167.750
  21
 366.000
  31
0.0
   0
CIRCLE
   8
LEVEL004
   6
DOT
  62
3
  10
 157.484
  20
 368.000
  30
0.0
  40
 1.98438
   0
LINE
   8
LEVEL004
   6
DOT
  62
3
  10
 155.750
  20
 363.000
  30
0.0
  11
 156.750
  21
 362.000
  31
0.0
   0
LINE
   8
LEVEL004
   6
DOT
  62
3
  10
 156.750
  20
 362.000
  30
0.0
  11
 188.250
  21
 362.000
  31
0.0
   0
LINE
   8
LEVEL004
   6
DOT
  62
3
  10
 155.750
  20
 373.500
  30
0.0
  11
 155.750
  21
 363.000
  31
0.0
   0
LINE
   8
LEVEL004
   6
DOT
  62
3
  10
 154.500
  20
 347.000
  30
0.0
  11
 155.500
  21
 343.268
  31
0.0
   0
LINE
   8
LEVEL004
   6
DOT
  62
3
  10
 155.500
  20
 343.268
  30
0.0
  11
 189.500
  21
 343.268
  31
0.0
   0
LINE
   8
LEVEL004
   6
DOT
  62
3
  10
 154.500
  20
 373.000
  30
0.0
  11
 154.500
  21
 347.000
  31
0.0
   0
LINE
   8
LEVEL004
   6
DOT
  62
3
  10
 189.250
  20
 363.000
  30
0.0
  11
 188.250
  21
 362.000
  31
0.0
   0
LINE
   8
LEVEL004
   6
DOT
  62
3
  10
 191.000
  20
 375.000
  30
0.0
  11
 190.500
  21
 374.500
  31
0.0
   0
LINE
   8
LEVEL004
   6
DOT
  62
3
  10
 190.500
  20
 373.000
  30
0.0
  11
 190.500
  21
 374.500
  31
0.0
   0
ARC
   8
LEVEL004
   6
DOT
  62
3
  10
 190.750
  20
 373.500
  30
0.0
  40
 1.50000
  50
 90.0000
  51
 180.000
   0
LINE
   8
LEVEL004
   6
DOT
  62
3
  10
 189.250
  20
 373.500
  30
0.0
  11
 189.250
  21
 363.000
  31
0.0
   0
LINE
   8
LEVEL004
   6
DOT
  62
3
  10
 190.500
  20
 347.000
  30
0.0
  11
 189.500
  21
 343.268
  31
0.0
   0
LINE
   8
LEVEL004
   6
DOT
  62
3
  10
 154.500
  20
 347.000
  30
0.0
  11
 190.500
  21
 347.000
  31
0.0
   0
LINE
   8
LEVEL004
   6
DOT
  62
3
  10
 190.500
  20
 373.000
  30
0.0
  11
 190.500
  21
 347.000
  31
0.0
   0
LINE
   8
LEVEL004
   6
DOT
  62
3
  10
 154.500
  20
 373.000
  30
0.0
  11
 155.500
  21
 372.000
  31
0.0
   0
LINE
   8
LEVEL004
   6
DOT
  62
3
  10
 155.500
  20
 372.000
  30
0.0
  11
 155.500
  21
 343.268
  31
0.0
   0
LINE
   8
LEVEL004
   6
DOT
  62
3
  10
 155.500
  20
 343.268
  30
0.0
  11
 172.500
  21
 333.453
  31
0.0
   0
LINE
   8
LEVEL004
   6
DOT
  62
3
  10
 172.500
  20
 333.453
  30
0.0
  11
 189.500
  21
 343.268
  31
0.0
   0
LINE
   8
LEVEL004
   6
DOT
  62
3
  10
 189.500
  20
 343.268
  30
0.0
  11
 189.500
  21
 372.000
  31
0.0
   0
LINE
   8
LEVEL004
   6
DOT
  62
3
  10
 189.500
  20
 372.000
  30
0.0
  11
 190.500
  21
 373.000
  31
0.0
   0
ARC
   8
LEVEL004
   6
DOT
  62
3
  10
 189.500
  20
 385.000
  30
0.0
  40
 1.00001
  50
 180.000
  51
0.0
   0
ARC
   8
LEVEL004
   6
DOT
  62
3
  10
 181.500
  20
 385.000
  30
0.0
  40
 1.00001
  50
 180.000
  51
0.0
   0
ARC
   8
LEVEL004
   6
DOT
  62
3
  10
 155.500
  20
 385.000
  30
0.0
  40
 1.00000
  50
 180.000
  51
0.0
   0
ARC
   8
LEVEL004
   6
DOT
  62
3
  10
 163.500
  20
 385.000
  30
0.0
  40
 1.00001
  50
 180.000
  51
0.0
   0
LINE
   8
LEVEL004
   6
DASHDOT
  62
1
  10
 152.750
  20
 368.000
  30
0.0
  11
 171.905
  21
 368.000
  31
0.0
   0
LINE
   8
LEVEL004
   6
DASHDOT
  62
1
  10
 159.344
  20
 366.500
  30
0.0
  11
 159.904
  21
 369.500
  31
0.0
   0
LINE
   8
LEVEL004
   6
DASHDOT
  62
1
  10
 159.904
  20
 369.500
  30
0.0
  11
 160.465
  21
 366.500
  31
0.0
   0
LINE
   8
LEVEL004
   6
DASHDOT
  62
1
  10
 160.465
  20
 366.500
  30
0.0
  11
 161.025
  21
 369.500
  31
0.0
   0
LINE
   8
LEVEL004
   6
DASHDOT
  62
1
  10
 161.025
  20
 369.500
  30
0.0
  11
 161.586
  21
 366.500
  31
0.0
   0
LINE
   8
LEVEL004
   6
DASHDOT
  62
1
  10
 161.586
  20
 366.500
  30
0.0
  11
 162.146
  21
 369.500
  31
0.0
   0
LINE
   8
LEVEL004
   6
DASHDOT
  62
1
  10
 162.146
  20
 369.500
  30
0.0
  11
 162.706
  21
 366.500
  31
0.0
   0
LINE
   8
LEVEL004
   6
DASHDOT
  62
1
  10
 162.706
  20
 366.500
  30
0.0
  11
 163.267
  21
 369.500
  31
0.0
   0
LINE
   8
LEVEL004
   6
DASHDOT
  62
1
  10
 163.267
  20
 369.500
  30
0.0
  11
 163.827
  21
 366.500
  31
0.0
   0
LINE
   8
LEVEL004
   6
DASHDOT
  62
1
  10
 163.827
  20
 366.500
  30
0.0
  11
 164.388
  21
 369.500
  31
0.0
   0
LINE
   8
LEVEL004
   6
DASHDOT
  62
1
  10
 164.388
  20
 369.500
  30
0.0
  11
 164.948
  21
 366.500
  31
0.0
   0
LINE
   8
LEVEL004
   6
DASHDOT
  62
1
  10
 164.948
  20
 366.500
  30
0.0
  11
 165.508
  21
 369.500
  31
0.0
   0
LINE
   8
LEVEL004
   6
DASHDOT
  62
1
  10
 165.508
  20
 369.500
  30
0.0
  11
 166.069
  21
 366.500
  31
0.0
   0
LINE
   8
LEVEL004
   6
DASHDOT
  62
1
  10
 166.069
  20
 366.500
  30
0.0
  11
 166.629
  21
 369.500
  31
0.0
   0
LINE
   8
LEVEL004
   6
DASHDOT
  62
1
  10
 166.629
  20
 369.500
  30
0.0
  11
 167.190
  21
 366.500
  31
0.0
   0
LINE
   8
LEVEL004
   6
DASHDOT
  62
1
  10
 167.190
  20
 366.500
  30
0.0
  11
 167.750
  21
 369.500
  31
0.0
   0
CIRCLE
   8
LEVEL003
   6
CONTINUOUS
  62
7
  10
 362.218
  20
 19.7707
  30
0.0
  40
 3.00000
   0
LINE
   8
LEVEL003
   6
CONTINUOUS
  62
7
  10
 368.106
  20
 22.7707
  30
0.0
  11
 364.297
  21
 16.1707
  31
0.0
   0
LINE
   8
LEVEL003
   6
CONTINUOUS
  62
7
  10
 364.297
  20
 16.1707
  30
0.0
  11
 356.676
  21
 16.1707
  31
0.0
   0
LINE
   8
LEVEL003
   6
CONTINUOUS
  62
7
  10
 355.809
  20
 14.6707
  30
0.0
  11
 369.430
  21
 14.6707
  31
0.0
   0
LINE
   8
LEVEL003
   6
CONTINUOUS
  62
7
  10
 369.430
  20
 14.6707
  30
0.0
  11
 374.106
  21
 22.7707
  31
0.0
   0
LINE
   8
LEVEL003
   6
CONTINUOUS
  62
7
  10
 374.106
  20
 22.7707
  30
0.0
  11
 368.106
  21
 22.7707
  31
0.0
   0
LINE
   8
LEVEL003
   6
CONTINUOUS
  62
7
  10
 356.676
  20
 16.1707
  30
0.0
  11
 355.809
  21
 14.6707
  31
0.0
   0
TEXT
   8
LEVEL003
  62
7
  10
 374.191
  20
 12.7200
  30
0.0
  40
 10.0000
   1
ＯＳＡＫＡ ＪＡＣＫ
   7
STANDARD
   0
TEXT
   8
LEVEL003
  62
7
  10
 377.102
  20
 29.6134
  30
0.0
  40
 6.00000
   1
Model : Ｅ３０Ｈ２０
   7
STANDARD
   0
LINE
   8
LEVEL003
   6
CONTINUOUS
  62
3
  10
 240.000
  20
 45.0000
  30
0.0
  11
 282.110
  21
 45.0000
  31
0.0
   0
LINE
   8
LEVEL003
   6
CONTINUOUS
  62
3
  10
 262.500
  20
 337.500
  30
0.0
  11
 305.801
  21
 337.500
  31
0.0
   0
ENDSEC
   0
EOF
