   0
SECTION
   2
HEADER
   9
$LIMMIN
  10
0.0
  20
0.0
   9
$LIMMAX
  10
 630.000
  20
 598.000
   9
$EXTMIN
  10
0.0
  20
0.0
   9
$EXTMAX
  10
 630.000
  20
 598.000
   9
$LTSCALE
  40
 12.6000
   0
ENDSEC
   0
SECTION
   2
TABLES
  0
TABLE
  2
LTYPE
 70
    25
  0
LTYPE
  2
CONTINUOUS
 70
    64
  3
Solid line
 72
    65
 73
     0
 40
0.0
  0
LTYPE
  2
BORDER
 70
    64
  3
__ __ . __ __ . __ __ . __ __ . __ __ . __ __ .
 72
    65
 73
     6
 40
1.75
 49
0.5
 49
-0.25
 49
0.5
 49
-0.25
 49
0.0
 49
-0.25
  0
LTYPE
  2
BORDER2
 70
    64
  3
__.__.__.__.__.__.__.__.__.__.__.__.__.__.__.__
 72
    65
 73
     6
 40
0.875
 49
0.25
 49
-0.125
 49
0.25
 49
-0.125
 49
0.0
 49
-0.125
  0
LTYPE
  2
BORDERX2
 70
    64
  3
____  ____  .  ____  ____  .  ____  ____  .  __
 72
    65
 73
     6
 40
3.5
 49
1.0
 49
-0.5
 49
1.0
 49
-0.5
 49
0.0
 49
-0.5
  0
LTYPE
  2
CENTER
 70
    64
  3
____ _ ____ _ ____ _ ____ _ ____ _ ____ _ ____ 
 72
    65
 73
     4
 40
2.0
 49
1.25
 49
-0.25
 49
0.25
 49
-0.25
  0
LTYPE
  2
CENTER2
 70
    64
  3
___ _ ___ _ ___ _ ___ _ ___ _ ___ _ ___ _ ___ _
 72
    65
 73
     4
 40
1.125
 49
0.75
 49
-0.125
 49
0.125
 49
-0.125
  0
LTYPE
  2
CENTERX2
 70
    64
  3
________  __  ________  __  ________  __  _____
 72
    65
 73
     4
 40
4.0
 49
2.5
 49
-0.5
 49
0.5
 49
-0.5
  0
LTYPE
  2
DASHDOT
 70
    64
  3
__ . __ . __ . __ . __ . __ . __ . __ . __ . __
 72
    65
 73
     4
 40
1.0
 49
0.5
 49
-0.25
 49
0.0
 49
-0.25
  0
LTYPE
  2
DASHDOT2
 70
    64
  3
_._._._._._._._._._._._._._._._._._._._._._._._
 72
    65
 73
     4
 40
0.5
 49
0.25
 49
-0.125
 49
0.0
 49
-0.125
  0
LTYPE
  2
DASHDOTX2
 70
    64
  3
____  .  ____  .  ____  .  ____  .  ____  .  __
 72
    65
 73
     4
 40
2.0
 49
1.0
 49
-0.5
 49
0.0
 49
-0.5
  0
LTYPE
  2
DASHED
 70
    64
  3
__ __ __ __ __ __ __ __ __ __ __ __ __ __ __ __
 72
    65
 73
     2
 40
0.75
 49
0.5
 49
-0.25
  0
LTYPE
  2
DASHED2
 70
    64
  3
_ _ _ _ _ _ _ _ _ _ _ _ _ _ _ _ _ _ _ _ _ _ _ _
 72
    65
 73
     2
 40
0.375
 49
0.25
 49
-0.125
  0
LTYPE
  2
DASHEDX2
 70
    64
  3
____  ____  ____  ____  ____  ____  ____  ____ 
 72
    65
 73
     2
 40
1.5
 49
1.0
 49
-0.5
  0
LTYPE
  2
DIVIDE
 70
    64
  3
____ . . ____ . . ____ . . ____ . . ____ . . __
 72
    65
 73
     6
 40
1.25
 49
0.5
 49
-0.25
 49
0.0
 49
-0.25
 49
0.0
 49
-0.25
  0
LTYPE
  2
DIVIDE2
 70
    64
  3
__..__..__..__..__..__..__..__..__..__..__..__.
 72
    65
 73
     6
 40
0.625
 49
0.25
 49
-0.125
 49
0.0
 49
-0.125
 49
0.0
 49
-0.125
  0
LTYPE
  2
DIVIDEX2
 70
    64
  3
________  .  .  ________  .  .  ________  .  . 
 72
    65
 73
     6
 40
2.5
 49
1.0
 49
-0.5
 49
0.0
 49
-0.5
 49
0.0
 49
-0.5
  0
LTYPE
  2
DOT
 70
    64
  3
. . . . . . . . . . . . . . . . . . . . . . . .
 72
    65
 73
     2
 40
0.25
 49
0.0
 49
-0.25
  0
LTYPE
  2
DOT2
 70
    64
  3
...............................................
 72
    65
 73
     2
 40
0.125
 49
0.0
 49
-0.125
  0
LTYPE
  2
DOTX2
 70
    64
  3
.  .  .  .  .  .  .  .  .  .  .  .  .  .  .  . 
 72
    65
 73
     2
 40
0.5
 49
0.0
 49
-0.5
  0
LTYPE
  2
HIDDEN
 70
    64
  3
__ __ __ __ __ __ __ __ __ __ __ __ __ __ __ __
 72
    65
 73
     2
 40
0.375
 49
0.25
 49
-0.125
  0
LTYPE
  2
HIDDEN2
 70
    64
  3
_ _ _ _ _ _ _ _ _ _ _ _ _ _ _ _ _ _ _ _ _ _ _ _
 72
    65
 73
     2
 40
0.1875
 49
0.125
 49
-0.0625
  0
LTYPE
  2
HIDDENX2
 70
    64
  3
____ ____ ____ ____ ____ ____ ____ ____ ____ __
 72
    65
 73
     2
 40
0.75
 49
0.5
 49
-0.25
  0
LTYPE
  2
PHANTOM
 70
    64
  3
______  __  __  ______  __  __  ______  __  __ 
 72
    65
 73
     6
 40
2.5
 49
1.25
 49
-0.25
 49
0.25
 49
-0.25
 49
0.25
 49
-0.25
  0
LTYPE
  2
PHANTOM2
 70
    64
  3
___ _ _ ___ _ _ ___ _ _ ___ _ _ ___ _ _ ___ _ _
 72
    65
 73
     6
 40
1.25
 49
0.625
 49
-0.125
 49
0.125
 49
-0.125
 49
0.125
 49
-0.125
  0
LTYPE
  2
PHANTOMX2
 70
    64
  3
____________    ____    ____    ____________   
 72
    65
 73
     6
 40
5.0
 49
2.5
 49
-0.5
 49
0.5
 49
-0.5
 49
0.5
 49
-0.5
  0
ENDTAB
  0
TABLE
  2
STYLE
 70
     2
  0
STYLE
  2
STANDARD
 70
0
 40
0.0
 41
1.0
 50
0.0
 71
0
 42
0.2
  3
TXT
  4
BIGFONT
  0
STYLE
  2
STANDARD1
 70
     4
 40
0.0
 41
1.0
 50
0.0
 71
     0
 42
0.2
  3
TXT
  4
BIGFONT
  0
ENDTAB
   0
TABLE
   2
LAYER
  70
4
   0
LAYER
   2
0
  70
0
  62
7
   6
CONTINUOUS
   0
LAYER
   2
LEVEL001
  70
0
  62
7
   6
CONTINUOUS
   0
LAYER
   2
LEVEL003
  70
0
  62
7
   6
CONTINUOUS
   0
LAYER
   2
LEVEL004
  70
0
  62
7
   6
CONTINUOUS
   0
ENDTAB
   0
ENDSEC
   0
SECTION
   2
ENTITIES
   0
LINE
   8
LEVEL001
   6
CONTINUOUS
  62
7
  10
 212.500
  20
 39.0000
  30
0.0
  11
 211.000
  21
 37.5000
  31
0.0
   0
LINE
   8
LEVEL001
   6
CONTINUOUS
  62
7
  10
 87.5000
  20
 39.0000
  30
0.0
  11
 89.0000
  21
 37.5000
  31
0.0
   0
LINE
   8
LEVEL001
   6
CONTINUOUS
  62
7
  10
 211.000
  20
 37.5000
  30
0.0
  11
 89.0000
  21
 37.5000
  31
0.0
   0
LINE
   8
LEVEL003
   6
CONTINUOUS
  62
3
  10
 127.500
  20
 36.0000
  30
0.0
  11
 127.500
  21
 12.0000
  31
0.0
   0
LINE
   8
LEVEL003
   6
CONTINUOUS
  62
3
  10
 172.500
  20
 36.0000
  30
0.0
  11
 172.500
  21
 12.0000
  31
0.0
   0
LINE
   8
LEVEL003
   6
CONTINUOUS
  62
3
  10
 127.500
  20
 15.0000
  30
0.0
  11
 172.500
  21
 15.0000
  31
0.0
   0
LINE
   8
LEVEL003
   6
CONTINUOUS
  62
3
  10
 127.500
  20
 15.0000
  30
0.0
  11
 132.000
  21
 14.2065
  31
0.0
   0
LINE
   8
LEVEL003
   6
CONTINUOUS
  62
3
  10
 127.500
  20
 15.0000
  30
0.0
  11
 132.000
  21
 15.7935
  31
0.0
   0
LINE
   8
LEVEL003
   6
CONTINUOUS
  62
3
  10
 172.500
  20
 15.0000
  30
0.0
  11
 168.000
  21
 15.7935
  31
0.0
   0
LINE
   8
LEVEL003
   6
CONTINUOUS
  62
3
  10
 172.500
  20
 15.0000
  30
0.0
  11
 168.000
  21
 14.2065
  31
0.0
   0
TEXT
   8
LEVEL003
  62
3
  10
 141.000
  20
 16.2000
  30
0.0
  40
 6.00000
   1
M45×2
   7
STANDARD
  72
1
  11
 150.000
  21
 16.2000
  31
0.0
   0
LINE
   8
LEVEL003
   6
CONTINUOUS
  62
3
  10
 212.500
  20
 37.5000
  30
0.0
  11
 348.000
  21
 37.5000
  31
0.0
   0
LINE
   8
LEVEL003
   6
CONTINUOUS
  62
3
  10
 345.000
  20
 37.5000
  30
0.0
  11
 345.793
  21
 42.0000
  31
0.0
   0
LINE
   8
LEVEL003
   6
CONTINUOUS
  62
3
  10
 345.000
  20
 37.5000
  30
0.0
  11
 344.207
  21
 42.0000
  31
0.0
   0
TEXT
   8
LEVEL003
  62
3
  10
 225.000
  20
 60.0000
  30
0.0
  40
 6.00000
   1
ＮＰＴ３／８
   7
STANDARD
   0
LINE
   8
LEVEL003
   6
CONTINUOUS
  62
3
  10
 217.500
  20
 84.0127
  30
0.0
  11
 225.000
  21
 60.0000
  31
0.0
   0
LINE
   8
LEVEL003
   6
CONTINUOUS
  62
3
  10
 217.500
  20
 84.0127
  30
0.0
  11
 218.084
  21
 79.4808
  31
0.0
   0
LINE
   8
LEVEL003
   6
CONTINUOUS
  62
3
  10
 217.500
  20
 84.0127
  30
0.0
  11
 219.599
  21
 79.9539
  31
0.0
   0
LINE
   8
LEVEL003
   6
CONTINUOUS
  62
3
  10
 142.500
  20
 37.5000
  30
0.0
  11
 142.500
  21
 68.5000
  31
0.0
   0
LINE
   8
LEVEL003
   6
CONTINUOUS
  62
3
  10
 142.500
  20
 37.5000
  30
0.0
  11
 143.293
  21
 42.0000
  31
0.0
   0
LINE
   8
LEVEL003
   6
CONTINUOUS
  62
3
  10
 142.500
  20
 37.5000
  30
0.0
  11
 141.707
  21
 42.0000
  31
0.0
   0
LINE
   8
LEVEL003
   6
CONTINUOUS
  62
3
  10
 142.500
  20
 68.5000
  30
0.0
  11
 141.707
  21
 64.0000
  31
0.0
   0
LINE
   8
LEVEL003
   6
CONTINUOUS
  62
3
  10
 142.500
  20
 68.5000
  30
0.0
  11
 143.293
  21
 64.0000
  31
0.0
   0
TEXT
   8
LEVEL003
  62
3
  10
 141.300
  20
 50.0000
  30
0.0
  40
 6.00000
   1
31
  50
 90.0000
  41
 0.500000
   7
STANDARD
  72
1
  11
 141.300
  21
 53.0000
  31
0.0
   0
LINE
   8
LEVEL001
   6
CONTINUOUS
  62
3
  10
 222.500
  20
 101.143
  30
0.0
  11
 218.884
  21
 100.174
  31
0.0
   0
LINE
   8
LEVEL001
   6
CONTINUOUS
  62
3
  10
 222.500
  20
 83.8565
  30
0.0
  11
 218.884
  21
 84.8255
  31
0.0
   0
LINE
   8
LEVEL001
   6
CONTINUOUS
  62
7
  10
 222.500
  20
 101.143
  30
0.0
  11
 223.984
  21
 102.000
  31
0.0
   0
LINE
   8
LEVEL001
   6
CONTINUOUS
  62
7
  10
 239.500
  20
 102.000
  30
0.0
  11
 223.984
  21
 102.000
  31
0.0
   0
LINE
   8
LEVEL001
   6
CONTINUOUS
  62
7
  10
 222.500
  20
 83.8565
  30
0.0
  11
 223.984
  21
 83.0000
  31
0.0
   0
LINE
   8
LEVEL001
   6
CONTINUOUS
  62
7
  10
 239.500
  20
 83.0000
  30
0.0
  11
 223.984
  21
 83.0000
  31
0.0
   0
ARC
   8
LEVEL001
   6
CONTINUOUS
  62
7
  10
 241.000
  20
 105.500
  30
0.0
  40
 1.50000
  50
 90.0000
  51
 180.000
   0
LINE
   8
LEVEL001
   6
CONTINUOUS
  62
7
  10
 241.000
  20
 107.000
  30
0.0
  11
 246.000
  21
 107.000
  31
0.0
   0
ARC
   8
LEVEL001
   6
CONTINUOUS
  62
7
  10
 241.000
  20
 79.5000
  30
0.0
  40
 1.50000
  50
 180.000
  51
 270.000
   0
LINE
   8
LEVEL001
   6
CONTINUOUS
  62
7
  10
 239.500
  20
 79.5000
  30
0.0
  11
 239.500
  21
 105.500
  31
0.0
   0
LINE
   8
LEVEL001
   6
CONTINUOUS
  62
7
  10
 241.000
  20
 78.0000
  30
0.0
  11
 246.000
  21
 78.0000
  31
0.0
   0
ARC
   8
LEVEL001
   6
CONTINUOUS
  62
7
  10
 262.000
  20
 105.500
  30
0.0
  40
 1.50000
  50
 0.651378E-11
  51
 90.0000
   0
LINE
   8
LEVEL001
   6
CONTINUOUS
  62
7
  10
 257.000
  20
 107.000
  30
0.0
  11
 262.000
  21
 107.000
  31
0.0
   0
ARC
   8
LEVEL001
   6
CONTINUOUS
  62
7
  10
 262.000
  20
 79.5000
  30
0.0
  40
 1.50000
  50
 270.000
  51
 0.325689E-11
   0
LINE
   8
LEVEL001
   6
CONTINUOUS
  62
7
  10
 257.000
  20
 78.0000
  30
0.0
  11
 262.000
  21
 78.0000
  31
0.0
   0
LINE
   8
LEVEL001
   6
CONTINUOUS
  62
7
  10
 263.500
  20
 105.500
  30
0.0
  11
 263.500
  21
 79.5000
  31
0.0
   0
ARC
   8
LEVEL001
   6
DASHDOT
  62
1
  10
 272.500
  20
 105.500
  30
0.0
  40
 1.00000
  50
0.0
  51
 90.0004
   0
LINE
   8
LEVEL001
   6
DASHDOT
  62
1
  10
 264.500
  20
 106.500
  30
0.0
  11
 272.500
  21
 106.500
  31
0.0
   0
ARC
   8
LEVEL001
   6
DASHDOT
  62
1
  10
 272.500
  20
 79.5000
  30
0.0
  40
 1.00000
  50
 270.000
  51
 0.435426E-3
   0
LINE
   8
LEVEL001
   6
DASHDOT
  62
1
  10
 264.500
  20
 78.5000
  30
0.0
  11
 272.500
  21
 78.5000
  31
0.0
   0
LINE
   8
LEVEL001
   6
DASHDOT
  62
1
  10
 273.500
  20
 105.500
  30
0.0
  11
 273.500
  21
 79.5000
  31
0.0
   0
CIRCLE
   8
LEVEL001
   6
DASHDOT
  62
1
  10
 276.500
  20
 92.5000
  30
0.0
  40
 1.50000
   0
ARC
   8
LEVEL001
   6
DASHDOT
  62
1
  10
 264.500
  20
 79.5000
  30
0.0
  40
 1.00000
  50
 180.000
  51
 270.000
   0
ARC
   8
LEVEL001
   6
DASHDOT
  62
1
  10
 264.500
  20
 105.500
  30
0.0
  40
 1.00000
  50
 89.9996
  51
 180.000
   0
ARC
   8
LEVEL001
   6
DASHDOT
  62
1
  10
 275.500
  20
 98.0000
  30
0.0
  40
 2.00000
  50
 180.000
  51
 270.000
   0
ARC
   8
LEVEL001
   6
DASHDOT
  62
1
  10
 275.500
  20
 87.0000
  30
0.0
  40
 2.00000
  50
 90.0002
  51
 180.000
   0
LINE
   8
LEVEL001
   6
DASHDOT
  62
1
  10
 275.500
  20
 96.0000
  30
0.0
  11
 276.000
  21
 96.0000
  31
0.0
   0
LINE
   8
LEVEL001
   6
DASHDOT
  62
1
  10
 275.500
  20
 89.0000
  30
0.0
  11
 276.000
  21
 89.0000
  31
0.0
   0
ARC
   8
LEVEL001
   6
DASHDOT
  62
1
  10
 276.000
  20
 92.5000
  30
0.0
  40
 3.50000
  50
 270.000
  51
 90.0000
   0
LINE
   8
LEVEL001
   6
CONTINUOUS
  62
7
  10
 223.984
  20
 83.0000
  30
0.0
  11
 223.984
  21
 86.6690
  31
0.0
   0
LINE
   8
LEVEL001
   6
CONTINUOUS
  62
7
  10
 223.984
  20
 98.3309
  30
0.0
  11
 223.984
  21
 102.000
  31
0.0
   0
LINE
   8
LEVEL001
   6
CONTINUOUS
  62
7
  10
 218.500
  20
 88.4608
  30
0.0
  11
 232.500
  21
 98.3309
  31
0.0
   0
LINE
   8
LEVEL001
   6
CONTINUOUS
  62
7
  10
 218.500
  20
 96.5392
  30
0.0
  11
 232.500
  21
 86.6690
  31
0.0
   0
LINE
   8
LEVEL001
   6
CONTINUOUS
  62
3
  10
 218.884
  20
 100.174
  30
0.0
  11
 218.884
  21
 96.5392
  31
0.0
   0
LINE
   8
LEVEL001
   6
CONTINUOUS
  62
3
  10
 218.884
  20
 88.4608
  30
0.0
  11
 218.884
  21
 84.8255
  31
0.0
   0
LINE
   8
LEVEL001
   6
CONTINUOUS
  62
7
  10
 222.500
  20
 101.143
  30
0.0
  11
 222.500
  21
 96.7965
  31
0.0
   0
LINE
   8
LEVEL001
   6
CONTINUOUS
  62
7
  10
 222.500
  20
 88.2034
  30
0.0
  11
 222.500
  21
 83.8565
  31
0.0
   0
LINE
   8
LEVEL001
   6
CONTINUOUS
  62
3
  10
 246.000
  20
 79.5000
  30
0.0
  11
 257.000
  21
 79.5000
  31
0.0
   0
LINE
   8
LEVEL001
   6
CONTINUOUS
  62
3
  10
 246.000
  20
 81.5000
  30
0.0
  11
 257.000
  21
 81.5000
  31
0.0
   0
LINE
   8
LEVEL001
   6
CONTINUOUS
  62
3
  10
 246.000
  20
 83.5000
  30
0.0
  11
 257.000
  21
 83.5000
  31
0.0
   0
LINE
   8
LEVEL001
   6
CONTINUOUS
  62
3
  10
 246.000
  20
 85.5000
  30
0.0
  11
 257.000
  21
 85.5000
  31
0.0
   0
LINE
   8
LEVEL001
   6
CONTINUOUS
  62
3
  10
 246.000
  20
 87.5000
  30
0.0
  11
 257.000
  21
 87.5000
  31
0.0
   0
LINE
   8
LEVEL001
   6
CONTINUOUS
  62
3
  10
 246.000
  20
 89.5000
  30
0.0
  11
 257.000
  21
 89.5000
  31
0.0
   0
LINE
   8
LEVEL001
   6
CONTINUOUS
  62
3
  10
 246.000
  20
 91.5000
  30
0.0
  11
 257.000
  21
 91.5000
  31
0.0
   0
LINE
   8
LEVEL001
   6
CONTINUOUS
  62
3
  10
 246.000
  20
 93.5000
  30
0.0
  11
 257.000
  21
 93.5000
  31
0.0
   0
LINE
   8
LEVEL001
   6
CONTINUOUS
  62
3
  10
 246.000
  20
 95.5000
  30
0.0
  11
 257.000
  21
 95.5000
  31
0.0
   0
LINE
   8
LEVEL001
   6
CONTINUOUS
  62
3
  10
 246.000
  20
 97.5000
  30
0.0
  11
 257.000
  21
 97.5000
  31
0.0
   0
LINE
   8
LEVEL001
   6
CONTINUOUS
  62
3
  10
 246.000
  20
 99.5000
  30
0.0
  11
 257.000
  21
 99.5000
  31
0.0
   0
LINE
   8
LEVEL001
   6
CONTINUOUS
  62
3
  10
 246.000
  20
 101.500
  30
0.0
  11
 257.000
  21
 101.500
  31
0.0
   0
LINE
   8
LEVEL001
   6
CONTINUOUS
  62
3
  10
 246.000
  20
 103.500
  30
0.0
  11
 257.000
  21
 103.500
  31
0.0
   0
LINE
   8
LEVEL001
   6
CONTINUOUS
  62
3
  10
 246.000
  20
 105.500
  30
0.0
  11
 257.000
  21
 105.500
  31
0.0
   0
LINE
   8
LEVEL001
   6
CONTINUOUS
  62
7
  10
 218.500
  20
 88.4608
  30
0.0
  11
 218.500
  21
 96.5392
  31
0.0
   0
LINE
   8
LEVEL001
   6
CONTINUOUS
  62
7
  10
 218.500
  20
 96.5392
  30
0.0
  11
 222.500
  21
 96.7965
  31
0.0
   0
LINE
   8
LEVEL001
   6
CONTINUOUS
  62
7
  10
 222.500
  20
 96.7965
  30
0.0
  11
 223.984
  21
 98.3309
  31
0.0
   0
LINE
   8
LEVEL001
   6
CONTINUOUS
  62
7
  10
 223.984
  20
 98.3309
  30
0.0
  11
 232.500
  21
 98.3309
  31
0.0
   0
LINE
   8
LEVEL001
   6
CONTINUOUS
  62
7
  10
 232.500
  20
 98.3309
  30
0.0
  11
 232.500
  21
 86.6690
  31
0.0
   0
LINE
   8
LEVEL001
   6
CONTINUOUS
  62
7
  10
 232.500
  20
 86.6690
  30
0.0
  11
 223.984
  21
 86.6690
  31
0.0
   0
LINE
   8
LEVEL001
   6
CONTINUOUS
  62
7
  10
 223.984
  20
 86.6690
  30
0.0
  11
 222.500
  21
 88.2034
  31
0.0
   0
LINE
   8
LEVEL001
   6
CONTINUOUS
  62
7
  10
 222.500
  20
 88.2034
  30
0.0
  11
 218.500
  21
 88.4608
  31
0.0
   0
LINE
   8
LEVEL001
   6
CONTINUOUS
  62
7
  10
 246.000
  20
 77.5000
  30
0.0
  11
 246.000
  21
 107.500
  31
0.0
   0
LINE
   8
LEVEL001
   6
CONTINUOUS
  62
7
  10
 246.000
  20
 107.500
  30
0.0
  11
 257.000
  21
 107.500
  31
0.0
   0
LINE
   8
LEVEL001
   6
CONTINUOUS
  62
7
  10
 257.000
  20
 107.500
  30
0.0
  11
 257.000
  21
 77.5000
  31
0.0
   0
LINE
   8
LEVEL001
   6
CONTINUOUS
  62
7
  10
 257.000
  20
 77.5000
  30
0.0
  11
 246.000
  21
 77.5000
  31
0.0
   0
LINE
   8
LEVEL003
   6
CONTINUOUS
  62
3
  10
 212.500
  20
 37.5000
  30
0.0
  11
 310.500
  21
 37.5000
  31
0.0
   0
LINE
   8
LEVEL003
   6
CONTINUOUS
  62
3
  10
 284.000
  20
 92.5000
  30
0.0
  11
 310.500
  21
 92.5000
  31
0.0
   0
LINE
   8
LEVEL003
   6
CONTINUOUS
  62
3
  10
 307.500
  20
 37.5000
  30
0.0
  11
 307.500
  21
 92.5000
  31
0.0
   0
LINE
   8
LEVEL003
   6
CONTINUOUS
  62
3
  10
 307.500
  20
 37.5000
  30
0.0
  11
 308.293
  21
 42.0000
  31
0.0
   0
LINE
   8
LEVEL003
   6
CONTINUOUS
  62
3
  10
 307.500
  20
 37.5000
  30
0.0
  11
 306.707
  21
 42.0000
  31
0.0
   0
LINE
   8
LEVEL003
   6
CONTINUOUS
  62
3
  10
 307.500
  20
 92.5000
  30
0.0
  11
 306.707
  21
 88.0000
  31
0.0
   0
LINE
   8
LEVEL003
   6
CONTINUOUS
  62
3
  10
 307.500
  20
 92.5000
  30
0.0
  11
 308.293
  21
 88.0000
  31
0.0
   0
TEXT
   8
LEVEL003
  62
3
  10
 306.300
  20
 62.0000
  30
0.0
  40
 6.00000
   1
55
  50
 90.0000
  41
 0.500000
   7
STANDARD
  72
1
  11
 306.300
  21
 65.0000
  31
0.0
   0
LINE
   8
LEVEL001
   6
CONTINUOUS
  62
7
  10
 222.500
  20
 101.143
  30
0.0
  11
 212.500
  21
 100.831
  31
0.0
   0
LINE
   8
LEVEL001
   6
CONTINUOUS
  62
7
  10
 222.500
  20
 83.8565
  30
0.0
  11
 212.500
  21
 84.1690
  31
0.0
   0
LINE
   8
LEVEL001
   6
CONTINUOUS
  62
3
  10
 218.884
  20
 84.8255
  30
0.0
  11
 212.500
  21
 85.0250
  31
0.0
   0
LINE
   8
LEVEL001
   6
CONTINUOUS
  62
3
  10
 218.884
  20
 100.174
  30
0.0
  11
 212.500
  21
 99.9750
  31
0.0
   0
LINE
   8
LEVEL001
   6
CONTINUOUS
  62
7
  10
 212.500
  20
 39.0000
  30
0.0
  11
 87.5000
  21
 39.0000
  31
0.0
   0
LINE
   8
LEVEL001
   6
DASHDOT
  62
1
  10
 282.500
  20
 92.5000
  30
0.0
  11
 202.500
  21
 92.5000
  31
0.0
   0
ARC
   8
LEVEL004
   6
DOT
  62
3
  10
 128.500
  20
 69.5000
  30
0.0
  40
 1.00000
  50
 180.001
  51
 270.000
   0
ARC
   8
LEVEL004
   6
DOT
  62
3
  10
 128.500
  20
 70.5000
  30
0.0
  40
 1.00000
  50
 89.9996
  51
 179.999
   0
LINE
   8
LEVEL004
   6
DOT
  62
3
  10
 127.500
  20
 69.5000
  30
0.0
  11
 127.500
  21
 70.5000
  31
0.0
   0
LINE
   8
LEVEL004
   6
DOT
  62
3
  10
 127.500
  20
 37.5000
  30
0.0
  11
 128.500
  21
 38.5000
  31
0.0
   0
LINE
   8
LEVEL004
   6
DOT
  62
3
  10
 128.500
  20
 38.5000
  30
0.0
  11
 128.500
  21
 68.5000
  31
0.0
   0
LINE
   8
LEVEL004
   6
DOT
  62
3
  10
 127.500
  20
 37.5000
  30
0.0
  11
 127.500
  21
 69.5000
  31
0.0
   0
LINE
   8
LEVEL004
   6
DOT
  62
3
  10
 171.500
  20
 38.5000
  30
0.0
  11
 128.500
  21
 38.5000
  31
0.0
   0
ARC
   8
LEVEL004
   6
DOT
  62
3
  10
 171.500
  20
 69.5000
  30
0.0
  40
 1.00000
  50
 270.000
  51
0.0
   0
ARC
   8
LEVEL004
   6
DOT
  62
3
  10
 171.500
  20
 70.5000
  30
0.0
  40
 1.00000
  50
 0.875970E-3
  51
 90.0004
   0
LINE
   8
LEVEL004
   6
DOT
  62
3
  10
 172.500
  20
 69.5000
  30
0.0
  11
 172.500
  21
 70.5000
  31
0.0
   0
LINE
   8
LEVEL004
   6
DOT
  62
3
  10
 171.500
  20
 68.5000
  30
0.0
  11
 128.500
  21
 68.5000
  31
0.0
   0
LINE
   8
LEVEL004
   6
DOT
  62
3
  10
 171.500
  20
 71.5000
  30
0.0
  11
 128.500
  21
 71.5000
  31
0.0
   0
LINE
   8
LEVEL004
   6
DOT
  62
3
  10
 172.500
  20
 37.5000
  30
0.0
  11
 171.500
  21
 38.5000
  31
0.0
   0
LINE
   8
LEVEL004
   6
DOT
  62
3
  10
 171.500
  20
 38.5000
  30
0.0
  11
 171.500
  21
 68.5000
  31
0.0
   0
LINE
   8
LEVEL004
   6
DOT
  62
3
  10
 172.500
  20
 37.5000
  30
0.0
  11
 172.500
  21
 69.5000
  31
0.0
   0
CIRCLE
   8
LEVEL003
   6
CONTINUOUS
  62
7
  10
 362.218
  20
 19.7707
  30
0.0
  40
 3.00000
   0
LINE
   8
LEVEL003
   6
CONTINUOUS
  62
7
  10
 368.106
  20
 22.7707
  30
0.0
  11
 364.297
  21
 16.1707
  31
0.0
   0
LINE
   8
LEVEL003
   6
CONTINUOUS
  62
7
  10
 364.297
  20
 16.1707
  30
0.0
  11
 356.676
  21
 16.1707
  31
0.0
   0
LINE
   8
LEVEL003
   6
CONTINUOUS
  62
7
  10
 355.809
  20
 14.6707
  30
0.0
  11
 369.430
  21
 14.6707
  31
0.0
   0
LINE
   8
LEVEL003
   6
CONTINUOUS
  62
7
  10
 369.430
  20
 14.6707
  30
0.0
  11
 374.106
  21
 22.7707
  31
0.0
   0
LINE
   8
LEVEL003
   6
CONTINUOUS
  62
7
  10
 374.106
  20
 22.7707
  30
0.0
  11
 368.106
  21
 22.7707
  31
0.0
   0
LINE
   8
LEVEL003
   6
CONTINUOUS
  62
7
  10
 356.676
  20
 16.1707
  30
0.0
  11
 355.809
  21
 14.6707
  31
0.0
   0
TEXT
   8
LEVEL003
  62
7
  10
 374.191
  20
 12.7200
  30
0.0
  40
 10.0000
   1
ＯＳＡＫＡ ＪＡＣＫ
   7
STANDARD
   0
LINE
   8
LEVEL003
   6
CONTINUOUS
  62
3
  10
 225.000
  20
 60.0000
  30
0.0
  11
 267.177
  21
 60.0000
  31
0.0
   0
LINE
   8
LEVEL001
   6
CONTINUOUS
  62
7
  10
 209.500
  20
 550.500
  30
0.0
  11
 210.500
  21
 549.500
  31
0.0
   0
LINE
   8
LEVEL001
   6
CONTINUOUS
  62
7
  10
 210.500
  20
 549.500
  30
0.0
  11
 210.500
  21
 545.500
  31
0.0
   0
LINE
   8
LEVEL001
   6
CONTINUOUS
  62
7
  10
 211.500
  20
 545.500
  30
0.0
  11
 212.500
  21
 544.500
  31
0.0
   0
LINE
   8
LEVEL001
   6
CONTINUOUS
  62
7
  10
 212.500
  20
 544.500
  30
0.0
  11
 212.500
  21
 496.768
  31
0.0
   0
LINE
   8
LEVEL001
   6
CONTINUOUS
  62
3
  10
 211.500
  20
 500.500
  30
0.0
  11
 212.500
  21
 496.768
  31
0.0
   0
LINE
   8
LEVEL001
   6
CONTINUOUS
  62
7
  10
 181.500
  20
 562.500
  30
0.0
  11
 182.500
  21
 561.500
  31
0.0
   0
LINE
   8
LEVEL001
   6
CONTINUOUS
  62
7
  10
 182.500
  20
 550.500
  30
0.0
  11
 182.500
  21
 561.500
  31
0.0
   0
LINE
   8
LEVEL001
   6
CONTINUOUS
  62
7
  10
 90.5000
  20
 550.500
  30
0.0
  11
 89.5000
  21
 549.500
  31
0.0
   0
LINE
   8
LEVEL001
   6
CONTINUOUS
  62
7
  10
 89.5000
  20
 549.500
  30
0.0
  11
 89.5000
  21
 545.500
  31
0.0
   0
LINE
   8
LEVEL001
   6
CONTINUOUS
  62
7
  10
 87.5000
  20
 496.768
  30
0.0
  11
 87.5000
  21
 39.0000
  31
0.0
   0
LINE
   8
LEVEL001
   6
CONTINUOUS
  62
7
  10
 88.5000
  20
 545.500
  30
0.0
  11
 87.5000
  21
 544.500
  31
0.0
   0
LINE
   8
LEVEL001
   6
CONTINUOUS
  62
7
  10
 87.5000
  20
 544.500
  30
0.0
  11
 87.5000
  21
 496.768
  31
0.0
   0
LINE
   8
LEVEL001
   6
CONTINUOUS
  62
3
  10
 88.5000
  20
 500.500
  30
0.0
  11
 87.5000
  21
 496.768
  31
0.0
   0
LINE
   8
LEVEL001
   6
CONTINUOUS
  62
7
  10
 118.500
  20
 562.500
  30
0.0
  11
 117.500
  21
 561.500
  31
0.0
   0
LINE
   8
LEVEL001
   6
CONTINUOUS
  62
7
  10
 117.500
  20
 550.500
  30
0.0
  11
 117.500
  21
 561.500
  31
0.0
   0
LINE
   8
LEVEL001
   6
CONTINUOUS
  62
7
  10
 118.500
  20
 562.500
  30
0.0
  11
 181.500
  21
 562.500
  31
0.0
   0
LINE
   8
LEVEL001
   6
DASHDOT
  62
1
  10
 211.500
  20
 545.500
  30
0.0
  11
 215.500
  21
 545.500
  31
0.0
   0
LINE
   8
LEVEL001
   6
DASHDOT
  62
1
  10
 215.500
  20
 545.500
  30
0.0
  11
 215.500
  21
 500.500
  31
0.0
   0
LINE
   8
LEVEL001
   6
DASHDOT
  62
1
  10
 215.500
  20
 500.500
  30
0.0
  11
 212.500
  21
 500.500
  31
0.0
   0
LINE
   8
LEVEL001
   6
DASHDOT
  62
1
  10
 88.5000
  20
 545.500
  30
0.0
  11
 84.5000
  21
 545.500
  31
0.0
   0
LINE
   8
LEVEL001
   6
DASHDOT
  62
1
  10
 84.5000
  20
 545.500
  30
0.0
  11
 84.5000
  21
 500.500
  31
0.0
   0
LINE
   8
LEVEL001
   6
DASHDOT
  62
1
  10
 84.5000
  20
 500.500
  30
0.0
  11
 87.5000
  21
 500.500
  31
0.0
   0
LINE
   8
LEVEL003
   6
CONTINUOUS
  62
3
  10
 117.500
  20
 563.000
  30
0.0
  11
 117.500
  21
 593.000
  31
0.0
   0
LINE
   8
LEVEL003
   6
CONTINUOUS
  62
3
  10
 182.500
  20
 563.000
  30
0.0
  11
 182.500
  21
 593.000
  31
0.0
   0
LINE
   8
LEVEL003
   6
CONTINUOUS
  62
3
  10
 117.500
  20
 590.000
  30
0.0
  11
 182.500
  21
 590.000
  31
0.0
   0
LINE
   8
LEVEL003
   6
CONTINUOUS
  62
3
  10
 117.500
  20
 590.000
  30
0.0
  11
 122.000
  21
 589.207
  31
0.0
   0
LINE
   8
LEVEL003
   6
CONTINUOUS
  62
3
  10
 117.500
  20
 590.000
  30
0.0
  11
 122.000
  21
 590.793
  31
0.0
   0
LINE
   8
LEVEL003
   6
CONTINUOUS
  62
3
  10
 182.500
  20
 590.000
  30
0.0
  11
 178.000
  21
 590.793
  31
0.0
   0
LINE
   8
LEVEL003
   6
CONTINUOUS
  62
3
  10
 182.500
  20
 590.000
  30
0.0
  11
 178.000
  21
 589.207
  31
0.0
   0
TEXT
   8
LEVEL003
  62
3
  10
 144.000
  20
 591.200
  30
0.0
  40
 6.00000
   1
%%c65
   7
STANDARD
  72
1
  11
 150.000
  21
 591.200
  31
0.0
   0
LINE
   8
LEVEL003
   6
CONTINUOUS
  62
3
  10
 171.250
  20
 550.500
  30
0.0
  11
 162.000
  21
 550.500
  31
0.0
   0
LINE
   8
LEVEL003
   6
CONTINUOUS
  62
3
  10
 165.000
  20
 550.500
  30
0.0
  11
 165.000
  21
 519.500
  31
0.0
   0
LINE
   8
LEVEL003
   6
CONTINUOUS
  62
3
  10
 165.000
  20
 550.500
  30
0.0
  11
 164.207
  21
 546.000
  31
0.0
   0
LINE
   8
LEVEL003
   6
CONTINUOUS
  62
3
  10
 165.000
  20
 550.500
  30
0.0
  11
 165.793
  21
 546.000
  31
0.0
   0
LINE
   8
LEVEL003
   6
CONTINUOUS
  62
3
  10
 165.000
  20
 519.500
  30
0.0
  11
 165.793
  21
 524.000
  31
0.0
   0
LINE
   8
LEVEL003
   6
CONTINUOUS
  62
3
  10
 165.000
  20
 519.500
  30
0.0
  11
 164.207
  21
 524.000
  31
0.0
   0
TEXT
   8
LEVEL003
  62
3
  10
 163.800
  20
 527.000
  30
0.0
  40
 6.00000
   1
31
  50
 90.0000
  41
 0.500000
   7
STANDARD
  72
1
  11
 163.800
  21
 530.000
  31
0.0
   0
TEXT
   8
LEVEL003
  62
3
  10
 195.000
  20
 575.000
  30
0.0
  40
 6.00000
   1
Ｍ４５×２
   7
STANDARD
   0
LINE
   8
LEVEL003
   6
CONTINUOUS
  62
3
  10
 172.500
  20
 530.000
  30
0.0
  11
 195.000
  21
 575.000
  31
0.0
   0
LINE
   8
LEVEL003
   6
CONTINUOUS
  62
3
  10
 172.500
  20
 530.000
  30
0.0
  11
 175.222
  21
 533.670
  31
0.0
   0
LINE
   8
LEVEL003
   6
CONTINUOUS
  62
3
  10
 172.500
  20
 530.000
  30
0.0
  11
 173.803
  21
 534.380
  31
0.0
   0
LINE
   8
LEVEL003
   6
CONTINUOUS
  62
3
  10
 183.000
  20
 562.500
  30
0.0
  11
 348.000
  21
 562.500
  31
0.0
   0
LINE
   8
LEVEL003
   6
CONTINUOUS
  62
3
  10
 345.000
  20
 37.5000
  30
0.0
  11
 345.000
  21
 562.500
  31
0.0
   0
LINE
   8
LEVEL003
   6
CONTINUOUS
  62
3
  10
 345.000
  20
 562.500
  30
0.0
  11
 344.207
  21
 558.000
  31
0.0
   0
LINE
   8
LEVEL003
   6
CONTINUOUS
  62
3
  10
 345.000
  20
 562.500
  30
0.0
  11
 345.793
  21
 558.000
  31
0.0
   0
TEXT
   8
LEVEL003
  62
3
  10
 225.000
  20
 507.500
  30
0.0
  40
 6.00000
   1
Ｍ１２５×２
   7
STANDARD
   0
LINE
   8
LEVEL003
   6
CONTINUOUS
  62
3
  10
 211.000
  20
 550.500
  30
0.0
  11
 273.000
  21
 550.500
  31
0.0
   0
LINE
   8
LEVEL003
   6
CONTINUOUS
  62
3
  10
 217.000
  20
 500.500
  30
0.0
  11
 273.000
  21
 500.500
  31
0.0
   0
LINE
   8
LEVEL003
   6
CONTINUOUS
  62
3
  10
 270.000
  20
 550.500
  30
0.0
  11
 270.000
  21
 500.500
  31
0.0
   0
LINE
   8
LEVEL003
   6
CONTINUOUS
  62
3
  10
 270.000
  20
 550.500
  30
0.0
  11
 269.207
  21
 546.000
  31
0.0
   0
LINE
   8
LEVEL003
   6
CONTINUOUS
  62
3
  10
 270.000
  20
 550.500
  30
0.0
  11
 270.793
  21
 546.000
  31
0.0
   0
LINE
   8
LEVEL003
   6
CONTINUOUS
  62
3
  10
 270.000
  20
 500.500
  30
0.0
  11
 270.793
  21
 505.000
  31
0.0
   0
LINE
   8
LEVEL003
   6
CONTINUOUS
  62
3
  10
 270.000
  20
 500.500
  30
0.0
  11
 269.207
  21
 505.000
  31
0.0
   0
TEXT
   8
LEVEL003
  62
3
  10
 268.800
  20
 522.500
  30
0.0
  40
 6.00000
   1
50
  50
 90.0000
  41
 0.500000
   7
STANDARD
  72
1
  11
 268.800
  21
 525.500
  31
0.0
   0
LINE
   8
LEVEL003
   6
CONTINUOUS
  62
3
  10
 211.000
  20
 550.500
  30
0.0
  11
 258.000
  21
 550.500
  31
0.0
   0
LINE
   8
LEVEL003
   6
CONTINUOUS
  62
3
  10
 217.000
  20
 545.500
  30
0.0
  11
 258.000
  21
 545.500
  31
0.0
   0
LINE
   8
LEVEL003
   6
CONTINUOUS
  62
3
  10
 255.000
  20
 550.500
  30
0.0
  11
 255.000
  21
 545.500
  31
0.0
   0
LINE
   8
LEVEL003
   6
CONTINUOUS
  62
3
  10
 255.000
  20
 550.500
  30
0.0
  11
 255.793
  21
 555.000
  31
0.0
   0
LINE
   8
LEVEL003
   6
CONTINUOUS
  62
3
  10
 255.000
  20
 550.500
  30
0.0
  11
 254.207
  21
 555.000
  31
0.0
   0
LINE
   8
LEVEL003
   6
CONTINUOUS
  62
3
  10
 255.000
  20
 545.500
  30
0.0
  11
 254.207
  21
 541.000
  31
0.0
   0
LINE
   8
LEVEL003
   6
CONTINUOUS
  62
3
  10
 255.000
  20
 545.500
  30
0.0
  11
 255.793
  21
 541.000
  31
0.0
   0
LINE
   8
LEVEL003
   6
CONTINUOUS
  62
3
  10
 255.000
  20
 550.500
  30
0.0
  11
 255.000
  21
 556.125
  31
0.0
   0
LINE
   8
LEVEL003
   6
CONTINUOUS
  62
3
  10
 255.000
  20
 545.500
  30
0.0
  11
 255.000
  21
 539.875
  31
0.0
   0
TEXT
   8
LEVEL003
  62
3
  10
 253.800
  20
 546.500
  30
0.0
  40
 6.00000
   1
5
  50
 90.0000
  41
 0.500000
   7
STANDARD
  72
1
  11
 253.800
  21
 548.000
  31
0.0
   0
LINE
   8
LEVEL003
   6
CONTINUOUS
  62
3
  10
 212.500
  20
 522.500
  30
0.0
  11
 225.000
  21
 507.500
  31
0.0
   0
LINE
   8
LEVEL003
   6
CONTINUOUS
  62
3
  10
 212.500
  20
 522.500
  30
0.0
  11
 214.771
  21
 518.535
  31
0.0
   0
LINE
   8
LEVEL003
   6
CONTINUOUS
  62
3
  10
 212.500
  20
 522.500
  30
0.0
  11
 215.990
  21
 519.551
  31
0.0
   0
LINE
   8
LEVEL001
   6
CONTINUOUS
  62
3
  10
 222.500
  20
 489.143
  30
0.0
  11
 218.884
  21
 488.174
  31
0.0
   0
LINE
   8
LEVEL001
   6
CONTINUOUS
  62
3
  10
 222.500
  20
 471.856
  30
0.0
  11
 218.884
  21
 472.825
  31
0.0
   0
LINE
   8
LEVEL001
   6
CONTINUOUS
  62
7
  10
 222.500
  20
 489.143
  30
0.0
  11
 223.984
  21
 490.000
  31
0.0
   0
LINE
   8
LEVEL001
   6
CONTINUOUS
  62
7
  10
 239.500
  20
 490.000
  30
0.0
  11
 223.984
  21
 490.000
  31
0.0
   0
LINE
   8
LEVEL001
   6
CONTINUOUS
  62
7
  10
 222.500
  20
 471.856
  30
0.0
  11
 223.984
  21
 471.000
  31
0.0
   0
LINE
   8
LEVEL001
   6
CONTINUOUS
  62
7
  10
 239.500
  20
 467.500
  30
0.0
  11
 239.500
  21
 493.500
  31
0.0
   0
LINE
   8
LEVEL001
   6
CONTINUOUS
  62
7
  10
 263.500
  20
 493.500
  30
0.0
  11
 263.500
  21
 467.500
  31
0.0
   0
LINE
   8
LEVEL001
   6
DASHDOT
  62
1
  10
 273.500
  20
 493.500
  30
0.0
  11
 273.500
  21
 467.500
  31
0.0
   0
CIRCLE
   8
LEVEL001
   6
DASHDOT
  62
1
  10
 276.500
  20
 480.500
  30
0.0
  40
 1.50000
   0
ARC
   8
LEVEL001
   6
DASHDOT
  62
1
  10
 275.500
  20
 486.000
  30
0.0
  40
 2.00000
  50
 180.001
  51
 270.000
   0
ARC
   8
LEVEL001
   6
DASHDOT
  62
1
  10
 275.500
  20
 475.000
  30
0.0
  40
 2.00000
  50
 90.0002
  51
 179.999
   0
LINE
   8
LEVEL001
   6
DASHDOT
  62
1
  10
 275.500
  20
 484.000
  30
0.0
  11
 276.000
  21
 484.000
  31
0.0
   0
LINE
   8
LEVEL001
   6
DASHDOT
  62
1
  10
 275.500
  20
 477.000
  30
0.0
  11
 276.000
  21
 477.000
  31
0.0
   0
ARC
   8
LEVEL001
   6
DASHDOT
  62
1
  10
 276.000
  20
 480.500
  30
0.0
  40
 3.50002
  50
 270.000
  51
 90.0000
   0
LINE
   8
LEVEL001
   6
CONTINUOUS
  62
7
  10
 223.984
  20
 471.000
  30
0.0
  11
 223.984
  21
 474.669
  31
0.0
   0
LINE
   8
LEVEL001
   6
CONTINUOUS
  62
7
  10
 223.984
  20
 486.331
  30
0.0
  11
 223.984
  21
 490.000
  31
0.0
   0
LINE
   8
LEVEL001
   6
CONTINUOUS
  62
7
  10
 218.500
  20
 476.461
  30
0.0
  11
 232.500
  21
 486.331
  31
0.0
   0
LINE
   8
LEVEL001
   6
CONTINUOUS
  62
7
  10
 218.500
  20
 484.539
  30
0.0
  11
 232.500
  21
 474.669
  31
0.0
   0
LINE
   8
LEVEL001
   6
CONTINUOUS
  62
3
  10
 218.884
  20
 488.174
  30
0.0
  11
 218.884
  21
 484.539
  31
0.0
   0
LINE
   8
LEVEL001
   6
CONTINUOUS
  62
3
  10
 218.884
  20
 476.461
  30
0.0
  11
 218.884
  21
 472.825
  31
0.0
   0
LINE
   8
LEVEL001
   6
CONTINUOUS
  62
7
  10
 222.500
  20
 489.143
  30
0.0
  11
 222.500
  21
 484.797
  31
0.0
   0
LINE
   8
LEVEL001
   6
CONTINUOUS
  62
7
  10
 222.500
  20
 476.203
  30
0.0
  11
 222.500
  21
 471.856
  31
0.0
   0
LINE
   8
LEVEL001
   6
CONTINUOUS
  62
3
  10
 246.000
  20
 473.500
  30
0.0
  11
 257.000
  21
 473.500
  31
0.0
   0
LINE
   8
LEVEL001
   6
CONTINUOUS
  62
3
  10
 246.000
  20
 475.500
  30
0.0
  11
 257.000
  21
 475.500
  31
0.0
   0
LINE
   8
LEVEL001
   6
CONTINUOUS
  62
3
  10
 246.000
  20
 477.500
  30
0.0
  11
 257.000
  21
 477.500
  31
0.0
   0
LINE
   8
LEVEL001
   6
CONTINUOUS
  62
3
  10
 246.000
  20
 479.500
  30
0.0
  11
 257.000
  21
 479.500
  31
0.0
   0
LINE
   8
LEVEL001
   6
CONTINUOUS
  62
3
  10
 246.000
  20
 481.500
  30
0.0
  11
 257.000
  21
 481.500
  31
0.0
   0
LINE
   8
LEVEL001
   6
CONTINUOUS
  62
3
  10
 246.000
  20
 483.500
  30
0.0
  11
 257.000
  21
 483.500
  31
0.0
   0
LINE
   8
LEVEL001
   6
CONTINUOUS
  62
3
  10
 246.000
  20
 485.500
  30
0.0
  11
 257.000
  21
 485.500
  31
0.0
   0
LINE
   8
LEVEL001
   6
CONTINUOUS
  62
3
  10
 246.000
  20
 487.500
  30
0.0
  11
 257.000
  21
 487.500
  31
0.0
   0
LINE
   8
LEVEL001
   6
CONTINUOUS
  62
3
  10
 246.000
  20
 489.500
  30
0.0
  11
 257.000
  21
 489.500
  31
0.0
   0
LINE
   8
LEVEL001
   6
CONTINUOUS
  62
3
  10
 246.000
  20
 491.500
  30
0.0
  11
 257.000
  21
 491.500
  31
0.0
   0
LINE
   8
LEVEL001
   6
CONTINUOUS
  62
7
  10
 218.500
  20
 476.461
  30
0.0
  11
 218.500
  21
 484.539
  31
0.0
   0
LINE
   8
LEVEL001
   6
CONTINUOUS
  62
7
  10
 218.500
  20
 484.539
  30
0.0
  11
 222.500
  21
 484.797
  31
0.0
   0
LINE
   8
LEVEL001
   6
CONTINUOUS
  62
7
  10
 222.500
  20
 484.797
  30
0.0
  11
 223.984
  21
 486.331
  31
0.0
   0
LINE
   8
LEVEL001
   6
CONTINUOUS
  62
7
  10
 223.984
  20
 486.331
  30
0.0
  11
 232.500
  21
 486.331
  31
0.0
   0
LINE
   8
LEVEL001
   6
CONTINUOUS
  62
7
  10
 232.500
  20
 486.331
  30
0.0
  11
 232.500
  21
 474.669
  31
0.0
   0
LINE
   8
LEVEL001
   6
CONTINUOUS
  62
7
  10
 232.500
  20
 474.669
  30
0.0
  11
 223.984
  21
 474.669
  31
0.0
   0
LINE
   8
LEVEL001
   6
CONTINUOUS
  62
7
  10
 223.984
  20
 474.669
  30
0.0
  11
 222.500
  21
 476.203
  31
0.0
   0
LINE
   8
LEVEL001
   6
CONTINUOUS
  62
7
  10
 222.500
  20
 476.203
  30
0.0
  11
 218.500
  21
 476.461
  31
0.0
   0
LINE
   8
LEVEL001
   6
CONTINUOUS
  62
7
  10
 246.000
  20
 465.500
  30
0.0
  11
 246.000
  21
 495.500
  31
0.0
   0
LINE
   8
LEVEL001
   6
CONTINUOUS
  62
7
  10
 246.000
  20
 495.500
  30
0.0
  11
 257.000
  21
 495.500
  31
0.0
   0
LINE
   8
LEVEL001
   6
CONTINUOUS
  62
7
  10
 257.000
  20
 495.500
  30
0.0
  11
 257.000
  21
 465.500
  31
0.0
   0
LINE
   8
LEVEL001
   6
CONTINUOUS
  62
7
  10
 257.000
  20
 465.500
  30
0.0
  11
 246.000
  21
 465.500
  31
0.0
   0
LINE
   8
LEVEL001
   6
CONTINUOUS
  62
7
  10
 239.500
  20
 471.000
  30
0.0
  11
 223.984
  21
 471.000
  31
0.0
   0
LINE
   8
LEVEL001
   6
CONTINUOUS
  62
3
  10
 246.000
  20
 469.500
  30
0.0
  11
 257.000
  21
 469.500
  31
0.0
   0
LINE
   8
LEVEL001
   6
CONTINUOUS
  62
3
  10
 246.000
  20
 471.500
  30
0.0
  11
 257.000
  21
 471.500
  31
0.0
   0
ARC
   8
LEVEL001
   6
CONTINUOUS
  62
7
  10
 241.000
  20
 467.500
  30
0.0
  40
 1.50000
  50
 180.000
  51
 270.000
   0
LINE
   8
LEVEL001
   6
CONTINUOUS
  62
7
  10
 241.000
  20
 466.000
  30
0.0
  11
 246.000
  21
 466.000
  31
0.0
   0
ARC
   8
LEVEL001
   6
CONTINUOUS
  62
7
  10
 262.000
  20
 467.500
  30
0.0
  40
 1.50000
  50
 270.000
  51
0.0
   0
LINE
   8
LEVEL001
   6
CONTINUOUS
  62
7
  10
 257.000
  20
 466.000
  30
0.0
  11
 262.000
  21
 466.000
  31
0.0
   0
ARC
   8
LEVEL001
   6
DASHDOT
  62
1
  10
 272.500
  20
 467.500
  30
0.0
  40
 1.00000
  50
 270.000
  51
 0.174682E-2
   0
LINE
   8
LEVEL001
   6
DASHDOT
  62
1
  10
 264.500
  20
 466.500
  30
0.0
  11
 272.500
  21
 466.500
  31
0.0
   0
ARC
   8
LEVEL001
   6
DASHDOT
  62
1
  10
 264.500
  20
 467.500
  30
0.0
  40
 1.00000
  50
 179.998
  51
 270.000
   0
LINE
   8
LEVEL001
   6
CONTINUOUS
  62
3
  10
 246.000
  20
 467.500
  30
0.0
  11
 257.000
  21
 467.500
  31
0.0
   0
ARC
   8
LEVEL001
   6
CONTINUOUS
  62
7
  10
 241.000
  20
 493.500
  30
0.0
  40
 1.50000
  50
 90.0000
  51
 180.000
   0
LINE
   8
LEVEL001
   6
CONTINUOUS
  62
7
  10
 241.000
  20
 495.000
  30
0.0
  11
 246.000
  21
 495.000
  31
0.0
   0
LINE
   8
LEVEL001
   6
CONTINUOUS
  62
7
  10
 257.000
  20
 495.000
  30
0.0
  11
 262.000
  21
 495.000
  31
0.0
   0
LINE
   8
LEVEL001
   6
CONTINUOUS
  62
3
  10
 246.000
  20
 493.500
  30
0.0
  11
 257.000
  21
 493.500
  31
0.0
   0
ARC
   8
LEVEL001
   6
DASHDOT
  62
1
  10
 272.500
  20
 493.500
  30
0.0
  40
 1.00000
  50
 359.998
  51
 90.0004
   0
LINE
   8
LEVEL001
   6
DASHDOT
  62
1
  10
 264.500
  20
 494.500
  30
0.0
  11
 272.500
  21
 494.500
  31
0.0
   0
ARC
   8
LEVEL001
   6
CONTINUOUS
  62
7
  10
 262.000
  20
 493.500
  30
0.0
  40
 1.50000
  50
0.0
  51
 90.0000
   0
ARC
   8
LEVEL001
   6
DASHDOT
  62
1
  10
 264.500
  20
 493.500
  30
0.0
  40
 1.00000
  50
 89.9996
  51
 180.002
   0
LINE
   8
LEVEL003
   6
CONTINUOUS
  62
3
  10
 183.000
  20
 562.500
  30
0.0
  11
 310.500
  21
 562.500
  31
0.0
   0
LINE
   8
LEVEL003
   6
CONTINUOUS
  62
3
  10
 211.000
  20
 550.500
  30
0.0
  11
 310.500
  21
 550.500
  31
0.0
   0
LINE
   8
LEVEL003
   6
CONTINUOUS
  62
3
  10
 307.500
  20
 562.500
  30
0.0
  11
 307.500
  21
 550.500
  31
0.0
   0
LINE
   8
LEVEL003
   6
CONTINUOUS
  62
3
  10
 307.500
  20
 562.500
  30
0.0
  11
 306.707
  21
 558.000
  31
0.0
   0
LINE
   8
LEVEL003
   6
CONTINUOUS
  62
3
  10
 307.500
  20
 562.500
  30
0.0
  11
 308.293
  21
 558.000
  31
0.0
   0
LINE
   8
LEVEL003
   6
CONTINUOUS
  62
3
  10
 307.500
  20
 550.500
  30
0.0
  11
 308.293
  21
 555.000
  31
0.0
   0
LINE
   8
LEVEL003
   6
CONTINUOUS
  62
3
  10
 307.500
  20
 550.500
  30
0.0
  11
 306.707
  21
 555.000
  31
0.0
   0
TEXT
   8
LEVEL003
  62
3
  10
 306.300
  20
 553.500
  30
0.0
  40
 6.00000
   1
12
  50
 90.0000
  41
 0.500000
   7
STANDARD
  72
1
  11
 306.300
  21
 556.500
  31
0.0
   0
LINE
   8
LEVEL003
   6
CONTINUOUS
  62
3
  10
 211.000
  20
 550.500
  30
0.0
  11
 310.500
  21
 550.500
  31
0.0
   0
LINE
   8
LEVEL003
   6
CONTINUOUS
  62
3
  10
 284.000
  20
 480.500
  30
0.0
  11
 310.500
  21
 480.500
  31
0.0
   0
LINE
   8
LEVEL003
   6
CONTINUOUS
  62
3
  10
 307.500
  20
 550.500
  30
0.0
  11
 307.500
  21
 480.500
  31
0.0
   0
LINE
   8
LEVEL003
   6
CONTINUOUS
  62
3
  10
 307.500
  20
 550.500
  30
0.0
  11
 306.707
  21
 546.000
  31
0.0
   0
LINE
   8
LEVEL003
   6
CONTINUOUS
  62
3
  10
 307.500
  20
 550.500
  30
0.0
  11
 308.293
  21
 546.000
  31
0.0
   0
LINE
   8
LEVEL003
   6
CONTINUOUS
  62
3
  10
 307.500
  20
 480.500
  30
0.0
  11
 308.293
  21
 485.000
  31
0.0
   0
LINE
   8
LEVEL003
   6
CONTINUOUS
  62
3
  10
 307.500
  20
 480.500
  30
0.0
  11
 306.707
  21
 485.000
  31
0.0
   0
TEXT
   8
LEVEL003
  62
3
  10
 306.300
  20
 512.500
  30
0.0
  40
 6.00000
   1
70
  50
 90.0000
  41
 0.500000
   7
STANDARD
  72
1
  11
 306.300
  21
 515.500
  31
0.0
   0
LINE
   8
LEVEL001
   6
CONTINUOUS
  62
7
  10
 222.500
  20
 489.143
  30
0.0
  11
 212.500
  21
 488.831
  31
0.0
   0
LINE
   8
LEVEL001
   6
CONTINUOUS
  62
7
  10
 222.500
  20
 471.856
  30
0.0
  11
 212.500
  21
 472.169
  31
0.0
   0
LINE
   8
LEVEL001
   6
CONTINUOUS
  62
7
  10
 212.500
  20
 496.768
  30
0.0
  11
 212.500
  21
 39.0000
  31
0.0
   0
LINE
   8
LEVEL001
   6
CONTINUOUS
  62
3
  10
 218.884
  20
 472.825
  30
0.0
  11
 212.500
  21
 473.025
  31
0.0
   0
LINE
   8
LEVEL001
   6
CONTINUOUS
  62
3
  10
 218.884
  20
 488.174
  30
0.0
  11
 212.500
  21
 487.975
  31
0.0
   0
LINE
   8
LEVEL001
   6
CONTINUOUS
  62
7
  10
 209.500
  20
 550.500
  30
0.0
  11
 90.5000
  21
 550.500
  31
0.0
   0
LINE
   8
LEVEL001
   6
CONTINUOUS
  62
7
  10
 117.500
  20
 561.500
  30
0.0
  11
 182.500
  21
 561.500
  31
0.0
   0
LINE
   8
LEVEL001
   6
CONTINUOUS
  62
7
  10
 210.500
  20
 549.500
  30
0.0
  11
 89.5000
  21
 549.500
  31
0.0
   0
LINE
   8
LEVEL001
   6
CONTINUOUS
  62
7
  10
 88.5000
  20
 545.500
  30
0.0
  11
 211.500
  21
 545.500
  31
0.0
   0
LINE
   8
LEVEL001
   6
CONTINUOUS
  62
3
  10
 211.500
  20
 545.500
  30
0.0
  11
 211.500
  21
 500.500
  31
0.0
   0
LINE
   8
LEVEL001
   6
CONTINUOUS
  62
3
  10
 88.5000
  20
 545.500
  30
0.0
  11
 88.5000
  21
 500.500
  31
0.0
   0
LINE
   8
LEVEL001
   6
CONTINUOUS
  62
7
  10
 212.500
  20
 496.768
  30
0.0
  11
 87.5000
  21
 496.768
  31
0.0
   0
LINE
   8
LEVEL001
   6
CONTINUOUS
  62
3
  10
 87.5000
  20
 500.500
  30
0.0
  11
 212.500
  21
 500.500
  31
0.0
   0
LINE
   8
LEVEL001
   6
CONTINUOUS
  62
3
  10
 87.5000
  20
 544.500
  30
0.0
  11
 212.500
  21
 544.500
  31
0.0
   0
LINE
   8
LEVEL001
   6
DASHDOT
  62
1
  10
 282.500
  20
 480.500
  30
0.0
  11
 202.500
  21
 480.500
  31
0.0
   0
LINE
   8
LEVEL004
   6
DOT
  62
3
  10
 102.500
  20
 510.500
  30
0.0
  11
 102.500
  21
 67.5000
  31
0.0
   0
LINE
   8
LEVEL004
   6
DOT
  62
3
  10
 115.000
  20
 138.500
  30
0.0
  11
 115.000
  21
 547.500
  31
0.0
   0
LINE
   8
LEVEL004
   6
DOT
  62
3
  10
 197.500
  20
 510.500
  30
0.0
  11
 197.500
  21
 67.5000
  31
0.0
   0
LINE
   8
LEVEL004
   6
DOT
  62
3
  10
 185.000
  20
 138.500
  30
0.0
  11
 185.000
  21
 547.500
  31
0.0
   0
LINE
   8
LEVEL004
   6
DOT
  62
3
  10
 127.500
  20
 519.500
  30
0.0
  11
 128.500
  21
 515.500
  31
0.0
   0
LINE
   8
LEVEL004
   6
DOT
  62
3
  10
 172.500
  20
 519.500
  30
0.0
  11
 171.500
  21
 515.500
  31
0.0
   0
LINE
   8
LEVEL004
   6
DOT
  62
3
  10
 172.500
  20
 548.500
  30
0.0
  11
 172.500
  21
 519.500
  31
0.0
   0
LINE
   8
LEVEL004
   6
DOT
  62
3
  10
 171.500
  20
 515.500
  30
0.0
  11
 128.500
  21
 515.500
  31
0.0
   0
LINE
   8
LEVEL004
   6
DOT
  62
3
  10
 172.500
  20
 519.500
  30
0.0
  11
 127.500
  21
 519.500
  31
0.0
   0
LINE
   8
LEVEL004
   6
DOT
  62
3
  10
 171.250
  20
 538.500
  30
0.0
  11
 170.250
  21
 537.500
  31
0.0
   0
LINE
   8
LEVEL004
   6
DOT
  62
3
  10
 171.250
  20
 549.000
  30
0.0
  11
 171.250
  21
 538.500
  31
0.0
   0
LINE
   8
LEVEL004
   6
DOT
  62
3
  10
 171.500
  20
 547.500
  30
0.0
  11
 171.250
  21
 547.500
  31
0.0
   0
LINE
   8
LEVEL004
   6
DOT
  62
3
  10
 172.500
  20
 548.500
  30
0.0
  11
 171.250
  21
 548.500
  31
0.0
   0
LINE
   8
LEVEL004
   6
DOT
  62
3
  10
 127.000
  20
 550.500
  30
0.0
  11
 127.500
  21
 550.000
  31
0.0
   0
LINE
   8
LEVEL004
   6
DOT
  62
3
  10
 127.500
  20
 548.500
  30
0.0
  11
 127.500
  21
 550.000
  31
0.0
   0
ARC
   8
LEVEL004
   6
DOT
  62
3
  10
 127.250
  20
 549.000
  30
0.0
  40
 1.50000
  50
0.0
  51
 90.0000
   0
LINE
   8
LEVEL004
   6
DOT
  62
3
  10
 128.500
  20
 547.500
  30
0.0
  11
 128.750
  21
 547.500
  31
0.0
   0
LINE
   8
LEVEL004
   6
DOT
  62
3
  10
 127.500
  20
 548.500
  30
0.0
  11
 128.750
  21
 548.500
  31
0.0
   0
CIRCLE
   8
LEVEL004
   6
DOT
  62
3
  10
 130.484
  20
 543.500
  30
0.0
  40
 1.98438
   0
LINE
   8
LEVEL004
   6
DOT
  62
3
  10
 128.750
  20
 549.000
  30
0.0
  11
 128.750
  21
 544.464
  31
0.0
   0
LINE
   8
LEVEL004
   6
DOT
  62
3
  10
 140.750
  20
 545.500
  30
0.0
  11
 140.750
  21
 541.500
  31
0.0
   0
LINE
   8
LEVEL004
   6
DOT
  62
3
  10
 128.750
  20
 541.500
  30
0.0
  11
 140.750
  21
 541.500
  31
0.0
   0
LINE
   8
LEVEL004
   6
DOT
  62
3
  10
 140.750
  20
 541.500
  30
0.0
  11
 141.905
  21
 543.500
  31
0.0
   0
LINE
   8
LEVEL004
   6
DOT
  62
3
  10
 141.905
  20
 543.500
  30
0.0
  11
 140.750
  21
 545.500
  31
0.0
   0
LINE
   8
LEVEL004
   6
DOT
  62
3
  10
 140.750
  20
 545.500
  30
0.0
  11
 128.750
  21
 545.500
  31
0.0
   0
LINE
   8
LEVEL004
   6
DOT
  62
3
  10
 128.750
  20
 538.500
  30
0.0
  11
 129.750
  21
 537.500
  31
0.0
   0
LINE
   8
LEVEL004
   6
DOT
  62
3
  10
 128.750
  20
 542.536
  30
0.0
  11
 128.750
  21
 538.500
  31
0.0
   0
LINE
   8
LEVEL004
   6
DOT
  62
3
  10
 127.500
  20
 548.500
  30
0.0
  11
 127.500
  21
 519.500
  31
0.0
   0
LINE
   8
LEVEL004
   6
DOT
  62
3
  10
 127.500
  20
 548.500
  30
0.0
  11
 128.500
  21
 547.500
  31
0.0
   0
LINE
   8
LEVEL004
   6
DOT
  62
3
  10
 128.500
  20
 547.500
  30
0.0
  11
 128.500
  21
 515.500
  31
0.0
   0
LINE
   8
LEVEL004
   6
DOT
  62
3
  10
 128.500
  20
 515.500
  30
0.0
  11
 150.000
  21
 503.087
  31
0.0
   0
LINE
   8
LEVEL004
   6
DOT
  62
3
  10
 150.000
  20
 503.087
  30
0.0
  11
 171.500
  21
 515.500
  31
0.0
   0
LINE
   8
LEVEL004
   6
DOT
  62
3
  10
 171.500
  20
 515.500
  30
0.0
  11
 171.500
  21
 547.500
  31
0.0
   0
LINE
   8
LEVEL004
   6
DOT
  62
3
  10
 171.500
  20
 547.500
  30
0.0
  11
 172.500
  21
 548.500
  31
0.0
   0
LINE
   8
LEVEL004
   6
DOT
  62
3
  10
 129.750
  20
 537.500
  30
0.0
  11
 170.250
  21
 537.500
  31
0.0
   0
ARC
   8
LEVEL004
   6
DOT
  62
3
  10
 128.500
  20
 562.500
  30
0.0
  40
 1.00001
  50
 180.000
  51
0.0
   0
ARC
   8
LEVEL004
   6
DOT
  62
3
  10
 139.000
  20
 562.500
  30
0.0
  40
 1.00001
  50
 180.000
  51
0.0
   0
ARC
   8
LEVEL004
   6
DOT
  62
3
  10
 171.500
  20
 562.500
  30
0.0
  40
 1.00001
  50
 180.000
  51
0.0
   0
ARC
   8
LEVEL004
   6
DOT
  62
3
  10
 161.000
  20
 562.500
  30
0.0
  40
 1.00001
  50
 180.000
  51
0.0
   0
LINE
   8
LEVEL004
   6
DOT
  62
3
  10
 173.000
  20
 550.500
  30
0.0
  11
 172.500
  21
 550.000
  31
0.0
   0
LINE
   8
LEVEL004
   6
DOT
  62
3
  10
 172.500
  20
 548.500
  30
0.0
  11
 172.500
  21
 550.000
  31
0.0
   0
ARC
   8
LEVEL004
   6
DOT
  62
3
  10
 172.750
  20
 549.000
  30
0.0
  40
 1.50000
  50
 90.0000
  51
 180.000
   0
LINE
   8
LEVEL004
   6
DASHDOT
  62
1
  10
 125.750
  20
 543.500
  30
0.0
  11
 144.905
  21
 543.500
  31
0.0
   0
LINE
   8
LEVEL004
   6
DASHDOT
  62
1
  10
 141.039
  20
 542.000
  30
0.0
  11
 140.618
  21
 545.000
  31
0.0
   0
LINE
   8
LEVEL004
   6
DASHDOT
  62
1
  10
 140.618
  20
 545.000
  30
0.0
  11
 140.197
  21
 542.000
  31
0.0
   0
LINE
   8
LEVEL004
   6
DASHDOT
  62
1
  10
 140.197
  20
 542.000
  30
0.0
  11
 139.777
  21
 545.000
  31
0.0
   0
LINE
   8
LEVEL004
   6
DASHDOT
  62
1
  10
 139.777
  20
 545.000
  30
0.0
  11
 139.356
  21
 542.000
  31
0.0
   0
LINE
   8
LEVEL004
   6
DASHDOT
  62
1
  10
 139.356
  20
 542.000
  30
0.0
  11
 138.935
  21
 545.000
  31
0.0
   0
LINE
   8
LEVEL004
   6
DASHDOT
  62
1
  10
 138.935
  20
 545.000
  30
0.0
  11
 138.515
  21
 542.000
  31
0.0
   0
LINE
   8
LEVEL004
   6
DASHDOT
  62
1
  10
 138.515
  20
 542.000
  30
0.0
  11
 138.094
  21
 545.000
  31
0.0
   0
LINE
   8
LEVEL004
   6
DASHDOT
  62
1
  10
 138.094
  20
 545.000
  30
0.0
  11
 137.673
  21
 542.000
  31
0.0
   0
LINE
   8
LEVEL004
   6
DASHDOT
  62
1
  10
 137.673
  20
 542.000
  30
0.0
  11
 137.253
  21
 545.000
  31
0.0
   0
LINE
   8
LEVEL004
   6
DASHDOT
  62
1
  10
 137.253
  20
 545.000
  30
0.0
  11
 136.832
  21
 542.000
  31
0.0
   0
LINE
   8
LEVEL004
   6
DASHDOT
  62
1
  10
 136.832
  20
 542.000
  30
0.0
  11
 136.411
  21
 545.000
  31
0.0
   0
LINE
   8
LEVEL004
   6
DASHDOT
  62
1
  10
 136.411
  20
 545.000
  30
0.0
  11
 135.990
  21
 542.000
  31
0.0
   0
LINE
   8
LEVEL004
   6
DASHDOT
  62
1
  10
 135.990
  20
 542.000
  30
0.0
  11
 135.570
  21
 545.000
  31
0.0
   0
LINE
   8
LEVEL004
   6
DASHDOT
  62
1
  10
 135.570
  20
 545.000
  30
0.0
  11
 135.149
  21
 542.000
  31
0.0
   0
LINE
   8
LEVEL004
   6
DASHDOT
  62
1
  10
 135.149
  20
 542.000
  30
0.0
  11
 134.728
  21
 545.000
  31
0.0
   0
LINE
   8
LEVEL004
   6
DASHDOT
  62
1
  10
 134.728
  20
 545.000
  30
0.0
  11
 134.308
  21
 542.000
  31
0.0
   0
LINE
   8
LEVEL004
   6
DASHDOT
  62
1
  10
 134.308
  20
 542.000
  30
0.0
  11
 133.887
  21
 545.000
  31
0.0
   0
LINE
   8
LEVEL004
   6
DASHDOT
  62
1
  10
 133.887
  20
 545.000
  30
0.0
  11
 133.466
  21
 542.000
  31
0.0
   0
LINE
   8
LEVEL004
   6
DASHDOT
  62
1
  10
 133.466
  20
 542.000
  30
0.0
  11
 133.046
  21
 545.000
  31
0.0
   0
LINE
   8
LEVEL004
   6
DASHDOT
  62
1
  10
 133.046
  20
 545.000
  30
0.0
  11
 132.625
  21
 542.000
  31
0.0
   0
LINE
   8
LEVEL004
   6
DASHDOT
  62
1
  10
 132.625
  20
 542.000
  30
0.0
  11
 132.204
  21
 545.000
  31
0.0
   0
LINE
   8
LEVEL001
   6
DASHDOT
  62
1
  10
 150.000
  20
 30.0000
  30
0.0
  11
 150.000
  21
 567.500
  31
0.0
   0
LINE
   8
LEVEL003
   6
CONTINUOUS
  62
3
  10
 225.000
  20
 507.500
  30
0.0
  11
 267.177
  21
 507.500
  31
0.0
   0
LINE
   8
LEVEL003
   6
CONTINUOUS
  62
3
  10
 195.000
  20
 575.000
  30
0.0
  11
 230.885
  21
 575.000
  31
0.0
   0
CIRCLE
   8
0
   6
DASHDOT
  62
1
  10
 150.000
  20
 359.500
  30
0.0
  40
 38.0000
   0
CIRCLE
   8
0
   6
DOT
  62
3
  10
 150.000
  20
 397.500
  30
0.0
  40
 12.5000
   0
CIRCLE
   8
0
   6
DOT
  62
3
  10
 150.000
  20
 397.500
  30
0.0
  40
 11.5000
   0
ARC
   8
0
   6
DOT
  62
3
  10
 150.000
  20
 359.500
  30
0.0
  40
 32.5000
  50
 108.380
  51
 71.6203
   0
ARC
   8
0
   6
DOT
  62
3
  10
 150.000
  20
 359.500
  30
0.0
  40
 43.5000
  50
 105.869
  51
 74.1306
   0
LINE
   8
LEVEL003
   6
CONTINUOUS
  62
3
  10
 212.000
  20
 37.5000
  30
0.0
  11
 328.250
  21
 37.5000
  31
0.0
   0
LINE
   8
LEVEL003
   6
CONTINUOUS
  62
3
  10
 151.000
  20
 397.500
  30
0.0
  11
 328.250
  21
 397.500
  31
0.0
   0
LINE
   8
LEVEL003
   6
CONTINUOUS
  62
3
  10
 326.250
  20
 37.5000
  30
0.0
  11
 326.250
  21
 397.500
  31
0.0
   0
LINE
   8
LEVEL003
   6
CONTINUOUS
  62
3
  10
 326.250
  20
 37.5000
  30
0.0
  11
 326.779
  21
 40.5000
  31
0.0
   0
LINE
   8
LEVEL003
   6
CONTINUOUS
  62
3
  10
 326.250
  20
 37.5000
  30
0.0
  11
 325.721
  21
 40.5000
  31
0.0
   0
LINE
   8
LEVEL003
   6
CONTINUOUS
  62
3
  10
 326.250
  20
 397.500
  30
0.0
  11
 325.721
  21
 394.500
  31
0.0
   0
LINE
   8
LEVEL003
   6
CONTINUOUS
  62
3
  10
 326.250
  20
 397.500
  30
0.0
  11
 326.779
  21
 394.500
  31
0.0
   0
TEXT
   8
LEVEL003
  62
3
  10
 344.240
  20
 293.040
  30
0.0
  40
 6.00000
   1
525
  50
 90.0000
  41
 0.500000
   7
STANDARD
  72
1
  11
 344.240
  21
 297.540
  31
0.0
   0
TEXT
   8
LEVEL003
  62
3
  10
 144.000
  20
 246.200
  30
0.0
  40
 6.00000
   1
%%c70
   7
STANDARD
  72
1
  11
 150.000
  21
 246.200
  31
0.0
   0
LINE
   8
LEVEL003
   6
CONTINUOUS
  62
3
  10
 115.000
  20
 245.000
  30
0.0
  11
 185.000
  21
 245.000
  31
0.0
   0
LINE
   8
LEVEL003
   6
CONTINUOUS
  62
3
  10
 185.000
  20
 245.000
  30
0.0
  11
 180.500
  21
 245.793
  31
0.0
   0
LINE
   8
LEVEL003
   6
CONTINUOUS
  62
3
  10
 185.000
  20
 245.000
  30
0.0
  11
 180.500
  21
 244.207
  31
0.0
   0
LINE
   8
LEVEL003
   6
CONTINUOUS
  62
3
  10
 115.000
  20
 245.000
  30
0.0
  11
 119.500
  21
 244.207
  31
0.0
   0
LINE
   8
LEVEL003
   6
CONTINUOUS
  62
3
  10
 115.000
  20
 245.000
  30
0.0
  11
 119.500
  21
 245.793
  31
0.0
   0
LINE
   8
LEVEL003
   6
CONTINUOUS
  62
3
  10
 102.500
  20
 230.000
  30
0.0
  11
 197.500
  21
 230.000
  31
0.0
   0
LINE
   8
LEVEL003
   6
CONTINUOUS
  62
3
  10
 102.500
  20
 230.000
  30
0.0
  11
 107.000
  21
 229.207
  31
0.0
   0
LINE
   8
LEVEL003
   6
CONTINUOUS
  62
3
  10
 102.500
  20
 230.000
  30
0.0
  11
 107.000
  21
 230.793
  31
0.0
   0
LINE
   8
LEVEL003
   6
CONTINUOUS
  62
3
  10
 197.500
  20
 230.000
  30
0.0
  11
 193.000
  21
 230.793
  31
0.0
   0
LINE
   8
LEVEL003
   6
CONTINUOUS
  62
3
  10
 197.500
  20
 230.000
  30
0.0
  11
 193.000
  21
 229.207
  31
0.0
   0
TEXT
   8
LEVEL003
  62
3
  10
 144.000
  20
 231.200
  30
0.0
  40
 6.00000
   1
%%c95
   7
STANDARD
  72
1
  11
 150.000
  21
 231.200
  31
0.0
   0
LINE
   8
LEVEL003
   6
CONTINUOUS
  62
3
  10
 87.5000
  20
 215.000
  30
0.0
  11
 212.500
  21
 215.000
  31
0.0
   0
LINE
   8
LEVEL003
   6
CONTINUOUS
  62
3
  10
 212.500
  20
 215.000
  30
0.0
  11
 208.000
  21
 215.793
  31
0.0
   0
LINE
   8
LEVEL003
   6
CONTINUOUS
  62
3
  10
 212.500
  20
 215.000
  30
0.0
  11
 208.000
  21
 214.207
  31
0.0
   0
TEXT
   8
LEVEL003
  62
3
  10
 142.500
  20
 216.200
  30
0.0
  40
 6.00000
   1
%%c125
   7
STANDARD
  72
1
  11
 150.000
  21
 216.200
  31
0.0
   0
LINE
   8
LEVEL003
   6
CONTINUOUS
  62
3
  10
 87.5000
  20
 215.000
  30
0.0
  11
 92.0000
  21
 214.207
  31
0.0
   0
LINE
   8
LEVEL003
   6
CONTINUOUS
  62
3
  10
 87.5000
  20
 215.000
  30
0.0
  11
 92.0000
  21
 215.793
  31
0.0
   0
TEXT
   8
LEVEL003
  62
7
  10
 377.102
  20
 29.6134
  30
0.0
  40
 6.00000
   1
Model : Ｅ５０Ｈ３５
   7
STANDARD
   0
TEXT
   8
LEVEL003
  62
3
  10
 324.476
  20
 213.392
  30
0.0
  40
 6.00000
   1
360
  50
 90.0000
  41
 0.500000
   7
STANDARD
  72
1
  11
 324.476
  21
 217.892
  31
0.0
   0
ENDSEC
   0
EOF
