   0
SECTION
   2
HEADER
   9
$LIMMIN
  10
0.0
  20
0.0
   9
$LIMMAX
  10
 420.000
  20
 297.000
   9
$EXTMIN
  10
0.0
  20
0.0
   9
$EXTMAX
  10
 420.000
  20
 297.000
   9
$LTSCALE
  40
 8.40000
   0
ENDSEC
   0
SECTION
   2
TABLES
  0
TABLE
  2
LTYPE
 70
    25
  0
LTYPE
  2
CONTINUOUS
 70
    64
  3
Solid line
 72
    65
 73
     0
 40
0.0
  0
LTYPE
  2
BORDER
 70
    64
  3
__ __ . __ __ . __ __ . __ __ . __ __ . __ __ .
 72
    65
 73
     6
 40
1.75
 49
0.5
 49
-0.25
 49
0.5
 49
-0.25
 49
0.0
 49
-0.25
  0
LTYPE
  2
BORDER2
 70
    64
  3
__.__.__.__.__.__.__.__.__.__.__.__.__.__.__.__
 72
    65
 73
     6
 40
0.875
 49
0.25
 49
-0.125
 49
0.25
 49
-0.125
 49
0.0
 49
-0.125
  0
LTYPE
  2
BORDERX2
 70
    64
  3
____  ____  .  ____  ____  .  ____  ____  .  __
 72
    65
 73
     6
 40
3.5
 49
1.0
 49
-0.5
 49
1.0
 49
-0.5
 49
0.0
 49
-0.5
  0
LTYPE
  2
CENTER
 70
    64
  3
____ _ ____ _ ____ _ ____ _ ____ _ ____ _ ____ 
 72
    65
 73
     4
 40
2.0
 49
1.25
 49
-0.25
 49
0.25
 49
-0.25
  0
LTYPE
  2
CENTER2
 70
    64
  3
___ _ ___ _ ___ _ ___ _ ___ _ ___ _ ___ _ ___ _
 72
    65
 73
     4
 40
1.125
 49
0.75
 49
-0.125
 49
0.125
 49
-0.125
  0
LTYPE
  2
CENTERX2
 70
    64
  3
________  __  ________  __  ________  __  _____
 72
    65
 73
     4
 40
4.0
 49
2.5
 49
-0.5
 49
0.5
 49
-0.5
  0
LTYPE
  2
DASHDOT
 70
    64
  3
__ . __ . __ . __ . __ . __ . __ . __ . __ . __
 72
    65
 73
     4
 40
1.0
 49
0.5
 49
-0.25
 49
0.0
 49
-0.25
  0
LTYPE
  2
DASHDOT2
 70
    64
  3
_._._._._._._._._._._._._._._._._._._._._._._._
 72
    65
 73
     4
 40
0.5
 49
0.25
 49
-0.125
 49
0.0
 49
-0.125
  0
LTYPE
  2
DASHDOTX2
 70
    64
  3
____  .  ____  .  ____  .  ____  .  ____  .  __
 72
    65
 73
     4
 40
2.0
 49
1.0
 49
-0.5
 49
0.0
 49
-0.5
  0
LTYPE
  2
DASHED
 70
    64
  3
__ __ __ __ __ __ __ __ __ __ __ __ __ __ __ __
 72
    65
 73
     2
 40
0.75
 49
0.5
 49
-0.25
  0
LTYPE
  2
DASHED2
 70
    64
  3
_ _ _ _ _ _ _ _ _ _ _ _ _ _ _ _ _ _ _ _ _ _ _ _
 72
    65
 73
     2
 40
0.375
 49
0.25
 49
-0.125
  0
LTYPE
  2
DASHEDX2
 70
    64
  3
____  ____  ____  ____  ____  ____  ____  ____ 
 72
    65
 73
     2
 40
1.5
 49
1.0
 49
-0.5
  0
LTYPE
  2
DIVIDE
 70
    64
  3
____ . . ____ . . ____ . . ____ . . ____ . . __
 72
    65
 73
     6
 40
1.25
 49
0.5
 49
-0.25
 49
0.0
 49
-0.25
 49
0.0
 49
-0.25
  0
LTYPE
  2
DIVIDE2
 70
    64
  3
__..__..__..__..__..__..__..__..__..__..__..__.
 72
    65
 73
     6
 40
0.625
 49
0.25
 49
-0.125
 49
0.0
 49
-0.125
 49
0.0
 49
-0.125
  0
LTYPE
  2
DIVIDEX2
 70
    64
  3
________  .  .  ________  .  .  ________  .  . 
 72
    65
 73
     6
 40
2.5
 49
1.0
 49
-0.5
 49
0.0
 49
-0.5
 49
0.0
 49
-0.5
  0
LTYPE
  2
DOT
 70
    64
  3
. . . . . . . . . . . . . . . . . . . . . . . .
 72
    65
 73
     2
 40
0.25
 49
0.0
 49
-0.25
  0
LTYPE
  2
DOT2
 70
    64
  3
...............................................
 72
    65
 73
     2
 40
0.125
 49
0.0
 49
-0.125
  0
LTYPE
  2
DOTX2
 70
    64
  3
.  .  .  .  .  .  .  .  .  .  .  .  .  .  .  . 
 72
    65
 73
     2
 40
0.5
 49
0.0
 49
-0.5
  0
LTYPE
  2
HIDDEN
 70
    64
  3
__ __ __ __ __ __ __ __ __ __ __ __ __ __ __ __
 72
    65
 73
     2
 40
0.375
 49
0.25
 49
-0.125
  0
LTYPE
  2
HIDDEN2
 70
    64
  3
_ _ _ _ _ _ _ _ _ _ _ _ _ _ _ _ _ _ _ _ _ _ _ _
 72
    65
 73
     2
 40
0.1875
 49
0.125
 49
-0.0625
  0
LTYPE
  2
HIDDENX2
 70
    64
  3
____ ____ ____ ____ ____ ____ ____ ____ ____ __
 72
    65
 73
     2
 40
0.75
 49
0.5
 49
-0.25
  0
LTYPE
  2
PHANTOM
 70
    64
  3
______  __  __  ______  __  __  ______  __  __ 
 72
    65
 73
     6
 40
2.5
 49
1.25
 49
-0.25
 49
0.25
 49
-0.25
 49
0.25
 49
-0.25
  0
LTYPE
  2
PHANTOM2
 70
    64
  3
___ _ _ ___ _ _ ___ _ _ ___ _ _ ___ _ _ ___ _ _
 72
    65
 73
     6
 40
1.25
 49
0.625
 49
-0.125
 49
0.125
 49
-0.125
 49
0.125
 49
-0.125
  0
LTYPE
  2
PHANTOMX2
 70
    64
  3
____________    ____    ____    ____________   
 72
    65
 73
     6
 40
5.0
 49
2.5
 49
-0.5
 49
0.5
 49
-0.5
 49
0.5
 49
-0.5
  0
ENDTAB
  0
TABLE
  2
STYLE
 70
     2
  0
STYLE
  2
STANDARD
 70
0
 40
0.0
 41
1.0
 50
0.0
 71
0
 42
0.2
  3
TXT
  4
BIGFONT
  0
STYLE
  2
STANDARD1
 70
     4
 40
0.0
 41
1.0
 50
0.0
 71
     0
 42
0.2
  3
TXT
  4
BIGFONT
  0
ENDTAB
   0
TABLE
   2
LAYER
  70
4
   0
LAYER
   2
0
  70
0
  62
7
   6
CONTINUOUS
   0
LAYER
   2
LEVEL001
  70
0
  62
7
   6
CONTINUOUS
   0
LAYER
   2
LEVEL003
  70
0
  62
7
   6
CONTINUOUS
   0
LAYER
   2
LEVEL004
  70
0
  62
7
   6
CONTINUOUS
   0
ENDTAB
   0
ENDSEC
   0
SECTION
   2
ENTITIES
   0
LINE
   8
LEVEL003
   6
CONTINUOUS
  62
3
  10
 61.0000
  20
 218.000
  30
0.0
  11
 61.0000
  21
 237.000
  31
0.0
   0
LINE
   8
LEVEL003
   6
CONTINUOUS
  62
3
  10
 89.0000
  20
 218.000
  30
0.0
  11
 89.0000
  21
 237.000
  31
0.0
   0
LINE
   8
LEVEL003
   6
CONTINUOUS
  62
3
  10
 61.0000
  20
 235.000
  30
0.0
  11
 89.0000
  21
 235.000
  31
0.0
   0
LINE
   8
LEVEL003
   6
CONTINUOUS
  62
3
  10
 61.0000
  20
 235.000
  30
0.0
  11
 64.0000
  21
 234.471
  31
0.0
   0
LINE
   8
LEVEL003
   6
CONTINUOUS
  62
3
  10
 61.0000
  20
 235.000
  30
0.0
  11
 64.0000
  21
 235.529
  31
0.0
   0
LINE
   8
LEVEL003
   6
CONTINUOUS
  62
3
  10
 89.0000
  20
 235.000
  30
0.0
  11
 86.0000
  21
 235.529
  31
0.0
   0
LINE
   8
LEVEL003
   6
CONTINUOUS
  62
3
  10
 89.0000
  20
 235.000
  30
0.0
  11
 86.0000
  21
 234.471
  31
0.0
   0
TEXT
   8
LEVEL003
  62
3
  10
 65.0000
  20
 235.800
  30
0.0
  40
 4.00000
   1
%%c28
   7
STANDARD
  72
1
  11
 75.0000
  21
 235.800
  31
0.0
   0
LINE
   8
LEVEL003
   6
CONTINUOUS
  62
3
  10
 66.0000
  20
 210.250
  30
0.0
  11
 66.0000
  21
 227.000
  31
0.0
   0
LINE
   8
LEVEL003
   6
CONTINUOUS
  62
3
  10
 84.0000
  20
 210.250
  30
0.0
  11
 84.0000
  21
 227.000
  31
0.0
   0
LINE
   8
LEVEL003
   6
CONTINUOUS
  62
3
  10
 66.0000
  20
 225.000
  30
0.0
  11
 84.0000
  21
 225.000
  31
0.0
   0
LINE
   8
LEVEL003
   6
CONTINUOUS
  62
3
  10
 84.0000
  20
 225.000
  30
0.0
  11
 117.000
  21
 225.000
  31
0.0
   0
LINE
   8
LEVEL003
   6
CONTINUOUS
  62
3
  10
 66.0000
  20
 225.000
  30
0.0
  11
 69.0000
  21
 224.471
  31
0.0
   0
LINE
   8
LEVEL003
   6
CONTINUOUS
  62
3
  10
 66.0000
  20
 225.000
  30
0.0
  11
 69.0000
  21
 225.529
  31
0.0
   0
LINE
   8
LEVEL003
   6
CONTINUOUS
  62
3
  10
 84.0000
  20
 225.000
  30
0.0
  11
 81.0000
  21
 225.529
  31
0.0
   0
LINE
   8
LEVEL003
   6
CONTINUOUS
  62
3
  10
 84.0000
  20
 225.000
  30
0.0
  11
 81.0000
  21
 224.471
  31
0.0
   0
TEXT
   8
LEVEL003
  62
3
  10
 96.0000
  20
 225.800
  30
0.0
  40
 4.00000
   1
M18×1.5
   7
STANDARD
  72
1
  11
 104.000
  21
 225.800
  31
0.0
   0
TEXT
   8
LEVEL003
  62
3
  10
 135.000
  20
 170.000
  30
0.0
  40
 4.00000
   1
Ｍ５５×１．５
   7
STANDARD
   0
POLYLINE
   8
LEVEL003
   6
CONTINUOUS
  62
3
  66
1
  10
0.0
  20
0.0
  30
0.0
  70
0
   0
VERTEX
   8
LEVEL003
   6
CONTINUOUS
  62
3
  10
 102.500
  20
 165.000
  30
0.0
   0
VERTEX
   8
LEVEL003
   6
CONTINUOUS
  62
3
  10
 135.000
  20
 170.000
  30
0.0
   0
VERTEX
   8
LEVEL003
   6
CONTINUOUS
  62
3
  10
 165.000
  20
 170.000
  30
0.0
   0
SEQEND
   0
LINE
   8
LEVEL003
   6
CONTINUOUS
  62
3
  10
 102.500
  20
 165.000
  30
0.0
  11
 105.546
  21
 164.933
  31
0.0
   0
LINE
   8
LEVEL003
   6
CONTINUOUS
  62
3
  10
 102.500
  20
 165.000
  30
0.0
  11
 105.385
  21
 165.979
  31
0.0
   0
LINE
   8
LEVEL003
   6
CONTINUOUS
  62
3
  10
 61.5000
  20
 49.0000
  30
0.0
  11
 61.5000
  21
 33.0000
  31
0.0
   0
LINE
   8
LEVEL003
   6
CONTINUOUS
  62
3
  10
 88.5000
  20
 49.0000
  30
0.0
  11
 88.5000
  21
 33.0000
  31
0.0
   0
LINE
   8
LEVEL003
   6
CONTINUOUS
  62
3
  10
 61.5000
  20
 35.0000
  30
0.0
  11
 88.5000
  21
 35.0000
  31
0.0
   0
LINE
   8
LEVEL003
   6
CONTINUOUS
  62
3
  10
 61.5000
  20
 35.0000
  30
0.0
  11
 64.5000
  21
 34.4710
  31
0.0
   0
LINE
   8
LEVEL003
   6
CONTINUOUS
  62
3
  10
 61.5000
  20
 35.0000
  30
0.0
  11
 64.5000
  21
 35.5290
  31
0.0
   0
LINE
   8
LEVEL003
   6
CONTINUOUS
  62
3
  10
 88.5000
  20
 35.0000
  30
0.0
  11
 85.5000
  21
 35.5290
  31
0.0
   0
LINE
   8
LEVEL003
   6
CONTINUOUS
  62
3
  10
 88.5000
  20
 35.0000
  30
0.0
  11
 85.5000
  21
 34.4710
  31
0.0
   0
TEXT
   8
LEVEL003
  62
3
  10
 69.0000
  20
 35.8000
  30
0.0
  40
 4.00000
   1
M27×2
   7
STANDARD
  72
1
  11
 75.0000
  21
 35.8000
  31
0.0
   0
LINE
   8
LEVEL003
   6
CONTINUOUS
  62
3
  10
 88.5000
  20
 67.0000
  30
0.0
  11
 112.000
  21
 67.0000
  31
0.0
   0
LINE
   8
LEVEL003
   6
CONTINUOUS
  62
3
  10
 102.500
  20
 50.0000
  30
0.0
  11
 112.000
  21
 50.0000
  31
0.0
   0
LINE
   8
LEVEL003
   6
CONTINUOUS
  62
3
  10
 110.000
  20
 67.0000
  30
0.0
  11
 110.000
  21
 50.0000
  31
0.0
   0
LINE
   8
LEVEL003
   6
CONTINUOUS
  62
3
  10
 110.000
  20
 67.0000
  30
0.0
  11
 109.471
  21
 64.0000
  31
0.0
   0
LINE
   8
LEVEL003
   6
CONTINUOUS
  62
3
  10
 110.000
  20
 67.0000
  30
0.0
  11
 110.529
  21
 64.0000
  31
0.0
   0
LINE
   8
LEVEL003
   6
CONTINUOUS
  62
3
  10
 110.000
  20
 50.0000
  30
0.0
  11
 110.529
  21
 53.0000
  31
0.0
   0
LINE
   8
LEVEL003
   6
CONTINUOUS
  62
3
  10
 110.000
  20
 50.0000
  30
0.0
  11
 109.471
  21
 53.0000
  31
0.0
   0
TEXT
   8
LEVEL003
  62
3
  10
 109.200
  20
 54.5000
  30
0.0
  40
 4.00000
   1
17
  50
 90.0000
   7
STANDARD
  72
1
  11
 109.200
  21
 58.5000
  31
0.0
   0
LINE
   8
LEVEL003
   6
CONTINUOUS
  62
3
  10
 63.8000
  20
 135.000
  30
0.0
  11
 63.8000
  21
 135.000
  31
0.0
   0
LINE
   8
LEVEL003
   6
CONTINUOUS
  62
3
  10
 86.2000
  20
 135.000
  30
0.0
  11
 86.2000
  21
 135.000
  31
0.0
   0
LINE
   8
LEVEL003
   6
CONTINUOUS
  62
3
  10
 63.8000
  20
 135.000
  30
0.0
  11
 86.2000
  21
 135.000
  31
0.0
   0
LINE
   8
LEVEL003
   6
CONTINUOUS
  62
3
  10
 63.8000
  20
 135.000
  30
0.0
  11
 66.8000
  21
 134.471
  31
0.0
   0
LINE
   8
LEVEL003
   6
CONTINUOUS
  62
3
  10
 63.8000
  20
 135.000
  30
0.0
  11
 66.8000
  21
 135.529
  31
0.0
   0
LINE
   8
LEVEL003
   6
CONTINUOUS
  62
3
  10
 86.2000
  20
 135.000
  30
0.0
  11
 83.2000
  21
 135.529
  31
0.0
   0
LINE
   8
LEVEL003
   6
CONTINUOUS
  62
3
  10
 86.2000
  20
 135.000
  30
0.0
  11
 83.2000
  21
 134.471
  31
0.0
   0
TEXT
   8
LEVEL003
  62
3
  10
 60.0000
  20
 135.800
  30
0.0
  40
 4.00000
   1
%%c22.4
   7
STANDARD
  72
1
  11
 74.0000
  21
 135.800
  31
0.0
   0
LINE
   8
LEVEL003
   6
CONTINUOUS
  62
3
  10
 60.0000
  20
 125.000
  30
0.0
  11
 60.0000
  21
 125.000
  31
0.0
   0
LINE
   8
LEVEL003
   6
CONTINUOUS
  62
3
  10
 90.0000
  20
 125.000
  30
0.0
  11
 90.0000
  21
 125.000
  31
0.0
   0
LINE
   8
LEVEL003
   6
CONTINUOUS
  62
3
  10
 60.0000
  20
 125.000
  30
0.0
  11
 90.0000
  21
 125.000
  31
0.0
   0
LINE
   8
LEVEL003
   6
CONTINUOUS
  62
3
  10
 60.0000
  20
 125.000
  30
0.0
  11
 63.0000
  21
 124.471
  31
0.0
   0
LINE
   8
LEVEL003
   6
CONTINUOUS
  62
3
  10
 60.0000
  20
 125.000
  30
0.0
  11
 63.0000
  21
 125.529
  31
0.0
   0
LINE
   8
LEVEL003
   6
CONTINUOUS
  62
3
  10
 90.0000
  20
 125.000
  30
0.0
  11
 87.0000
  21
 125.529
  31
0.0
   0
LINE
   8
LEVEL003
   6
CONTINUOUS
  62
3
  10
 90.0000
  20
 125.000
  30
0.0
  11
 87.0000
  21
 124.471
  31
0.0
   0
TEXT
   8
LEVEL003
  62
3
  10
 65.0000
  20
 125.800
  30
0.0
  40
 4.00000
   1
%%c30
   7
STANDARD
  72
1
  11
 75.0000
  21
 125.800
  31
0.0
   0
LINE
   8
LEVEL003
   6
CONTINUOUS
  62
3
  10
 47.5000
  20
 115.000
  30
0.0
  11
 47.5000
  21
 115.000
  31
0.0
   0
LINE
   8
LEVEL003
   6
CONTINUOUS
  62
3
  10
 102.500
  20
 115.000
  30
0.0
  11
 102.500
  21
 115.000
  31
0.0
   0
LINE
   8
LEVEL003
   6
CONTINUOUS
  62
3
  10
 47.5000
  20
 115.000
  30
0.0
  11
 102.500
  21
 115.000
  31
0.0
   0
LINE
   8
LEVEL003
   6
CONTINUOUS
  62
3
  10
 47.5000
  20
 115.000
  30
0.0
  11
 50.5000
  21
 114.471
  31
0.0
   0
LINE
   8
LEVEL003
   6
CONTINUOUS
  62
3
  10
 47.5000
  20
 115.000
  30
0.0
  11
 50.5000
  21
 115.529
  31
0.0
   0
LINE
   8
LEVEL003
   6
CONTINUOUS
  62
3
  10
 102.500
  20
 115.000
  30
0.0
  11
 99.5000
  21
 115.529
  31
0.0
   0
LINE
   8
LEVEL003
   6
CONTINUOUS
  62
3
  10
 102.500
  20
 115.000
  30
0.0
  11
 99.5000
  21
 114.471
  31
0.0
   0
TEXT
   8
LEVEL003
  62
3
  10
 65.0000
  20
 115.800
  30
0.0
  40
 4.00000
   1
%%c55
   7
STANDARD
  72
1
  11
 75.0000
  21
 115.800
  31
0.0
   0
LINE
   8
LEVEL001
   6
CONTINUOUS
  62
3
  10
 112.500
  20
 89.6435
  30
0.0
  11
 108.884
  21
 88.6745
  31
0.0
   0
LINE
   8
LEVEL001
   6
CONTINUOUS
  62
7
  10
 112.500
  20
 89.6435
  30
0.0
  11
 113.984
  21
 90.5000
  31
0.0
   0
LINE
   8
LEVEL001
   6
CONTINUOUS
  62
7
  10
 129.500
  20
 90.5000
  30
0.0
  11
 113.984
  21
 90.5000
  31
0.0
   0
ARC
   8
LEVEL001
   6
CONTINUOUS
  62
7
  10
 131.000
  20
 94.0000
  30
0.0
  40
 1.50000
  50
 90.0000
  51
 180.000
   0
LINE
   8
LEVEL001
   6
CONTINUOUS
  62
7
  10
 131.000
  20
 95.5000
  30
0.0
  11
 136.000
  21
 95.5000
  31
0.0
   0
LINE
   8
LEVEL001
   6
CONTINUOUS
  62
7
  10
 129.500
  20
 68.0000
  30
0.0
  11
 129.500
  21
 94.0000
  31
0.0
   0
ARC
   8
LEVEL001
   6
CONTINUOUS
  62
7
  10
 152.000
  20
 94.0000
  30
0.0
  40
 1.50000
  50
0.0
  51
 90.0000
   0
LINE
   8
LEVEL001
   6
CONTINUOUS
  62
7
  10
 147.000
  20
 95.5000
  30
0.0
  11
 152.000
  21
 95.5000
  31
0.0
   0
LINE
   8
LEVEL001
   6
CONTINUOUS
  62
7
  10
 153.500
  20
 94.0000
  30
0.0
  11
 153.500
  21
 68.0000
  31
0.0
   0
ARC
   8
LEVEL001
   6
DASHDOT
  62
1
  10
 162.500
  20
 94.0000
  30
0.0
  40
 1.00000
  50
0.0
  51
 90.0000
   0
LINE
   8
LEVEL001
   6
DASHDOT
  62
1
  10
 154.500
  20
 95.0000
  30
0.0
  11
 162.500
  21
 95.0000
  31
0.0
   0
LINE
   8
LEVEL001
   6
DASHDOT
  62
1
  10
 163.500
  20
 94.0000
  30
0.0
  11
 163.500
  21
 68.0000
  31
0.0
   0
CIRCLE
   8
LEVEL001
   6
DASHDOT
  62
1
  10
 166.500
  20
 81.0000
  30
0.0
  40
 1.50000
   0
ARC
   8
LEVEL001
   6
DASHDOT
  62
1
  10
 154.500
  20
 94.0000
  30
0.0
  40
 1.00000
  50
 90.0000
  51
 180.000
   0
ARC
   8
LEVEL001
   6
DASHDOT
  62
1
  10
 165.500
  20
 86.5000
  30
0.0
  40
 2.00000
  50
 180.000
  51
 270.000
   0
LINE
   8
LEVEL001
   6
DASHDOT
  62
1
  10
 165.500
  20
 84.5000
  30
0.0
  11
 166.000
  21
 84.5000
  31
0.0
   0
ARC
   8
LEVEL001
   6
DASHDOT
  62
1
  10
 166.000
  20
 81.0000
  30
0.0
  40
 3.50000
  50
 270.000
  51
 90.0000
   0
LINE
   8
LEVEL001
   6
CONTINUOUS
  62
7
  10
 113.984
  20
 86.8309
  30
0.0
  11
 113.984
  21
 90.5000
  31
0.0
   0
LINE
   8
LEVEL001
   6
CONTINUOUS
  62
7
  10
 108.500
  20
 76.9608
  30
0.0
  11
 122.500
  21
 86.8309
  31
0.0
   0
LINE
   8
LEVEL001
   6
CONTINUOUS
  62
7
  10
 108.500
  20
 85.0392
  30
0.0
  11
 122.500
  21
 75.1691
  31
0.0
   0
LINE
   8
LEVEL001
   6
CONTINUOUS
  62
3
  10
 108.884
  20
 88.6745
  30
0.0
  11
 108.884
  21
 85.0392
  31
0.0
   0
LINE
   8
LEVEL001
   6
CONTINUOUS
  62
7
  10
 112.500
  20
 89.6435
  30
0.0
  11
 112.500
  21
 85.2965
  31
0.0
   0
LINE
   8
LEVEL001
   6
CONTINUOUS
  62
3
  10
 136.000
  20
 82.0000
  30
0.0
  11
 147.000
  21
 82.0000
  31
0.0
   0
LINE
   8
LEVEL001
   6
CONTINUOUS
  62
3
  10
 136.000
  20
 84.0000
  30
0.0
  11
 147.000
  21
 84.0000
  31
0.0
   0
LINE
   8
LEVEL001
   6
CONTINUOUS
  62
3
  10
 136.000
  20
 86.0000
  30
0.0
  11
 147.000
  21
 86.0000
  31
0.0
   0
LINE
   8
LEVEL001
   6
CONTINUOUS
  62
3
  10
 136.000
  20
 88.0000
  30
0.0
  11
 147.000
  21
 88.0000
  31
0.0
   0
LINE
   8
LEVEL001
   6
CONTINUOUS
  62
3
  10
 136.000
  20
 90.0000
  30
0.0
  11
 147.000
  21
 90.0000
  31
0.0
   0
LINE
   8
LEVEL001
   6
CONTINUOUS
  62
3
  10
 136.000
  20
 92.0000
  30
0.0
  11
 147.000
  21
 92.0000
  31
0.0
   0
LINE
   8
LEVEL001
   6
CONTINUOUS
  62
3
  10
 136.000
  20
 94.0000
  30
0.0
  11
 147.000
  21
 94.0000
  31
0.0
   0
POLYLINE
   8
LEVEL001
   6
CONTINUOUS
  62
7
  66
1
  10
0.0
  20
0.0
  30
0.0
  70
0
   0
VERTEX
   8
LEVEL001
   6
CONTINUOUS
  62
7
  10
 108.500
  20
 76.9608
  30
0.0
   0
VERTEX
   8
LEVEL001
   6
CONTINUOUS
  62
7
  10
 108.500
  20
 85.0392
  30
0.0
   0
VERTEX
   8
LEVEL001
   6
CONTINUOUS
  62
7
  10
 112.500
  20
 85.2965
  30
0.0
   0
VERTEX
   8
LEVEL001
   6
CONTINUOUS
  62
7
  10
 113.984
  20
 86.8309
  30
0.0
   0
VERTEX
   8
LEVEL001
   6
CONTINUOUS
  62
7
  10
 122.500
  20
 86.8309
  30
0.0
   0
VERTEX
   8
LEVEL001
   6
CONTINUOUS
  62
7
  10
 122.500
  20
 75.1691
  30
0.0
   0
VERTEX
   8
LEVEL001
   6
CONTINUOUS
  62
7
  10
 113.984
  20
 75.1691
  30
0.0
   0
VERTEX
   8
LEVEL001
   6
CONTINUOUS
  62
7
  10
 112.500
  20
 76.7035
  30
0.0
   0
VERTEX
   8
LEVEL001
   6
CONTINUOUS
  62
7
  10
 108.500
  20
 76.9608
  30
0.0
   0
SEQEND
   0
POLYLINE
   8
LEVEL001
   6
CONTINUOUS
  62
7
  66
1
  10
0.0
  20
0.0
  30
0.0
  70
0
   0
VERTEX
   8
LEVEL001
   6
CONTINUOUS
  62
7
  10
 136.000
  20
 66.0000
  30
0.0
   0
VERTEX
   8
LEVEL001
   6
CONTINUOUS
  62
7
  10
 136.000
  20
 96.0000
  30
0.0
   0
VERTEX
   8
LEVEL001
   6
CONTINUOUS
  62
7
  10
 147.000
  20
 96.0000
  30
0.0
   0
VERTEX
   8
LEVEL001
   6
CONTINUOUS
  62
7
  10
 147.000
  20
 66.0000
  30
0.0
   0
VERTEX
   8
LEVEL001
   6
CONTINUOUS
  62
7
  10
 136.000
  20
 66.0000
  30
0.0
   0
SEQEND
   0
LINE
   8
LEVEL001
   6
CONTINUOUS
  62
3
  10
 112.500
  20
 72.3565
  30
0.0
  11
 108.884
  21
 73.3255
  31
0.0
   0
LINE
   8
LEVEL001
   6
CONTINUOUS
  62
7
  10
 112.500
  20
 72.3565
  30
0.0
  11
 113.984
  21
 71.5000
  31
0.0
   0
LINE
   8
LEVEL001
   6
CONTINUOUS
  62
7
  10
 129.500
  20
 71.5000
  30
0.0
  11
 113.984
  21
 71.5000
  31
0.0
   0
ARC
   8
LEVEL001
   6
CONTINUOUS
  62
7
  10
 131.000
  20
 68.0000
  30
0.0
  40
 1.50000
  50
 180.000
  51
 270.000
   0
LINE
   8
LEVEL001
   6
CONTINUOUS
  62
7
  10
 131.000
  20
 66.5000
  30
0.0
  11
 136.000
  21
 66.5000
  31
0.0
   0
ARC
   8
LEVEL001
   6
CONTINUOUS
  62
7
  10
 152.000
  20
 68.0000
  30
0.0
  40
 1.50000
  50
 270.000
  51
0.0
   0
LINE
   8
LEVEL001
   6
CONTINUOUS
  62
7
  10
 147.000
  20
 66.5000
  30
0.0
  11
 152.000
  21
 66.5000
  31
0.0
   0
ARC
   8
LEVEL001
   6
DASHDOT
  62
1
  10
 162.500
  20
 68.0000
  30
0.0
  40
 1.00000
  50
 270.000
  51
0.0
   0
LINE
   8
LEVEL001
   6
DASHDOT
  62
1
  10
 154.500
  20
 67.0000
  30
0.0
  11
 162.500
  21
 67.0000
  31
0.0
   0
ARC
   8
LEVEL001
   6
DASHDOT
  62
1
  10
 154.500
  20
 68.0000
  30
0.0
  40
 1.00000
  50
 180.000
  51
 270.000
   0
ARC
   8
LEVEL001
   6
DASHDOT
  62
1
  10
 165.500
  20
 75.5000
  30
0.0
  40
 2.00000
  50
 90.0000
  51
 180.000
   0
LINE
   8
LEVEL001
   6
DASHDOT
  62
1
  10
 165.500
  20
 77.5000
  30
0.0
  11
 166.000
  21
 77.5000
  31
0.0
   0
LINE
   8
LEVEL001
   6
CONTINUOUS
  62
7
  10
 113.984
  20
 71.5000
  30
0.0
  11
 113.984
  21
 75.1691
  31
0.0
   0
LINE
   8
LEVEL001
   6
CONTINUOUS
  62
3
  10
 108.884
  20
 76.9608
  30
0.0
  11
 108.884
  21
 73.3255
  31
0.0
   0
LINE
   8
LEVEL001
   6
CONTINUOUS
  62
7
  10
 112.500
  20
 76.7035
  30
0.0
  11
 112.500
  21
 72.3565
  31
0.0
   0
LINE
   8
LEVEL001
   6
CONTINUOUS
  62
3
  10
 136.000
  20
 68.0000
  30
0.0
  11
 147.000
  21
 68.0000
  31
0.0
   0
LINE
   8
LEVEL001
   6
CONTINUOUS
  62
3
  10
 136.000
  20
 70.0000
  30
0.0
  11
 147.000
  21
 70.0000
  31
0.0
   0
LINE
   8
LEVEL001
   6
CONTINUOUS
  62
3
  10
 136.000
  20
 72.0000
  30
0.0
  11
 147.000
  21
 72.0000
  31
0.0
   0
LINE
   8
LEVEL001
   6
CONTINUOUS
  62
3
  10
 136.000
  20
 74.0000
  30
0.0
  11
 147.000
  21
 74.0000
  31
0.0
   0
LINE
   8
LEVEL001
   6
CONTINUOUS
  62
3
  10
 136.000
  20
 76.0000
  30
0.0
  11
 147.000
  21
 76.0000
  31
0.0
   0
LINE
   8
LEVEL001
   6
CONTINUOUS
  62
3
  10
 136.000
  20
 78.0000
  30
0.0
  11
 147.000
  21
 78.0000
  31
0.0
   0
LINE
   8
LEVEL001
   6
CONTINUOUS
  62
3
  10
 136.000
  20
 80.0000
  30
0.0
  11
 147.000
  21
 80.0000
  31
0.0
   0
LINE
   8
LEVEL003
   6
CONTINUOUS
  62
3
  10
 102.500
  20
 50.0000
  30
0.0
  11
 187.000
  21
 50.0000
  31
0.0
   0
LINE
   8
LEVEL003
   6
CONTINUOUS
  62
3
  10
 174.000
  20
 81.0000
  30
0.0
  11
 187.000
  21
 81.0000
  31
0.0
   0
LINE
   8
LEVEL003
   6
CONTINUOUS
  62
3
  10
 185.000
  20
 50.0000
  30
0.0
  11
 185.000
  21
 81.0000
  31
0.0
   0
LINE
   8
LEVEL003
   6
CONTINUOUS
  62
3
  10
 185.000
  20
 50.0000
  30
0.0
  11
 185.529
  21
 53.0000
  31
0.0
   0
LINE
   8
LEVEL003
   6
CONTINUOUS
  62
3
  10
 185.000
  20
 50.0000
  30
0.0
  11
 184.471
  21
 53.0000
  31
0.0
   0
LINE
   8
LEVEL003
   6
CONTINUOUS
  62
3
  10
 185.000
  20
 81.0000
  30
0.0
  11
 184.471
  21
 78.0000
  31
0.0
   0
LINE
   8
LEVEL003
   6
CONTINUOUS
  62
3
  10
 185.000
  20
 81.0000
  30
0.0
  11
 185.529
  21
 78.0000
  31
0.0
   0
TEXT
   8
LEVEL003
  62
3
  10
 184.200
  20
 61.5000
  30
0.0
  40
 4.00000
   1
31
  50
 90.0000
   7
STANDARD
  72
1
  11
 184.200
  21
 65.5000
  31
0.0
   0
LINE
   8
LEVEL001
   6
CONTINUOUS
  62
7
  10
 129.500
  20
 131.000
  30
0.0
  11
 129.500
  21
 157.000
  31
0.0
   0
LINE
   8
LEVEL001
   6
CONTINUOUS
  62
7
  10
 153.500
  20
 157.000
  30
0.0
  11
 153.500
  21
 131.000
  31
0.0
   0
LINE
   8
LEVEL001
   6
DASHDOT
  62
1
  10
 163.500
  20
 157.000
  30
0.0
  11
 163.500
  21
 131.000
  31
0.0
   0
CIRCLE
   8
LEVEL001
   6
DASHDOT
  62
1
  10
 166.500
  20
 144.000
  30
0.0
  40
 1.50000
   0
ARC
   8
LEVEL001
   6
DASHDOT
  62
1
  10
 166.000
  20
 144.000
  30
0.0
  40
 3.50000
  50
 270.000
  51
 90.0000
   0
LINE
   8
LEVEL001
   6
CONTINUOUS
  62
7
  10
 108.500
  20
 139.961
  30
0.0
  11
 122.500
  21
 149.831
  31
0.0
   0
LINE
   8
LEVEL001
   6
CONTINUOUS
  62
7
  10
 108.500
  20
 148.039
  30
0.0
  11
 122.500
  21
 138.169
  31
0.0
   0
POLYLINE
   8
LEVEL001
   6
CONTINUOUS
  62
7
  66
1
  10
0.0
  20
0.0
  30
0.0
  70
0
   0
VERTEX
   8
LEVEL001
   6
CONTINUOUS
  62
7
  10
 108.500
  20
 139.961
  30
0.0
   0
VERTEX
   8
LEVEL001
   6
CONTINUOUS
  62
7
  10
 108.500
  20
 148.039
  30
0.0
   0
VERTEX
   8
LEVEL001
   6
CONTINUOUS
  62
7
  10
 112.500
  20
 148.297
  30
0.0
   0
VERTEX
   8
LEVEL001
   6
CONTINUOUS
  62
7
  10
 113.984
  20
 149.831
  30
0.0
   0
VERTEX
   8
LEVEL001
   6
CONTINUOUS
  62
7
  10
 122.500
  20
 149.831
  30
0.0
   0
VERTEX
   8
LEVEL001
   6
CONTINUOUS
  62
7
  10
 122.500
  20
 138.169
  30
0.0
   0
VERTEX
   8
LEVEL001
   6
CONTINUOUS
  62
7
  10
 113.984
  20
 138.169
  30
0.0
   0
VERTEX
   8
LEVEL001
   6
CONTINUOUS
  62
7
  10
 112.500
  20
 139.703
  30
0.0
   0
VERTEX
   8
LEVEL001
   6
CONTINUOUS
  62
7
  10
 108.500
  20
 139.961
  30
0.0
   0
SEQEND
   0
POLYLINE
   8
LEVEL001
   6
CONTINUOUS
  62
7
  66
1
  10
0.0
  20
0.0
  30
0.0
  70
0
   0
VERTEX
   8
LEVEL001
   6
CONTINUOUS
  62
7
  10
 136.000
  20
 129.000
  30
0.0
   0
VERTEX
   8
LEVEL001
   6
CONTINUOUS
  62
7
  10
 136.000
  20
 159.000
  30
0.0
   0
VERTEX
   8
LEVEL001
   6
CONTINUOUS
  62
7
  10
 147.000
  20
 159.000
  30
0.0
   0
VERTEX
   8
LEVEL001
   6
CONTINUOUS
  62
7
  10
 147.000
  20
 129.000
  30
0.0
   0
VERTEX
   8
LEVEL001
   6
CONTINUOUS
  62
7
  10
 136.000
  20
 129.000
  30
0.0
   0
SEQEND
   0
LINE
   8
LEVEL001
   6
CONTINUOUS
  62
3
  10
 112.500
  20
 135.356
  30
0.0
  11
 108.884
  21
 136.326
  31
0.0
   0
LINE
   8
LEVEL001
   6
CONTINUOUS
  62
7
  10
 112.500
  20
 135.356
  30
0.0
  11
 113.984
  21
 134.500
  31
0.0
   0
LINE
   8
LEVEL001
   6
CONTINUOUS
  62
7
  10
 129.500
  20
 134.500
  30
0.0
  11
 113.984
  21
 134.500
  31
0.0
   0
ARC
   8
LEVEL001
   6
DASHDOT
  62
1
  10
 165.500
  20
 138.500
  30
0.0
  40
 2.00000
  50
 90.0000
  51
 180.000
   0
LINE
   8
LEVEL001
   6
DASHDOT
  62
1
  10
 165.500
  20
 140.500
  30
0.0
  11
 166.000
  21
 140.500
  31
0.0
   0
LINE
   8
LEVEL001
   6
CONTINUOUS
  62
7
  10
 113.984
  20
 134.500
  30
0.0
  11
 113.984
  21
 138.169
  31
0.0
   0
LINE
   8
LEVEL001
   6
CONTINUOUS
  62
3
  10
 108.884
  20
 139.961
  30
0.0
  11
 108.884
  21
 136.326
  31
0.0
   0
LINE
   8
LEVEL001
   6
CONTINUOUS
  62
7
  10
 112.500
  20
 139.703
  30
0.0
  11
 112.500
  21
 135.356
  31
0.0
   0
LINE
   8
LEVEL001
   6
CONTINUOUS
  62
3
  10
 136.000
  20
 133.000
  30
0.0
  11
 147.000
  21
 133.000
  31
0.0
   0
LINE
   8
LEVEL001
   6
CONTINUOUS
  62
3
  10
 136.000
  20
 135.000
  30
0.0
  11
 147.000
  21
 135.000
  31
0.0
   0
LINE
   8
LEVEL001
   6
CONTINUOUS
  62
3
  10
 136.000
  20
 137.000
  30
0.0
  11
 147.000
  21
 137.000
  31
0.0
   0
LINE
   8
LEVEL001
   6
CONTINUOUS
  62
3
  10
 136.000
  20
 139.000
  30
0.0
  11
 147.000
  21
 139.000
  31
0.0
   0
LINE
   8
LEVEL001
   6
CONTINUOUS
  62
3
  10
 136.000
  20
 141.000
  30
0.0
  11
 147.000
  21
 141.000
  31
0.0
   0
LINE
   8
LEVEL001
   6
CONTINUOUS
  62
3
  10
 136.000
  20
 143.000
  30
0.0
  11
 147.000
  21
 143.000
  31
0.0
   0
ARC
   8
LEVEL001
   6
CONTINUOUS
  62
7
  10
 131.000
  20
 131.000
  30
0.0
  40
 1.50000
  50
 180.000
  51
 270.000
   0
LINE
   8
LEVEL001
   6
CONTINUOUS
  62
7
  10
 131.000
  20
 129.500
  30
0.0
  11
 136.000
  21
 129.500
  31
0.0
   0
ARC
   8
LEVEL001
   6
CONTINUOUS
  62
7
  10
 152.000
  20
 131.000
  30
0.0
  40
 1.50000
  50
 270.000
  51
0.0
   0
LINE
   8
LEVEL001
   6
CONTINUOUS
  62
7
  10
 147.000
  20
 129.500
  30
0.0
  11
 152.000
  21
 129.500
  31
0.0
   0
ARC
   8
LEVEL001
   6
DASHDOT
  62
1
  10
 162.500
  20
 131.000
  30
0.0
  40
 1.00000
  50
 270.000
  51
0.0
   0
LINE
   8
LEVEL001
   6
DASHDOT
  62
1
  10
 154.500
  20
 130.000
  30
0.0
  11
 162.500
  21
 130.000
  31
0.0
   0
ARC
   8
LEVEL001
   6
DASHDOT
  62
1
  10
 154.500
  20
 131.000
  30
0.0
  40
 1.00000
  50
 180.000
  51
 270.000
   0
LINE
   8
LEVEL001
   6
CONTINUOUS
  62
3
  10
 136.000
  20
 131.000
  30
0.0
  11
 147.000
  21
 131.000
  31
0.0
   0
LINE
   8
LEVEL001
   6
CONTINUOUS
  62
3
  10
 112.500
  20
 152.644
  30
0.0
  11
 108.884
  21
 151.675
  31
0.0
   0
LINE
   8
LEVEL001
   6
CONTINUOUS
  62
7
  10
 112.500
  20
 152.644
  30
0.0
  11
 113.984
  21
 153.500
  31
0.0
   0
LINE
   8
LEVEL001
   6
CONTINUOUS
  62
7
  10
 129.500
  20
 153.500
  30
0.0
  11
 113.984
  21
 153.500
  31
0.0
   0
ARC
   8
LEVEL001
   6
DASHDOT
  62
1
  10
 165.500
  20
 149.500
  30
0.0
  40
 2.00000
  50
 180.000
  51
 270.000
   0
LINE
   8
LEVEL001
   6
DASHDOT
  62
1
  10
 165.500
  20
 147.500
  30
0.0
  11
 166.000
  21
 147.500
  31
0.0
   0
LINE
   8
LEVEL001
   6
CONTINUOUS
  62
7
  10
 113.984
  20
 149.831
  30
0.0
  11
 113.984
  21
 153.500
  31
0.0
   0
LINE
   8
LEVEL001
   6
CONTINUOUS
  62
3
  10
 108.884
  20
 151.674
  30
0.0
  11
 108.884
  21
 148.039
  31
0.0
   0
LINE
   8
LEVEL001
   6
CONTINUOUS
  62
7
  10
 112.500
  20
 152.644
  30
0.0
  11
 112.500
  21
 148.297
  31
0.0
   0
LINE
   8
LEVEL001
   6
CONTINUOUS
  62
3
  10
 136.000
  20
 145.000
  30
0.0
  11
 147.000
  21
 145.000
  31
0.0
   0
LINE
   8
LEVEL001
   6
CONTINUOUS
  62
3
  10
 136.000
  20
 147.000
  30
0.0
  11
 147.000
  21
 147.000
  31
0.0
   0
LINE
   8
LEVEL001
   6
CONTINUOUS
  62
3
  10
 136.000
  20
 149.000
  30
0.0
  11
 147.000
  21
 149.000
  31
0.0
   0
LINE
   8
LEVEL001
   6
CONTINUOUS
  62
3
  10
 136.000
  20
 151.000
  30
0.0
  11
 147.000
  21
 151.000
  31
0.0
   0
LINE
   8
LEVEL001
   6
CONTINUOUS
  62
3
  10
 136.000
  20
 153.000
  30
0.0
  11
 147.000
  21
 153.000
  31
0.0
   0
LINE
   8
LEVEL001
   6
CONTINUOUS
  62
3
  10
 136.000
  20
 155.000
  30
0.0
  11
 147.000
  21
 155.000
  31
0.0
   0
ARC
   8
LEVEL001
   6
CONTINUOUS
  62
7
  10
 131.000
  20
 157.000
  30
0.0
  40
 1.50000
  50
 90.0000
  51
 180.000
   0
LINE
   8
LEVEL001
   6
CONTINUOUS
  62
7
  10
 131.000
  20
 158.500
  30
0.0
  11
 136.000
  21
 158.500
  31
0.0
   0
LINE
   8
LEVEL001
   6
CONTINUOUS
  62
7
  10
 147.000
  20
 158.500
  30
0.0
  11
 152.000
  21
 158.500
  31
0.0
   0
LINE
   8
LEVEL001
   6
CONTINUOUS
  62
3
  10
 136.000
  20
 157.000
  30
0.0
  11
 147.000
  21
 157.000
  31
0.0
   0
ARC
   8
LEVEL001
   6
CONTINUOUS
  62
7
  10
 152.000
  20
 157.000
  30
0.0
  40
 1.50000
  50
0.0
  51
 90.0000
   0
ARC
   8
LEVEL001
   6
DASHDOT
  62
1
  10
 162.500
  20
 157.000
  30
0.0
  40
 1.00000
  50
0.0
  51
 90.0000
   0
LINE
   8
LEVEL001
   6
DASHDOT
  62
1
  10
 154.500
  20
 158.000
  30
0.0
  11
 162.500
  21
 158.000
  31
0.0
   0
ARC
   8
LEVEL001
   6
DASHDOT
  62
1
  10
 154.500
  20
 157.000
  30
0.0
  40
 1.00000
  50
 90.0000
  51
 180.000
   0
LINE
   8
LEVEL003
   6
CONTINUOUS
  62
3
  10
 101.500
  20
 188.000
  30
0.0
  11
 187.000
  21
 188.000
  31
0.0
   0
LINE
   8
LEVEL003
   6
CONTINUOUS
  62
3
  10
 174.000
  20
 144.000
  30
0.0
  11
 187.000
  21
 144.000
  31
0.0
   0
LINE
   8
LEVEL003
   6
CONTINUOUS
  62
3
  10
 185.000
  20
 188.000
  30
0.0
  11
 185.000
  21
 144.000
  31
0.0
   0
LINE
   8
LEVEL003
   6
CONTINUOUS
  62
3
  10
 185.000
  20
 188.000
  30
0.0
  11
 184.471
  21
 185.000
  31
0.0
   0
LINE
   8
LEVEL003
   6
CONTINUOUS
  62
3
  10
 185.000
  20
 188.000
  30
0.0
  11
 185.529
  21
 185.000
  31
0.0
   0
LINE
   8
LEVEL003
   6
CONTINUOUS
  62
3
  10
 185.000
  20
 144.000
  30
0.0
  11
 185.529
  21
 147.000
  31
0.0
   0
LINE
   8
LEVEL003
   6
CONTINUOUS
  62
3
  10
 185.000
  20
 144.000
  30
0.0
  11
 184.471
  21
 147.000
  31
0.0
   0
TEXT
   8
LEVEL003
  62
3
  10
 184.200
  20
 162.000
  30
0.0
  40
 4.00000
   1
44
  50
 90.0000
   7
STANDARD
  72
1
  11
 184.200
  21
 166.000
  31
0.0
   0
LINE
   8
LEVEL003
   6
CONTINUOUS
  62
3
  10
 89.0000
  20
 218.000
  30
0.0
  11
 187.000
  21
 218.000
  31
0.0
   0
LINE
   8
LEVEL003
   6
CONTINUOUS
  62
3
  10
 101.500
  20
 188.000
  30
0.0
  11
 187.000
  21
 188.000
  31
0.0
   0
LINE
   8
LEVEL003
   6
CONTINUOUS
  62
3
  10
 185.000
  20
 218.000
  30
0.0
  11
 185.000
  21
 188.000
  31
0.0
   0
LINE
   8
LEVEL003
   6
CONTINUOUS
  62
3
  10
 185.000
  20
 218.000
  30
0.0
  11
 184.471
  21
 215.000
  31
0.0
   0
LINE
   8
LEVEL003
   6
CONTINUOUS
  62
3
  10
 185.000
  20
 218.000
  30
0.0
  11
 185.529
  21
 215.000
  31
0.0
   0
LINE
   8
LEVEL003
   6
CONTINUOUS
  62
3
  10
 185.000
  20
 188.000
  30
0.0
  11
 185.529
  21
 191.000
  31
0.0
   0
LINE
   8
LEVEL003
   6
CONTINUOUS
  62
3
  10
 185.000
  20
 188.000
  30
0.0
  11
 184.471
  21
 191.000
  31
0.0
   0
TEXT
   8
LEVEL003
  62
3
  10
 184.200
  20
 199.000
  30
0.0
  40
 4.00000
   1
30
  50
 90.0000
   7
STANDARD
  72
1
  11
 184.200
  21
 203.000
  31
0.0
   0
LINE
   8
LEVEL003
   6
CONTINUOUS
  62
3
  10
 89.0000
  20
 218.000
  30
0.0
  11
 207.000
  21
 218.000
  31
0.0
   0
LINE
   8
LEVEL003
   6
CONTINUOUS
  62
3
  10
 102.500
  20
 50.0000
  30
0.0
  11
 207.000
  21
 50.0000
  31
0.0
   0
LINE
   8
LEVEL003
   6
CONTINUOUS
  62
3
  10
 205.000
  20
 218.000
  30
0.0
  11
 205.000
  21
 50.0000
  31
0.0
   0
LINE
   8
LEVEL003
   6
CONTINUOUS
  62
3
  10
 205.000
  20
 218.000
  30
0.0
  11
 204.471
  21
 215.000
  31
0.0
   0
LINE
   8
LEVEL003
   6
CONTINUOUS
  62
3
  10
 205.000
  20
 218.000
  30
0.0
  11
 205.529
  21
 215.000
  31
0.0
   0
LINE
   8
LEVEL003
   6
CONTINUOUS
  62
3
  10
 205.000
  20
 50.0000
  30
0.0
  11
 205.529
  21
 53.0000
  31
0.0
   0
LINE
   8
LEVEL003
   6
CONTINUOUS
  62
3
  10
 205.000
  20
 50.0000
  30
0.0
  11
 204.471
  21
 53.0000
  31
0.0
   0
TEXT
   8
LEVEL003
  62
3
  10
 204.200
  20
 128.000
  30
0.0
  40
 4.00000
   1
168
  50
 90.0000
   7
STANDARD
  72
1
  11
 204.200
  21
 134.000
  31
0.0
   0
LINE
   8
LEVEL003
   6
CONTINUOUS
  62
3
  10
 86.4500
  20
 192.000
  30
0.0
  11
 132.000
  21
 192.000
  31
0.0
   0
LINE
   8
LEVEL003
   6
CONTINUOUS
  62
3
  10
 84.2500
  20
 210.000
  30
0.0
  11
 132.000
  21
 210.000
  31
0.0
   0
LINE
   8
LEVEL003
   6
CONTINUOUS
  62
3
  10
 130.000
  20
 192.000
  30
0.0
  11
 130.000
  21
 210.000
  31
0.0
   0
LINE
   8
LEVEL003
   6
CONTINUOUS
  62
3
  10
 130.000
  20
 192.000
  30
0.0
  11
 130.529
  21
 195.000
  31
0.0
   0
LINE
   8
LEVEL003
   6
CONTINUOUS
  62
3
  10
 130.000
  20
 192.000
  30
0.0
  11
 129.471
  21
 195.000
  31
0.0
   0
LINE
   8
LEVEL003
   6
CONTINUOUS
  62
3
  10
 130.000
  20
 210.000
  30
0.0
  11
 129.471
  21
 207.000
  31
0.0
   0
LINE
   8
LEVEL003
   6
CONTINUOUS
  62
3
  10
 130.000
  20
 210.000
  30
0.0
  11
 130.529
  21
 207.000
  31
0.0
   0
TEXT
   8
LEVEL003
  62
3
  10
 129.200
  20
 197.000
  30
0.0
  40
 4.00000
   1
18
  50
 90.0000
   7
STANDARD
  72
1
  11
 129.200
  21
 201.000
  31
0.0
   0
LINE
   8
LEVEL003
   6
CONTINUOUS
  62
3
  10
 89.0000
  20
 218.000
  30
0.0
  11
 132.000
  21
 218.000
  31
0.0
   0
LINE
   8
LEVEL003
   6
CONTINUOUS
  62
3
  10
 84.2500
  20
 210.000
  30
0.0
  11
 132.000
  21
 210.000
  31
0.0
   0
LINE
   8
LEVEL003
   6
CONTINUOUS
  62
3
  10
 130.000
  20
 218.000
  30
0.0
  11
 130.000
  21
 210.000
  31
0.0
   0
LINE
   8
LEVEL003
   6
CONTINUOUS
  62
3
  10
 130.000
  20
 218.000
  30
0.0
  11
 129.471
  21
 215.000
  31
0.0
   0
LINE
   8
LEVEL003
   6
CONTINUOUS
  62
3
  10
 130.000
  20
 218.000
  30
0.0
  11
 130.529
  21
 215.000
  31
0.0
   0
LINE
   8
LEVEL003
   6
CONTINUOUS
  62
3
  10
 130.000
  20
 210.000
  30
0.0
  11
 130.529
  21
 213.000
  31
0.0
   0
LINE
   8
LEVEL003
   6
CONTINUOUS
  62
3
  10
 130.000
  20
 210.000
  30
0.0
  11
 129.471
  21
 213.000
  31
0.0
   0
TEXT
   8
LEVEL003
  62
3
  10
 129.200
  20
 212.000
  30
0.0
  40
 4.00000
   1
8
  50
 90.0000
   7
STANDARD
  72
1
  11
 129.200
  21
 214.000
  31
0.0
   0
LINE
   8
LEVEL001
   6
CONTINUOUS
  62
7
  10
 101.500
  20
 187.000
  30
0.0
  11
 100.500
  21
 188.000
  31
0.0
   0
LINE
   8
LEVEL001
   6
CONTINUOUS
  62
7
  10
 101.500
  20
 187.000
  30
0.0
  11
 101.500
  21
 185.000
  31
0.0
   0
POLYLINE
   8
LEVEL001
   6
CONTINUOUS
  62
7
  66
1
  10
0.0
  20
0.0
  30
0.0
  70
0
   0
VERTEX
   8
LEVEL001
   6
CONTINUOUS
  62
7
  10
 101.750
  20
 185.000
  30
0.0
   0
VERTEX
   8
LEVEL001
   6
CONTINUOUS
  62
7
  10
 102.500
  20
 184.250
  30
0.0
   0
VERTEX
   8
LEVEL001
   6
CONTINUOUS
  62
7
  10
 102.500
  20
 158.201
  30
0.0
   0
SEQEND
   0
LINE
   8
LEVEL001
   6
CONTINUOUS
  62
3
  10
 101.750
  20
 161.000
  30
0.0
  11
 102.500
  21
 158.201
  31
0.0
   0
ARC
   8
LEVEL001
   6
CONTINUOUS
  62
7
  10
 84.0000
  20
 193.750
  30
0.0
  40
 0.750000
  50
 90.0000
  51
 180.000
   0
ARC
   8
LEVEL001
   6
CONTINUOUS
  62
7
  10
 84.0000
  20
 192.750
  30
0.0
  40
 0.750000
  50
 180.000
  51
 270.000
   0
LINE
   8
LEVEL001
   6
CONTINUOUS
  62
7
  10
 83.2500
  20
 193.750
  30
0.0
  11
 83.2500
  21
 192.750
  31
0.0
   0
LINE
   8
LEVEL001
   6
CONTINUOUS
  62
7
  10
 89.0000
  20
 196.000
  30
0.0
  11
 88.0000
  21
 195.000
  31
0.0
   0
LINE
   8
LEVEL001
   6
CONTINUOUS
  62
7
  10
 89.0000
  20
 217.000
  30
0.0
  11
 88.0000
  21
 218.000
  31
0.0
   0
LINE
   8
LEVEL001
   6
CONTINUOUS
  62
7
  10
 89.0000
  20
 217.000
  30
0.0
  11
 89.0000
  21
 196.000
  31
0.0
   0
LINE
   8
LEVEL001
   6
CONTINUOUS
  62
7
  10
 86.2000
  20
 189.000
  30
0.0
  11
 85.4500
  21
 192.000
  31
0.0
   0
LINE
   8
LEVEL001
   6
DASHDOT
  62
1
  10
 101.750
  20
 185.000
  30
0.0
  11
 105.500
  21
 185.000
  31
0.0
   0
LINE
   8
LEVEL001
   6
DASHDOT
  62
1
  10
 105.500
  20
 161.000
  30
0.0
  11
 102.500
  21
 161.000
  31
0.0
   0
LINE
   8
LEVEL001
   6
CONTINUOUS
  62
7
  10
 48.5000
  20
 187.000
  30
0.0
  11
 49.5000
  21
 188.000
  31
0.0
   0
LINE
   8
LEVEL001
   6
CONTINUOUS
  62
7
  10
 48.5000
  20
 187.000
  30
0.0
  11
 48.5000
  21
 185.000
  31
0.0
   0
POLYLINE
   8
LEVEL001
   6
CONTINUOUS
  62
7
  66
1
  10
0.0
  20
0.0
  30
0.0
  70
0
   0
VERTEX
   8
LEVEL001
   6
CONTINUOUS
  62
7
  10
 48.2500
  20
 185.000
  30
0.0
   0
VERTEX
   8
LEVEL001
   6
CONTINUOUS
  62
7
  10
 47.5000
  20
 184.250
  30
0.0
   0
VERTEX
   8
LEVEL001
   6
CONTINUOUS
  62
7
  10
 47.5000
  20
 158.201
  30
0.0
   0
SEQEND
   0
LINE
   8
LEVEL001
   6
CONTINUOUS
  62
3
  10
 48.2500
  20
 161.000
  30
0.0
  11
 47.5000
  21
 158.201
  31
0.0
   0
ARC
   8
LEVEL001
   6
CONTINUOUS
  62
7
  10
 66.0000
  20
 193.750
  30
0.0
  40
 0.750000
  50
0.0
  51
 90.0000
   0
ARC
   8
LEVEL001
   6
CONTINUOUS
  62
7
  10
 66.0000
  20
 192.750
  30
0.0
  40
 0.750000
  50
 270.000
  51
0.0
   0
LINE
   8
LEVEL001
   6
CONTINUOUS
  62
7
  10
 66.7500
  20
 193.750
  30
0.0
  11
 66.7500
  21
 192.750
  31
0.0
   0
LINE
   8
LEVEL001
   6
CONTINUOUS
  62
7
  10
 61.0000
  20
 196.000
  30
0.0
  11
 62.0000
  21
 195.000
  31
0.0
   0
LINE
   8
LEVEL001
   6
CONTINUOUS
  62
7
  10
 61.0000
  20
 217.000
  30
0.0
  11
 62.0000
  21
 218.000
  31
0.0
   0
LINE
   8
LEVEL001
   6
CONTINUOUS
  62
7
  10
 61.0000
  20
 217.000
  30
0.0
  11
 61.0000
  21
 196.000
  31
0.0
   0
LINE
   8
LEVEL001
   6
CONTINUOUS
  62
7
  10
 63.8000
  20
 189.000
  30
0.0
  11
 64.5500
  21
 192.000
  31
0.0
   0
LINE
   8
LEVEL001
   6
DASHDOT
  62
1
  10
 44.5000
  20
 185.000
  30
0.0
  11
 44.5000
  21
 161.000
  31
0.0
   0
LINE
   8
LEVEL001
   6
DASHDOT
  62
1
  10
 48.2500
  20
 185.000
  30
0.0
  11
 44.5000
  21
 185.000
  31
0.0
   0
LINE
   8
LEVEL001
   6
DASHDOT
  62
1
  10
 44.5000
  20
 161.000
  30
0.0
  11
 47.5000
  21
 161.000
  31
0.0
   0
LINE
   8
LEVEL001
   6
CONTINUOUS
  62
7
  10
 62.0000
  20
 218.000
  30
0.0
  11
 88.0000
  21
 218.000
  31
0.0
   0
LINE
   8
LEVEL001
   6
CONTINUOUS
  62
7
  10
 84.0000
  20
 194.500
  30
0.0
  11
 66.0000
  21
 194.500
  31
0.0
   0
LINE
   8
LEVEL001
   6
CONTINUOUS
  62
7
  10
 85.4500
  20
 192.000
  30
0.0
  11
 64.5500
  21
 192.000
  31
0.0
   0
LINE
   8
LEVEL001
   6
CONTINUOUS
  62
7
  10
 86.2000
  20
 189.000
  30
0.0
  11
 63.8000
  21
 189.000
  31
0.0
   0
LINE
   8
LEVEL001
   6
CONTINUOUS
  62
7
  10
 47.5000
  20
 158.201
  30
0.0
  11
 47.5000
  21
 51.0000
  31
0.0
   0
LINE
   8
LEVEL001
   6
DASHDOT
  62
1
  10
 105.500
  20
 185.000
  30
0.0
  11
 105.500
  21
 161.000
  31
0.0
   0
LINE
   8
LEVEL001
   6
DASHDOT
  62
1
  10
 75.0000
  20
 125.000
  30
0.0
  11
 75.0000
  21
 120.000
  31
0.0
   0
LINE
   8
LEVEL001
   6
DASHDOT
  62
1
  10
 75.0000
  20
 115.000
  30
0.0
  11
 75.0000
  21
 45.0000
  31
0.0
   0
LINE
   8
LEVEL001
   6
CONTINUOUS
  62
7
  10
 48.5000
  20
 50.0000
  30
0.0
  11
 47.5000
  21
 51.0000
  31
0.0
   0
LINE
   8
LEVEL001
   6
CONTINUOUS
  62
7
  10
 101.500
  20
 50.0000
  30
0.0
  11
 48.5000
  21
 50.0000
  31
0.0
   0
LINE
   8
LEVEL001
   6
CONTINUOUS
  62
7
  10
 101.500
  20
 50.0000
  30
0.0
  11
 102.500
  21
 51.0000
  31
0.0
   0
LINE
   8
LEVEL001
   6
DASHDOT
  62
1
  10
 75.0000
  20
 225.000
  30
0.0
  11
 75.0000
  21
 140.000
  31
0.0
   0
LINE
   8
LEVEL001
   6
DASHDOT
  62
1
  10
 75.0000
  20
 135.000
  30
0.0
  11
 75.0000
  21
 130.000
  31
0.0
   0
POLYLINE
   8
LEVEL003
   6
CONTINUOUS
  62
3
  66
1
  10
0.0
  20
0.0
  30
0.0
  70
0
   0
VERTEX
   8
LEVEL003
   6
CONTINUOUS
  62
3
  10
 105.000
  20
 89.4091
  30
0.0
   0
VERTEX
   8
LEVEL003
   6
CONTINUOUS
  62
3
  10
 115.000
  20
 100.000
  30
0.0
   0
VERTEX
   8
LEVEL003
   6
CONTINUOUS
  62
3
  10
 140.000
  20
 100.000
  30
0.0
   0
SEQEND
   0
LINE
   8
LEVEL003
   6
CONTINUOUS
  62
3
  10
 105.000
  20
 89.4091
  30
0.0
  11
 107.444
  21
 91.2273
  31
0.0
   0
LINE
   8
LEVEL003
   6
CONTINUOUS
  62
3
  10
 105.000
  20
 89.4091
  30
0.0
  11
 106.675
  21
 91.9536
  31
0.0
   0
TEXT
   8
LEVEL003
  62
3
  10
 115.000
  20
 100.000
  30
0.0
  40
 4.00000
   1
ＮＰＴ３／８
   7
STANDARD
   0
CIRCLE
   8
LEVEL003
   6
CONTINUOUS
  62
7
  10
 194.718
  20
 27.2707
  30
0.0
  40
 3.00000
   0
LINE
   8
LEVEL003
   6
CONTINUOUS
  62
7
  10
 200.606
  20
 30.2707
  30
0.0
  11
 196.797
  21
 23.6707
  31
0.0
   0
LINE
   8
LEVEL003
   6
CONTINUOUS
  62
7
  10
 196.797
  20
 23.6707
  30
0.0
  11
 189.176
  21
 23.6707
  31
0.0
   0
LINE
   8
LEVEL003
   6
CONTINUOUS
  62
7
  10
 188.309
  20
 22.1707
  30
0.0
  11
 201.930
  21
 22.1707
  31
0.0
   0
LINE
   8
LEVEL003
   6
CONTINUOUS
  62
7
  10
 201.930
  20
 22.1707
  30
0.0
  11
 206.606
  21
 30.2707
  31
0.0
   0
LINE
   8
LEVEL003
   6
CONTINUOUS
  62
7
  10
 206.606
  20
 30.2707
  30
0.0
  11
 200.606
  21
 30.2707
  31
0.0
   0
LINE
   8
LEVEL003
   6
CONTINUOUS
  62
7
  10
 189.176
  20
 23.6707
  30
0.0
  11
 188.309
  21
 22.1707
  31
0.0
   0
TEXT
   8
LEVEL003
  62
7
  10
 206.691
  20
 20.2200
  30
0.0
  40
 10.0000
   1
ＯＳＡＫＡ ＪＡＣＫ
   7
STANDARD
   0
TEXT
   8
LEVEL003
  62
7
  10
 209.602
  20
 37.1134
  30
0.0
  40
 6.00000
   1
Model : Ｅ５Ｈ３
   7
STANDARD
   0
LINE
   8
LEVEL001
   6
CONTINUOUS
  62
7
  10
 112.500
  20
 152.644
  30
0.0
  11
 102.500
  21
 152.331
  31
0.0
   0
LINE
   8
LEVEL001
   6
CONTINUOUS
  62
7
  10
 112.500
  20
 135.356
  30
0.0
  11
 102.500
  21
 135.669
  31
0.0
   0
LINE
   8
LEVEL001
   6
CONTINUOUS
  62
7
  10
 102.500
  20
 158.201
  30
0.0
  11
 102.500
  21
 51.0000
  31
0.0
   0
LINE
   8
LEVEL001
   6
CONTINUOUS
  62
3
  10
 108.884
  20
 151.674
  30
0.0
  11
 102.500
  21
 151.475
  31
0.0
   0
LINE
   8
LEVEL001
   6
CONTINUOUS
  62
3
  10
 108.884
  20
 136.326
  30
0.0
  11
 102.500
  21
 136.525
  31
0.0
   0
LINE
   8
LEVEL001
   6
CONTINUOUS
  62
3
  10
 108.884
  20
 88.6745
  30
0.0
  11
 102.500
  21
 88.4750
  31
0.0
   0
LINE
   8
LEVEL001
   6
CONTINUOUS
  62
3
  10
 108.884
  20
 73.3255
  30
0.0
  11
 102.500
  21
 73.5250
  31
0.0
   0
LINE
   8
LEVEL001
   6
CONTINUOUS
  62
7
  10
 112.500
  20
 72.3565
  30
0.0
  11
 102.500
  21
 72.6690
  31
0.0
   0
LINE
   8
LEVEL001
   6
CONTINUOUS
  62
7
  10
 112.500
  20
 89.6435
  30
0.0
  11
 102.500
  21
 89.3310
  31
0.0
   0
LINE
   8
LEVEL001
   6
CONTINUOUS
  62
7
  10
 102.500
  20
 51.0000
  30
0.0
  11
 47.5000
  21
 51.0000
  31
0.0
   0
LINE
   8
LEVEL001
   6
CONTINUOUS
  62
7
  10
 86.2000
  20
 189.000
  30
0.0
  11
 86.2000
  21
 188.000
  31
0.0
   0
LINE
   8
LEVEL001
   6
CONTINUOUS
  62
7
  10
 63.8000
  20
 189.000
  30
0.0
  11
 63.8000
  21
 188.000
  31
0.0
   0
LINE
   8
LEVEL001
   6
CONTINUOUS
  62
7
  10
 100.500
  20
 188.000
  30
0.0
  11
 49.5000
  21
 188.000
  31
0.0
   0
LINE
   8
LEVEL001
   6
CONTINUOUS
  62
7
  10
 101.500
  20
 187.000
  30
0.0
  11
 48.5000
  21
 187.000
  31
0.0
   0
LINE
   8
LEVEL001
   6
CONTINUOUS
  62
7
  10
 48.2500
  20
 185.000
  30
0.0
  11
 101.750
  21
 185.000
  31
0.0
   0
LINE
   8
LEVEL001
   6
CONTINUOUS
  62
7
  10
 102.500
  20
 158.201
  30
0.0
  11
 47.5000
  21
 158.201
  31
0.0
   0
LINE
   8
LEVEL001
   6
CONTINUOUS
  62
3
  10
 48.2500
  20
 185.000
  30
0.0
  11
 48.2500
  21
 161.000
  31
0.0
   0
LINE
   8
LEVEL001
   6
CONTINUOUS
  62
3
  10
 101.750
  20
 185.000
  30
0.0
  11
 101.750
  21
 161.000
  31
0.0
   0
LINE
   8
LEVEL001
   6
CONTINUOUS
  62
3
  10
 102.500
  20
 161.000
  30
0.0
  11
 47.5000
  21
 161.000
  31
0.0
   0
LINE
   8
LEVEL001
   6
CONTINUOUS
  62
3
  10
 47.5000
  20
 184.250
  30
0.0
  11
 102.500
  21
 184.250
  31
0.0
   0
LINE
   8
LEVEL001
   6
CONTINUOUS
  62
7
  10
 88.0000
  20
 195.000
  30
0.0
  11
 62.0000
  21
 195.000
  31
0.0
   0
LINE
   8
LEVEL001
   6
CONTINUOUS
  62
7
  10
 66.0000
  20
 195.000
  30
0.0
  11
 66.0000
  21
 194.500
  31
0.0
   0
LINE
   8
LEVEL001
   6
CONTINUOUS
  62
7
  10
 84.0000
  20
 195.000
  30
0.0
  11
 84.0000
  21
 194.500
  31
0.0
   0
LINE
   8
LEVEL001
   6
CONTINUOUS
  62
3
  10
 83.2500
  20
 195.000
  30
0.0
  11
 83.2500
  21
 193.750
  31
0.0
   0
LINE
   8
LEVEL001
   6
CONTINUOUS
  62
3
  10
 66.7500
  20
 195.000
  30
0.0
  11
 66.7500
  21
 193.750
  31
0.0
   0
LINE
   8
LEVEL001
   6
CONTINUOUS
  62
7
  10
 89.0000
  20
 196.000
  30
0.0
  11
 61.0000
  21
 196.000
  31
0.0
   0
LINE
   8
LEVEL001
   6
CONTINUOUS
  62
7
  10
 61.0000
  20
 217.000
  30
0.0
  11
 89.0000
  21
 217.000
  31
0.0
   0
LINE
   8
LEVEL001
   6
DASHDOT
  62
1
  10
 173.000
  20
 144.000
  30
0.0
  11
 95.0000
  21
 144.000
  31
0.0
   0
LINE
   8
LEVEL001
   6
DASHDOT
  62
1
  10
 173.000
  20
 81.0000
  30
0.0
  11
 95.0000
  21
 81.0000
  31
0.0
   0
POLYLINE
   8
LEVEL004
   6
DOT
  62
3
  66
1
  10
0.0
  20
0.0
  30
0.0
  70
0
   0
VERTEX
   8
LEVEL004
   6
DOT
  62
3
  10
 61.5000
  20
 50.0000
  30
0.0
   0
VERTEX
   8
LEVEL004
   6
DOT
  62
3
  10
 62.5000
  20
 51.0000
  30
0.0
   0
VERTEX
   8
LEVEL004
   6
DOT
  62
3
  10
 62.5000
  20
 67.0000
  30
0.0
   0
SEQEND
   0
ARC
   8
LEVEL004
   6
DOT
  62
3
  10
 62.5000
  20
 68.0000
  30
0.0
  40
 1.00000
  50
 180.000
  51
 270.000
   0
ARC
   8
LEVEL004
   6
DOT
  62
3
  10
 62.5000
  20
 69.0000
  30
0.0
  40
 1.00000
  50
 90.0000
  51
 180.000
   0
LINE
   8
LEVEL004
   6
DOT
  62
3
  10
 61.5000
  20
 68.0000
  30
0.0
  11
 61.5000
  21
 69.0000
  31
0.0
   0
LINE
   8
LEVEL004
   6
DOT
  62
3
  10
 61.5000
  20
 50.0000
  30
0.0
  11
 61.5000
  21
 68.0000
  31
0.0
   0
ARC
   8
LEVEL004
   6
DOT
  62
3
  10
 87.5000
  20
 69.0000
  30
0.0
  40
 1.00000
  50
0.0
  51
 90.0000
   0
LINE
   8
LEVEL004
   6
DOT
  62
3
  10
 88.5000
  20
 68.0000
  30
0.0
  11
 88.5000
  21
 69.0000
  31
0.0
   0
LINE
   8
LEVEL004
   6
DOT
  62
3
  10
 87.5000
  20
 70.0000
  30
0.0
  11
 62.5000
  21
 70.0000
  31
0.0
   0
LINE
   8
LEVEL004
   6
DOT
  62
3
  10
 87.5000
  20
 67.0000
  30
0.0
  11
 62.5000
  21
 67.0000
  31
0.0
   0
ARC
   8
LEVEL004
   6
DOT
  62
3
  10
 87.5000
  20
 68.0000
  30
0.0
  40
 1.00000
  50
 270.000
  51
0.0
   0
LINE
   8
LEVEL004
   6
DOT
  62
3
  10
 87.5000
  20
 51.0000
  30
0.0
  11
 62.5000
  21
 51.0000
  31
0.0
   0
LINE
   8
LEVEL004
   6
DOT
  62
3
  10
 88.5000
  20
 50.0000
  30
0.0
  11
 88.5000
  21
 68.0000
  31
0.0
   0
POLYLINE
   8
LEVEL004
   6
DOT
  62
3
  66
1
  10
0.0
  20
0.0
  30
0.0
  70
0
   0
VERTEX
   8
LEVEL004
   6
DOT
  62
3
  10
 88.5000
  20
 50.0000
  30
0.0
   0
VERTEX
   8
LEVEL004
   6
DOT
  62
3
  10
 87.5000
  20
 51.0000
  30
0.0
   0
VERTEX
   8
LEVEL004
   6
DOT
  62
3
  10
 87.5000
  20
 67.0000
  30
0.0
   0
SEQEND
   0
ARC
   8
LEVEL004
   6
DOT
  62
3
  10
 85.0000
  20
 218.000
  30
0.0
  40
 1.50000
  50
 180.000
  51
0.0
   0
ARC
   8
LEVEL004
   6
DOT
  62
3
  10
 65.0000
  20
 218.000
  30
0.0
  40
 1.50000
  50
 180.000
  51
0.0
   0
LINE
   8
LEVEL004
   6
DOT
  62
3
  10
 60.0000
  20
 146.000
  30
0.0
  11
 60.0000
  21
 87.0000
  31
0.0
   0
LINE
   8
LEVEL004
   6
DOT
  62
3
  10
 90.0000
  20
 146.000
  30
0.0
  11
 90.0000
  21
 87.0000
  31
0.0
   0
LINE
   8
LEVEL004
   6
DOT
  62
3
  10
 86.2000
  20
 127.000
  30
0.0
  11
 86.2000
  21
 188.000
  31
0.0
   0
LINE
   8
LEVEL004
   6
DOT
  62
3
  10
 63.8000
  20
 127.000
  30
0.0
  11
 63.8000
  21
 188.000
  31
0.0
   0
ARC
   8
LEVEL004
   6
DOT
  62
3
  10
 66.7500
  20
 209.250
  30
0.0
  40
 0.750000
  50
 90.0000
  51
 180.000
   0
ARC
   8
LEVEL004
   6
DOT
  62
3
  10
 66.7500
  20
 206.750
  30
0.0
  40
 0.750000
  50
 180.000
  51
 270.000
   0
LINE
   8
LEVEL004
   6
DOT
  62
3
  10
 66.7500
  20
 210.000
  30
0.0
  11
 66.7500
  21
 206.000
  31
0.0
   0
ARC
   8
LEVEL004
   6
DOT
  62
3
  10
 83.2500
  20
 206.750
  30
0.0
  40
 0.750000
  50
 270.000
  51
0.0
   0
ARC
   8
LEVEL004
   6
DOT
  62
3
  10
 83.2500
  20
 209.250
  30
0.0
  40
 0.750000
  50
0.0
  51
 90.0000
   0
LINE
   8
LEVEL004
   6
DOT
  62
3
  10
 83.2500
  20
 210.000
  30
0.0
  11
 83.2500
  21
 206.000
  31
0.0
   0
LINE
   8
LEVEL004
   6
DOT
  62
3
  10
 83.2500
  20
 210.000
  30
0.0
  11
 66.7500
  21
 210.000
  31
0.0
   0
LINE
   8
LEVEL004
   6
DOT
  62
3
  10
 84.0000
  20
 209.250
  30
0.0
  11
 66.0000
  21
 209.250
  31
0.0
   0
POLYLINE
   8
LEVEL004
   6
DOT
  62
3
  66
1
  10
0.0
  20
0.0
  30
0.0
  70
0
   0
VERTEX
   8
LEVEL004
   6
DOT
  62
3
  10
 84.0000
  20
 195.000
  30
0.0
   0
VERTEX
   8
LEVEL004
   6
DOT
  62
3
  10
 83.2500
  20
 195.750
  30
0.0
   0
VERTEX
   8
LEVEL004
   6
DOT
  62
3
  10
 83.2500
  20
 206.000
  30
0.0
   0
SEQEND
   0
POLYLINE
   8
LEVEL004
   6
DOT
  62
3
  66
1
  10
0.0
  20
0.0
  30
0.0
  70
0
   0
VERTEX
   8
LEVEL004
   6
DOT
  62
3
  10
 66.0000
  20
 195.000
  30
0.0
   0
VERTEX
   8
LEVEL004
   6
DOT
  62
3
  10
 66.7500
  20
 195.750
  30
0.0
   0
VERTEX
   8
LEVEL004
   6
DOT
  62
3
  10
 66.7500
  20
 206.000
  30
0.0
   0
SEQEND
   0
POLYLINE
   8
LEVEL004
   6
DOT
  62
3
  66
1
  10
0.0
  20
0.0
  30
0.0
  70
0
   0
VERTEX
   8
LEVEL004
   6
DOT
  62
3
  10
 83.2500
  20
 210.000
  30
0.0
   0
VERTEX
   8
LEVEL004
   6
DOT
  62
3
  10
 84.0000
  20
 209.250
  30
0.0
   0
VERTEX
   8
LEVEL004
   6
DOT
  62
3
  10
 84.0000
  20
 195.000
  30
0.0
   0
SEQEND
   0
POLYLINE
   8
LEVEL004
   6
DOT
  62
3
  66
1
  10
0.0
  20
0.0
  30
0.0
  70
0
   0
VERTEX
   8
LEVEL004
   6
DOT
  62
3
  10
 66.7500
  20
 210.000
  30
0.0
   0
VERTEX
   8
LEVEL004
   6
DOT
  62
3
  10
 66.0000
  20
 209.250
  30
0.0
   0
VERTEX
   8
LEVEL004
   6
DOT
  62
3
  10
 66.0000
  20
 195.000
  30
0.0
   0
SEQEND
   0
LINE
   8
LEVEL004
   6
DOT
  62
3
  10
 83.2500
  20
 195.750
  30
0.0
  11
 83.2500
  21
 195.000
  31
0.0
   0
LINE
   8
LEVEL004
   6
DOT
  62
3
  10
 66.7500
  20
 195.750
  30
0.0
  11
 66.7500
  21
 195.000
  31
0.0
   0
ENDSEC
   0
EOF
