   0
SECTION
   2
HEADER
   9
$LIMMIN
  10
0.0
  20
0.0
   9
$LIMMAX
  10
 420.000
  20
 297.000
   9
$EXTMIN
  10
0.0
  20
0.0
   9
$EXTMAX
  10
 420.000
  20
 297.000
   9
$LTSCALE
  40
 8.40000
   0
ENDSEC
   0
SECTION
   2
TABLES
  0
TABLE
  2
LTYPE
 70
    25
  0
LTYPE
  2
CONTINUOUS
 70
    64
  3
Solid line
 72
    65
 73
     0
 40
0.0
  0
LTYPE
  2
BORDER
 70
    64
  3
__ __ . __ __ . __ __ . __ __ . __ __ . __ __ .
 72
    65
 73
     6
 40
1.75
 49
0.5
 49
-0.25
 49
0.5
 49
-0.25
 49
0.0
 49
-0.25
  0
LTYPE
  2
BORDER2
 70
    64
  3
__.__.__.__.__.__.__.__.__.__.__.__.__.__.__.__
 72
    65
 73
     6
 40
0.875
 49
0.25
 49
-0.125
 49
0.25
 49
-0.125
 49
0.0
 49
-0.125
  0
LTYPE
  2
BORDERX2
 70
    64
  3
____  ____  .  ____  ____  .  ____  ____  .  __
 72
    65
 73
     6
 40
3.5
 49
1.0
 49
-0.5
 49
1.0
 49
-0.5
 49
0.0
 49
-0.5
  0
LTYPE
  2
CENTER
 70
    64
  3
____ _ ____ _ ____ _ ____ _ ____ _ ____ _ ____ 
 72
    65
 73
     4
 40
2.0
 49
1.25
 49
-0.25
 49
0.25
 49
-0.25
  0
LTYPE
  2
CENTER2
 70
    64
  3
___ _ ___ _ ___ _ ___ _ ___ _ ___ _ ___ _ ___ _
 72
    65
 73
     4
 40
1.125
 49
0.75
 49
-0.125
 49
0.125
 49
-0.125
  0
LTYPE
  2
CENTERX2
 70
    64
  3
________  __  ________  __  ________  __  _____
 72
    65
 73
     4
 40
4.0
 49
2.5
 49
-0.5
 49
0.5
 49
-0.5
  0
LTYPE
  2
DASHDOT
 70
    64
  3
__ . __ . __ . __ . __ . __ . __ . __ . __ . __
 72
    65
 73
     4
 40
1.0
 49
0.5
 49
-0.25
 49
0.0
 49
-0.25
  0
LTYPE
  2
DASHDOT2
 70
    64
  3
_._._._._._._._._._._._._._._._._._._._._._._._
 72
    65
 73
     4
 40
0.5
 49
0.25
 49
-0.125
 49
0.0
 49
-0.125
  0
LTYPE
  2
DASHDOTX2
 70
    64
  3
____  .  ____  .  ____  .  ____  .  ____  .  __
 72
    65
 73
     4
 40
2.0
 49
1.0
 49
-0.5
 49
0.0
 49
-0.5
  0
LTYPE
  2
DASHED
 70
    64
  3
__ __ __ __ __ __ __ __ __ __ __ __ __ __ __ __
 72
    65
 73
     2
 40
0.75
 49
0.5
 49
-0.25
  0
LTYPE
  2
DASHED2
 70
    64
  3
_ _ _ _ _ _ _ _ _ _ _ _ _ _ _ _ _ _ _ _ _ _ _ _
 72
    65
 73
     2
 40
0.375
 49
0.25
 49
-0.125
  0
LTYPE
  2
DASHEDX2
 70
    64
  3
____  ____  ____  ____  ____  ____  ____  ____ 
 72
    65
 73
     2
 40
1.5
 49
1.0
 49
-0.5
  0
LTYPE
  2
DIVIDE
 70
    64
  3
____ . . ____ . . ____ . . ____ . . ____ . . __
 72
    65
 73
     6
 40
1.25
 49
0.5
 49
-0.25
 49
0.0
 49
-0.25
 49
0.0
 49
-0.25
  0
LTYPE
  2
DIVIDE2
 70
    64
  3
__..__..__..__..__..__..__..__..__..__..__..__.
 72
    65
 73
     6
 40
0.625
 49
0.25
 49
-0.125
 49
0.0
 49
-0.125
 49
0.0
 49
-0.125
  0
LTYPE
  2
DIVIDEX2
 70
    64
  3
________  .  .  ________  .  .  ________  .  . 
 72
    65
 73
     6
 40
2.5
 49
1.0
 49
-0.5
 49
0.0
 49
-0.5
 49
0.0
 49
-0.5
  0
LTYPE
  2
DOT
 70
    64
  3
. . . . . . . . . . . . . . . . . . . . . . . .
 72
    65
 73
     2
 40
0.25
 49
0.0
 49
-0.25
  0
LTYPE
  2
DOT2
 70
    64
  3
...............................................
 72
    65
 73
     2
 40
0.125
 49
0.0
 49
-0.125
  0
LTYPE
  2
DOTX2
 70
    64
  3
.  .  .  .  .  .  .  .  .  .  .  .  .  .  .  . 
 72
    65
 73
     2
 40
0.5
 49
0.0
 49
-0.5
  0
LTYPE
  2
HIDDEN
 70
    64
  3
__ __ __ __ __ __ __ __ __ __ __ __ __ __ __ __
 72
    65
 73
     2
 40
0.375
 49
0.25
 49
-0.125
  0
LTYPE
  2
HIDDEN2
 70
    64
  3
_ _ _ _ _ _ _ _ _ _ _ _ _ _ _ _ _ _ _ _ _ _ _ _
 72
    65
 73
     2
 40
0.1875
 49
0.125
 49
-0.0625
  0
LTYPE
  2
HIDDENX2
 70
    64
  3
____ ____ ____ ____ ____ ____ ____ ____ ____ __
 72
    65
 73
     2
 40
0.75
 49
0.5
 49
-0.25
  0
LTYPE
  2
PHANTOM
 70
    64
  3
______  __  __  ______  __  __  ______  __  __ 
 72
    65
 73
     6
 40
2.5
 49
1.25
 49
-0.25
 49
0.25
 49
-0.25
 49
0.25
 49
-0.25
  0
LTYPE
  2
PHANTOM2
 70
    64
  3
___ _ _ ___ _ _ ___ _ _ ___ _ _ ___ _ _ ___ _ _
 72
    65
 73
     6
 40
1.25
 49
0.625
 49
-0.125
 49
0.125
 49
-0.125
 49
0.125
 49
-0.125
  0
LTYPE
  2
PHANTOMX2
 70
    64
  3
____________    ____    ____    ____________   
 72
    65
 73
     6
 40
5.0
 49
2.5
 49
-0.5
 49
0.5
 49
-0.5
 49
0.5
 49
-0.5
  0
ENDTAB
  0
TABLE
  2
STYLE
 70
     2
  0
STYLE
  2
STANDARD
 70
0
 40
0.0
 41
1.0
 50
0.0
 71
0
 42
0.2
  3
TXT
  4
BIGFONT
  0
STYLE
  2
STANDARD1
 70
     4
 40
0.0
 41
1.0
 50
0.0
 71
     0
 42
0.2
  3
TXT
  4
BIGFONT
  0
ENDTAB
   0
TABLE
   2
LAYER
  70
4
   0
LAYER
   2
0
  70
0
  62
7
   6
CONTINUOUS
   0
LAYER
   2
LEVEL001
  70
0
  62
7
   6
CONTINUOUS
   0
LAYER
   2
LEVEL003
  70
0
  62
7
   6
CONTINUOUS
   0
LAYER
   2
LEVEL004
  70
0
  62
7
   6
CONTINUOUS
   0
ENDTAB
   0
ENDSEC
   0
SECTION
   2
ENTITIES
   0
LINE
   8
LEVEL003
   6
CONTINUOUS
  62
3
  10
 63.8000
  20
 140.000
  30
0.0
  11
 63.8000
  21
 140.000
  31
0.0
   0
LINE
   8
LEVEL003
   6
CONTINUOUS
  62
3
  10
 86.2000
  20
 140.000
  30
0.0
  11
 86.2000
  21
 140.000
  31
0.0
   0
LINE
   8
LEVEL003
   6
CONTINUOUS
  62
3
  10
 63.8000
  20
 140.000
  30
0.0
  11
 86.2000
  21
 140.000
  31
0.0
   0
LINE
   8
LEVEL003
   6
CONTINUOUS
  62
3
  10
 63.8000
  20
 140.000
  30
0.0
  11
 66.8000
  21
 139.471
  31
0.0
   0
LINE
   8
LEVEL003
   6
CONTINUOUS
  62
3
  10
 63.8000
  20
 140.000
  30
0.0
  11
 66.8000
  21
 140.529
  31
0.0
   0
LINE
   8
LEVEL003
   6
CONTINUOUS
  62
3
  10
 86.2000
  20
 140.000
  30
0.0
  11
 83.2000
  21
 140.529
  31
0.0
   0
LINE
   8
LEVEL003
   6
CONTINUOUS
  62
3
  10
 86.2000
  20
 140.000
  30
0.0
  11
 83.2000
  21
 139.471
  31
0.0
   0
TEXT
   8
LEVEL003
  62
3
  10
 60.0000
  20
 140.800
  30
0.0
  40
 4.00000
   1
%%c22.4
   7
STANDARD
  72
1
  11
 74.0000
  21
 140.800
  31
0.0
   0
LINE
   8
LEVEL003
   6
CONTINUOUS
  62
3
  10
 60.0000
  20
 130.000
  30
0.0
  11
 60.0000
  21
 130.000
  31
0.0
   0
LINE
   8
LEVEL003
   6
CONTINUOUS
  62
3
  10
 90.0000
  20
 130.000
  30
0.0
  11
 90.0000
  21
 130.000
  31
0.0
   0
LINE
   8
LEVEL003
   6
CONTINUOUS
  62
3
  10
 60.0000
  20
 130.000
  30
0.0
  11
 90.0000
  21
 130.000
  31
0.0
   0
LINE
   8
LEVEL003
   6
CONTINUOUS
  62
3
  10
 60.0000
  20
 130.000
  30
0.0
  11
 63.0000
  21
 129.471
  31
0.0
   0
LINE
   8
LEVEL003
   6
CONTINUOUS
  62
3
  10
 60.0000
  20
 130.000
  30
0.0
  11
 63.0000
  21
 130.529
  31
0.0
   0
LINE
   8
LEVEL003
   6
CONTINUOUS
  62
3
  10
 90.0000
  20
 130.000
  30
0.0
  11
 87.0000
  21
 130.529
  31
0.0
   0
LINE
   8
LEVEL003
   6
CONTINUOUS
  62
3
  10
 90.0000
  20
 130.000
  30
0.0
  11
 87.0000
  21
 129.471
  31
0.0
   0
TEXT
   8
LEVEL003
  62
3
  10
 65.0000
  20
 130.800
  30
0.0
  40
 4.00000
   1
%%c30
   7
STANDARD
  72
1
  11
 75.0000
  21
 130.800
  31
0.0
   0
LINE
   8
LEVEL003
   6
CONTINUOUS
  62
3
  10
 47.5000
  20
 120.000
  30
0.0
  11
 47.5000
  21
 120.000
  31
0.0
   0
LINE
   8
LEVEL003
   6
CONTINUOUS
  62
3
  10
 102.500
  20
 120.000
  30
0.0
  11
 102.500
  21
 120.000
  31
0.0
   0
LINE
   8
LEVEL003
   6
CONTINUOUS
  62
3
  10
 47.5000
  20
 120.000
  30
0.0
  11
 102.500
  21
 120.000
  31
0.0
   0
LINE
   8
LEVEL003
   6
CONTINUOUS
  62
3
  10
 47.5000
  20
 120.000
  30
0.0
  11
 50.5000
  21
 119.471
  31
0.0
   0
LINE
   8
LEVEL003
   6
CONTINUOUS
  62
3
  10
 47.5000
  20
 120.000
  30
0.0
  11
 50.5000
  21
 120.529
  31
0.0
   0
LINE
   8
LEVEL003
   6
CONTINUOUS
  62
3
  10
 102.500
  20
 120.000
  30
0.0
  11
 99.5000
  21
 120.529
  31
0.0
   0
LINE
   8
LEVEL003
   6
CONTINUOUS
  62
3
  10
 102.500
  20
 120.000
  30
0.0
  11
 99.5000
  21
 119.471
  31
0.0
   0
TEXT
   8
LEVEL003
  62
3
  10
 65.0000
  20
 120.800
  30
0.0
  40
 4.00000
   1
%%c55
   7
STANDARD
  72
1
  11
 75.0000
  21
 120.800
  31
0.0
   0
LINE
   8
LEVEL003
   6
CONTINUOUS
  62
3
  10
 61.0000
  20
 243.000
  30
0.0
  11
 61.0000
  21
 262.000
  31
0.0
   0
LINE
   8
LEVEL003
   6
CONTINUOUS
  62
3
  10
 89.0000
  20
 243.000
  30
0.0
  11
 89.0000
  21
 262.000
  31
0.0
   0
LINE
   8
LEVEL003
   6
CONTINUOUS
  62
3
  10
 61.0000
  20
 260.000
  30
0.0
  11
 89.0000
  21
 260.000
  31
0.0
   0
LINE
   8
LEVEL003
   6
CONTINUOUS
  62
3
  10
 61.0000
  20
 260.000
  30
0.0
  11
 64.0000
  21
 259.471
  31
0.0
   0
LINE
   8
LEVEL003
   6
CONTINUOUS
  62
3
  10
 61.0000
  20
 260.000
  30
0.0
  11
 64.0000
  21
 260.529
  31
0.0
   0
LINE
   8
LEVEL003
   6
CONTINUOUS
  62
3
  10
 89.0000
  20
 260.000
  30
0.0
  11
 86.0000
  21
 260.529
  31
0.0
   0
LINE
   8
LEVEL003
   6
CONTINUOUS
  62
3
  10
 89.0000
  20
 260.000
  30
0.0
  11
 86.0000
  21
 259.471
  31
0.0
   0
TEXT
   8
LEVEL003
  62
3
  10
 65.0000
  20
 260.800
  30
0.0
  40
 4.00000
   1
%%c28
   7
STANDARD
  72
1
  11
 75.0000
  21
 260.800
  31
0.0
   0
LINE
   8
LEVEL003
   6
CONTINUOUS
  62
3
  10
 66.0000
  20
 235.250
  30
0.0
  11
 66.0000
  21
 252.000
  31
0.0
   0
LINE
   8
LEVEL003
   6
CONTINUOUS
  62
3
  10
 84.0000
  20
 235.250
  30
0.0
  11
 84.0000
  21
 252.000
  31
0.0
   0
LINE
   8
LEVEL003
   6
CONTINUOUS
  62
3
  10
 66.0000
  20
 250.000
  30
0.0
  11
 84.0000
  21
 250.000
  31
0.0
   0
LINE
   8
LEVEL003
   6
CONTINUOUS
  62
3
  10
 84.0000
  20
 250.000
  30
0.0
  11
 117.000
  21
 250.000
  31
0.0
   0
LINE
   8
LEVEL003
   6
CONTINUOUS
  62
3
  10
 66.0000
  20
 250.000
  30
0.0
  11
 69.0000
  21
 249.471
  31
0.0
   0
LINE
   8
LEVEL003
   6
CONTINUOUS
  62
3
  10
 66.0000
  20
 250.000
  30
0.0
  11
 69.0000
  21
 250.529
  31
0.0
   0
LINE
   8
LEVEL003
   6
CONTINUOUS
  62
3
  10
 84.0000
  20
 250.000
  30
0.0
  11
 81.0000
  21
 250.529
  31
0.0
   0
LINE
   8
LEVEL003
   6
CONTINUOUS
  62
3
  10
 84.0000
  20
 250.000
  30
0.0
  11
 81.0000
  21
 249.471
  31
0.0
   0
TEXT
   8
LEVEL003
  62
3
  10
 96.0000
  20
 250.800
  30
0.0
  40
 4.00000
   1
M18×1.5
   7
STANDARD
  72
1
  11
 104.000
  21
 250.800
  31
0.0
   0
LINE
   8
LEVEL003
   6
CONTINUOUS
  62
3
  10
 61.5000
  20
 24.0000
  30
0.0
  11
 61.5000
  21
 8.00000
  31
0.0
   0
LINE
   8
LEVEL003
   6
CONTINUOUS
  62
3
  10
 88.5000
  20
 24.0000
  30
0.0
  11
 88.5000
  21
 8.00000
  31
0.0
   0
LINE
   8
LEVEL003
   6
CONTINUOUS
  62
3
  10
 61.5000
  20
 10.0000
  30
0.0
  11
 88.5000
  21
 10.0000
  31
0.0
   0
LINE
   8
LEVEL003
   6
CONTINUOUS
  62
3
  10
 61.5000
  20
 10.0000
  30
0.0
  11
 64.5000
  21
 9.47102
  31
0.0
   0
LINE
   8
LEVEL003
   6
CONTINUOUS
  62
3
  10
 61.5000
  20
 10.0000
  30
0.0
  11
 64.5000
  21
 10.5290
  31
0.0
   0
LINE
   8
LEVEL003
   6
CONTINUOUS
  62
3
  10
 88.5000
  20
 10.0000
  30
0.0
  11
 85.5000
  21
 10.5290
  31
0.0
   0
LINE
   8
LEVEL003
   6
CONTINUOUS
  62
3
  10
 88.5000
  20
 10.0000
  30
0.0
  11
 85.5000
  21
 9.47102
  31
0.0
   0
TEXT
   8
LEVEL003
  62
3
  10
 69.0000
  20
 10.8000
  30
0.0
  40
 4.00000
   1
M27×2
   7
STANDARD
  72
1
  11
 75.0000
  21
 10.8000
  31
0.0
   0
TEXT
   8
LEVEL003
  62
3
  10
 115.000
  20
 80.0000
  30
0.0
  40
 4.00000
   1
ＮＰＴ３／８
   7
STANDARD
   0
POLYLINE
   8
LEVEL003
   6
CONTINUOUS
  62
3
  66
1
  10
0.0
  20
0.0
  30
0.0
  70
0
   0
VERTEX
   8
LEVEL003
   6
CONTINUOUS
  62
3
  10
 105.000
  20
 64.4091
  30
0.0
   0
VERTEX
   8
LEVEL003
   6
CONTINUOUS
  62
3
  10
 115.000
  20
 80.0000
  30
0.0
   0
VERTEX
   8
LEVEL003
   6
CONTINUOUS
  62
3
  10
 140.000
  20
 80.0000
  30
0.0
   0
SEQEND
   0
LINE
   8
LEVEL003
   6
CONTINUOUS
  62
3
  10
 105.000
  20
 64.4091
  30
0.0
  11
 107.065
  21
 66.6487
  31
0.0
   0
LINE
   8
LEVEL003
   6
CONTINUOUS
  62
3
  10
 105.000
  20
 64.4091
  30
0.0
  11
 106.174
  21
 67.2199
  31
0.0
   0
LINE
   8
LEVEL003
   6
CONTINUOUS
  62
3
  10
 88.5000
  20
 42.0000
  30
0.0
  11
 112.000
  21
 42.0000
  31
0.0
   0
LINE
   8
LEVEL003
   6
CONTINUOUS
  62
3
  10
 102.500
  20
 25.0000
  30
0.0
  11
 112.000
  21
 25.0000
  31
0.0
   0
LINE
   8
LEVEL003
   6
CONTINUOUS
  62
3
  10
 110.000
  20
 42.0000
  30
0.0
  11
 110.000
  21
 25.0000
  31
0.0
   0
LINE
   8
LEVEL003
   6
CONTINUOUS
  62
3
  10
 110.000
  20
 42.0000
  30
0.0
  11
 109.471
  21
 39.0000
  31
0.0
   0
LINE
   8
LEVEL003
   6
CONTINUOUS
  62
3
  10
 110.000
  20
 42.0000
  30
0.0
  11
 110.529
  21
 39.0000
  31
0.0
   0
LINE
   8
LEVEL003
   6
CONTINUOUS
  62
3
  10
 110.000
  20
 25.0000
  30
0.0
  11
 110.529
  21
 28.0000
  31
0.0
   0
LINE
   8
LEVEL003
   6
CONTINUOUS
  62
3
  10
 110.000
  20
 25.0000
  30
0.0
  11
 109.471
  21
 28.0000
  31
0.0
   0
TEXT
   8
LEVEL003
  62
3
  10
 109.200
  20
 29.5000
  30
0.0
  40
 4.00000
   1
17
  50
 90.0000
   7
STANDARD
  72
1
  11
 109.200
  21
 33.5000
  31
0.0
   0
TEXT
   8
LEVEL003
  62
3
  10
 135.000
  20
 195.000
  30
0.0
  40
 4.00000
   1
Ｍ５５×１．５
   7
STANDARD
   0
POLYLINE
   8
LEVEL003
   6
CONTINUOUS
  62
3
  66
1
  10
0.0
  20
0.0
  30
0.0
  70
0
   0
VERTEX
   8
LEVEL003
   6
CONTINUOUS
  62
3
  10
 102.500
  20
 190.000
  30
0.0
   0
VERTEX
   8
LEVEL003
   6
CONTINUOUS
  62
3
  10
 135.000
  20
 195.000
  30
0.0
   0
VERTEX
   8
LEVEL003
   6
CONTINUOUS
  62
3
  10
 165.000
  20
 195.000
  30
0.0
   0
SEQEND
   0
LINE
   8
LEVEL003
   6
CONTINUOUS
  62
3
  10
 102.500
  20
 190.000
  30
0.0
  11
 105.546
  21
 189.933
  31
0.0
   0
LINE
   8
LEVEL003
   6
CONTINUOUS
  62
3
  10
 102.500
  20
 190.000
  30
0.0
  11
 105.385
  21
 190.979
  31
0.0
   0
LINE
   8
LEVEL001
   6
CONTINUOUS
  62
3
  10
 112.500
  20
 64.6435
  30
0.0
  11
 108.884
  21
 63.6745
  31
0.0
   0
LINE
   8
LEVEL001
   6
CONTINUOUS
  62
3
  10
 112.500
  20
 47.3565
  30
0.0
  11
 108.884
  21
 48.3255
  31
0.0
   0
LINE
   8
LEVEL001
   6
CONTINUOUS
  62
7
  10
 112.500
  20
 64.6435
  30
0.0
  11
 113.984
  21
 65.5000
  31
0.0
   0
LINE
   8
LEVEL001
   6
CONTINUOUS
  62
7
  10
 129.500
  20
 65.5000
  30
0.0
  11
 113.984
  21
 65.5000
  31
0.0
   0
LINE
   8
LEVEL001
   6
CONTINUOUS
  62
7
  10
 112.500
  20
 47.3565
  30
0.0
  11
 113.984
  21
 46.5000
  31
0.0
   0
LINE
   8
LEVEL001
   6
CONTINUOUS
  62
7
  10
 129.500
  20
 46.5000
  30
0.0
  11
 113.984
  21
 46.5000
  31
0.0
   0
ARC
   8
LEVEL001
   6
CONTINUOUS
  62
7
  10
 131.000
  20
 69.0000
  30
0.0
  40
 1.50000
  50
 90.0000
  51
 180.000
   0
LINE
   8
LEVEL001
   6
CONTINUOUS
  62
7
  10
 131.000
  20
 70.5000
  30
0.0
  11
 136.000
  21
 70.5000
  31
0.0
   0
ARC
   8
LEVEL001
   6
CONTINUOUS
  62
7
  10
 131.000
  20
 43.0000
  30
0.0
  40
 1.50000
  50
 180.000
  51
 270.000
   0
LINE
   8
LEVEL001
   6
CONTINUOUS
  62
7
  10
 129.500
  20
 43.0000
  30
0.0
  11
 129.500
  21
 69.0000
  31
0.0
   0
LINE
   8
LEVEL001
   6
CONTINUOUS
  62
7
  10
 131.000
  20
 41.5000
  30
0.0
  11
 136.000
  21
 41.5000
  31
0.0
   0
ARC
   8
LEVEL001
   6
CONTINUOUS
  62
7
  10
 152.000
  20
 69.0000
  30
0.0
  40
 1.50000
  50
0.0
  51
 90.0000
   0
LINE
   8
LEVEL001
   6
CONTINUOUS
  62
7
  10
 147.000
  20
 70.5000
  30
0.0
  11
 152.000
  21
 70.5000
  31
0.0
   0
ARC
   8
LEVEL001
   6
CONTINUOUS
  62
7
  10
 152.000
  20
 43.0000
  30
0.0
  40
 1.50000
  50
 270.000
  51
 0.542815E-12
   0
LINE
   8
LEVEL001
   6
CONTINUOUS
  62
7
  10
 147.000
  20
 41.5000
  30
0.0
  11
 152.000
  21
 41.5000
  31
0.0
   0
LINE
   8
LEVEL001
   6
CONTINUOUS
  62
7
  10
 153.500
  20
 69.0000
  30
0.0
  11
 153.500
  21
 43.0000
  31
0.0
   0
ARC
   8
LEVEL001
   6
DASHDOT
  62
1
  10
 162.500
  20
 69.0000
  30
0.0
  40
 1.00000
  50
0.0
  51
 90.0000
   0
LINE
   8
LEVEL001
   6
DASHDOT
  62
1
  10
 154.500
  20
 70.0000
  30
0.0
  11
 162.500
  21
 70.0000
  31
0.0
   0
ARC
   8
LEVEL001
   6
DASHDOT
  62
1
  10
 162.500
  20
 43.0000
  30
0.0
  40
 1.00000
  50
 270.000
  51
 0.814222E-12
   0
LINE
   8
LEVEL001
   6
DASHDOT
  62
1
  10
 154.500
  20
 42.0000
  30
0.0
  11
 162.500
  21
 42.0000
  31
0.0
   0
LINE
   8
LEVEL001
   6
DASHDOT
  62
1
  10
 163.500
  20
 69.0000
  30
0.0
  11
 163.500
  21
 43.0000
  31
0.0
   0
CIRCLE
   8
LEVEL001
   6
DASHDOT
  62
1
  10
 166.500
  20
 56.0000
  30
0.0
  40
 1.50000
   0
ARC
   8
LEVEL001
   6
DASHDOT
  62
1
  10
 154.500
  20
 43.0000
  30
0.0
  40
 1.00000
  50
 180.000
  51
 270.000
   0
ARC
   8
LEVEL001
   6
DASHDOT
  62
1
  10
 154.500
  20
 69.0000
  30
0.0
  40
 1.00000
  50
 90.0000
  51
 180.000
   0
ARC
   8
LEVEL001
   6
DASHDOT
  62
1
  10
 165.500
  20
 61.5000
  30
0.0
  40
 2.00000
  50
 180.000
  51
 270.000
   0
ARC
   8
LEVEL001
   6
DASHDOT
  62
1
  10
 165.500
  20
 50.5000
  30
0.0
  40
 2.00000
  50
 90.0000
  51
 180.000
   0
LINE
   8
LEVEL001
   6
DASHDOT
  62
1
  10
 165.500
  20
 59.5000
  30
0.0
  11
 166.000
  21
 59.5000
  31
0.0
   0
LINE
   8
LEVEL001
   6
DASHDOT
  62
1
  10
 165.500
  20
 52.5000
  30
0.0
  11
 166.000
  21
 52.5000
  31
0.0
   0
ARC
   8
LEVEL001
   6
DASHDOT
  62
1
  10
 166.000
  20
 56.0000
  30
0.0
  40
 3.50000
  50
 270.000
  51
 90.0000
   0
LINE
   8
LEVEL001
   6
CONTINUOUS
  62
7
  10
 113.984
  20
 46.5000
  30
0.0
  11
 113.984
  21
 50.1691
  31
0.0
   0
LINE
   8
LEVEL001
   6
CONTINUOUS
  62
7
  10
 113.984
  20
 61.8309
  30
0.0
  11
 113.984
  21
 65.5000
  31
0.0
   0
LINE
   8
LEVEL001
   6
CONTINUOUS
  62
7
  10
 108.500
  20
 51.9608
  30
0.0
  11
 122.500
  21
 61.8309
  31
0.0
   0
LINE
   8
LEVEL001
   6
CONTINUOUS
  62
7
  10
 108.500
  20
 60.0392
  30
0.0
  11
 122.500
  21
 50.1691
  31
0.0
   0
LINE
   8
LEVEL001
   6
CONTINUOUS
  62
3
  10
 108.884
  20
 63.6745
  30
0.0
  11
 108.884
  21
 60.0392
  31
0.0
   0
LINE
   8
LEVEL001
   6
CONTINUOUS
  62
3
  10
 108.884
  20
 51.9608
  30
0.0
  11
 108.884
  21
 48.3255
  31
0.0
   0
LINE
   8
LEVEL001
   6
CONTINUOUS
  62
7
  10
 112.500
  20
 64.6435
  30
0.0
  11
 112.500
  21
 60.2965
  31
0.0
   0
LINE
   8
LEVEL001
   6
CONTINUOUS
  62
7
  10
 112.500
  20
 51.7035
  30
0.0
  11
 112.500
  21
 47.3565
  31
0.0
   0
LINE
   8
LEVEL001
   6
CONTINUOUS
  62
3
  10
 136.000
  20
 43.0000
  30
0.0
  11
 147.000
  21
 43.0000
  31
0.0
   0
LINE
   8
LEVEL001
   6
CONTINUOUS
  62
3
  10
 136.000
  20
 45.0000
  30
0.0
  11
 147.000
  21
 45.0000
  31
0.0
   0
LINE
   8
LEVEL001
   6
CONTINUOUS
  62
3
  10
 136.000
  20
 47.0000
  30
0.0
  11
 147.000
  21
 47.0000
  31
0.0
   0
LINE
   8
LEVEL001
   6
CONTINUOUS
  62
3
  10
 136.000
  20
 49.0000
  30
0.0
  11
 147.000
  21
 49.0000
  31
0.0
   0
LINE
   8
LEVEL001
   6
CONTINUOUS
  62
3
  10
 136.000
  20
 51.0000
  30
0.0
  11
 147.000
  21
 51.0000
  31
0.0
   0
LINE
   8
LEVEL001
   6
CONTINUOUS
  62
3
  10
 136.000
  20
 53.0000
  30
0.0
  11
 147.000
  21
 53.0000
  31
0.0
   0
LINE
   8
LEVEL001
   6
CONTINUOUS
  62
3
  10
 136.000
  20
 55.0000
  30
0.0
  11
 147.000
  21
 55.0000
  31
0.0
   0
LINE
   8
LEVEL001
   6
CONTINUOUS
  62
3
  10
 136.000
  20
 57.0000
  30
0.0
  11
 147.000
  21
 57.0000
  31
0.0
   0
LINE
   8
LEVEL001
   6
CONTINUOUS
  62
3
  10
 136.000
  20
 59.0000
  30
0.0
  11
 147.000
  21
 59.0000
  31
0.0
   0
LINE
   8
LEVEL001
   6
CONTINUOUS
  62
3
  10
 136.000
  20
 61.0000
  30
0.0
  11
 147.000
  21
 61.0000
  31
0.0
   0
LINE
   8
LEVEL001
   6
CONTINUOUS
  62
3
  10
 136.000
  20
 63.0000
  30
0.0
  11
 147.000
  21
 63.0000
  31
0.0
   0
LINE
   8
LEVEL001
   6
CONTINUOUS
  62
3
  10
 136.000
  20
 65.0000
  30
0.0
  11
 147.000
  21
 65.0000
  31
0.0
   0
LINE
   8
LEVEL001
   6
CONTINUOUS
  62
3
  10
 136.000
  20
 67.0000
  30
0.0
  11
 147.000
  21
 67.0000
  31
0.0
   0
LINE
   8
LEVEL001
   6
CONTINUOUS
  62
3
  10
 136.000
  20
 69.0000
  30
0.0
  11
 147.000
  21
 69.0000
  31
0.0
   0
POLYLINE
   8
LEVEL001
   6
CONTINUOUS
  62
7
  66
1
  10
0.0
  20
0.0
  30
0.0
  70
0
   0
VERTEX
   8
LEVEL001
   6
CONTINUOUS
  62
7
  10
 108.500
  20
 51.9608
  30
0.0
   0
VERTEX
   8
LEVEL001
   6
CONTINUOUS
  62
7
  10
 108.500
  20
 60.0392
  30
0.0
   0
VERTEX
   8
LEVEL001
   6
CONTINUOUS
  62
7
  10
 112.500
  20
 60.2965
  30
0.0
   0
VERTEX
   8
LEVEL001
   6
CONTINUOUS
  62
7
  10
 113.984
  20
 61.8309
  30
0.0
   0
VERTEX
   8
LEVEL001
   6
CONTINUOUS
  62
7
  10
 122.500
  20
 61.8309
  30
0.0
   0
VERTEX
   8
LEVEL001
   6
CONTINUOUS
  62
7
  10
 122.500
  20
 50.1691
  30
0.0
   0
VERTEX
   8
LEVEL001
   6
CONTINUOUS
  62
7
  10
 113.984
  20
 50.1691
  30
0.0
   0
VERTEX
   8
LEVEL001
   6
CONTINUOUS
  62
7
  10
 112.500
  20
 51.7035
  30
0.0
   0
VERTEX
   8
LEVEL001
   6
CONTINUOUS
  62
7
  10
 108.500
  20
 51.9608
  30
0.0
   0
SEQEND
   0
POLYLINE
   8
LEVEL001
   6
CONTINUOUS
  62
7
  66
1
  10
0.0
  20
0.0
  30
0.0
  70
0
   0
VERTEX
   8
LEVEL001
   6
CONTINUOUS
  62
7
  10
 136.000
  20
 41.0000
  30
0.0
   0
VERTEX
   8
LEVEL001
   6
CONTINUOUS
  62
7
  10
 136.000
  20
 71.0000
  30
0.0
   0
VERTEX
   8
LEVEL001
   6
CONTINUOUS
  62
7
  10
 147.000
  20
 71.0000
  30
0.0
   0
VERTEX
   8
LEVEL001
   6
CONTINUOUS
  62
7
  10
 147.000
  20
 41.0000
  30
0.0
   0
VERTEX
   8
LEVEL001
   6
CONTINUOUS
  62
7
  10
 136.000
  20
 41.0000
  30
0.0
   0
SEQEND
   0
LINE
   8
LEVEL001
   6
CONTINUOUS
  62
3
  10
 112.500
  20
 177.644
  30
0.0
  11
 108.884
  21
 176.675
  31
0.0
   0
LINE
   8
LEVEL001
   6
CONTINUOUS
  62
3
  10
 112.500
  20
 160.356
  30
0.0
  11
 108.884
  21
 161.326
  31
0.0
   0
LINE
   8
LEVEL001
   6
CONTINUOUS
  62
7
  10
 112.500
  20
 177.644
  30
0.0
  11
 113.984
  21
 178.500
  31
0.0
   0
LINE
   8
LEVEL001
   6
CONTINUOUS
  62
7
  10
 112.500
  20
 160.356
  30
0.0
  11
 113.984
  21
 159.500
  31
0.0
   0
LINE
   8
LEVEL001
   6
CONTINUOUS
  62
7
  10
 129.500
  20
 159.500
  30
0.0
  11
 113.984
  21
 159.500
  31
0.0
   0
LINE
   8
LEVEL001
   6
CONTINUOUS
  62
7
  10
 129.500
  20
 156.000
  30
0.0
  11
 129.500
  21
 182.000
  31
0.0
   0
LINE
   8
LEVEL001
   6
CONTINUOUS
  62
7
  10
 113.984
  20
 159.500
  30
0.0
  11
 113.984
  21
 163.169
  31
0.0
   0
LINE
   8
LEVEL001
   6
CONTINUOUS
  62
7
  10
 113.984
  20
 174.831
  30
0.0
  11
 113.984
  21
 178.500
  31
0.0
   0
LINE
   8
LEVEL001
   6
CONTINUOUS
  62
7
  10
 108.500
  20
 164.961
  30
0.0
  11
 122.500
  21
 174.831
  31
0.0
   0
LINE
   8
LEVEL001
   6
CONTINUOUS
  62
7
  10
 108.500
  20
 173.039
  30
0.0
  11
 122.500
  21
 163.169
  31
0.0
   0
LINE
   8
LEVEL001
   6
CONTINUOUS
  62
3
  10
 108.884
  20
 176.674
  30
0.0
  11
 108.884
  21
 173.039
  31
0.0
   0
LINE
   8
LEVEL001
   6
CONTINUOUS
  62
3
  10
 108.884
  20
 164.961
  30
0.0
  11
 108.884
  21
 161.326
  31
0.0
   0
LINE
   8
LEVEL001
   6
CONTINUOUS
  62
7
  10
 112.500
  20
 177.644
  30
0.0
  11
 112.500
  21
 173.297
  31
0.0
   0
LINE
   8
LEVEL001
   6
CONTINUOUS
  62
7
  10
 112.500
  20
 164.703
  30
0.0
  11
 112.500
  21
 160.356
  31
0.0
   0
LINE
   8
LEVEL001
   6
CONTINUOUS
  62
3
  10
 136.000
  20
 160.000
  30
0.0
  11
 147.000
  21
 160.000
  31
0.0
   0
LINE
   8
LEVEL001
   6
CONTINUOUS
  62
3
  10
 136.000
  20
 162.000
  30
0.0
  11
 147.000
  21
 162.000
  31
0.0
   0
LINE
   8
LEVEL001
   6
CONTINUOUS
  62
3
  10
 136.000
  20
 164.000
  30
0.0
  11
 147.000
  21
 164.000
  31
0.0
   0
LINE
   8
LEVEL001
   6
CONTINUOUS
  62
3
  10
 136.000
  20
 166.000
  30
0.0
  11
 147.000
  21
 166.000
  31
0.0
   0
LINE
   8
LEVEL001
   6
CONTINUOUS
  62
3
  10
 136.000
  20
 168.000
  30
0.0
  11
 147.000
  21
 168.000
  31
0.0
   0
LINE
   8
LEVEL001
   6
CONTINUOUS
  62
3
  10
 136.000
  20
 170.000
  30
0.0
  11
 147.000
  21
 170.000
  31
0.0
   0
LINE
   8
LEVEL001
   6
CONTINUOUS
  62
3
  10
 136.000
  20
 172.000
  30
0.0
  11
 147.000
  21
 172.000
  31
0.0
   0
LINE
   8
LEVEL001
   6
CONTINUOUS
  62
3
  10
 136.000
  20
 174.000
  30
0.0
  11
 147.000
  21
 174.000
  31
0.0
   0
LINE
   8
LEVEL001
   6
CONTINUOUS
  62
3
  10
 136.000
  20
 176.000
  30
0.0
  11
 147.000
  21
 176.000
  31
0.0
   0
LINE
   8
LEVEL001
   6
CONTINUOUS
  62
3
  10
 136.000
  20
 178.000
  30
0.0
  11
 147.000
  21
 178.000
  31
0.0
   0
POLYLINE
   8
LEVEL001
   6
CONTINUOUS
  62
7
  66
1
  10
0.0
  20
0.0
  30
0.0
  70
0
   0
VERTEX
   8
LEVEL001
   6
CONTINUOUS
  62
7
  10
 108.500
  20
 164.961
  30
0.0
   0
VERTEX
   8
LEVEL001
   6
CONTINUOUS
  62
7
  10
 108.500
  20
 173.039
  30
0.0
   0
VERTEX
   8
LEVEL001
   6
CONTINUOUS
  62
7
  10
 112.500
  20
 173.297
  30
0.0
   0
VERTEX
   8
LEVEL001
   6
CONTINUOUS
  62
7
  10
 113.984
  20
 174.831
  30
0.0
   0
VERTEX
   8
LEVEL001
   6
CONTINUOUS
  62
7
  10
 122.500
  20
 174.831
  30
0.0
   0
VERTEX
   8
LEVEL001
   6
CONTINUOUS
  62
7
  10
 122.500
  20
 163.169
  30
0.0
   0
VERTEX
   8
LEVEL001
   6
CONTINUOUS
  62
7
  10
 113.984
  20
 163.169
  30
0.0
   0
VERTEX
   8
LEVEL001
   6
CONTINUOUS
  62
7
  10
 112.500
  20
 164.703
  30
0.0
   0
VERTEX
   8
LEVEL001
   6
CONTINUOUS
  62
7
  10
 108.500
  20
 164.961
  30
0.0
   0
SEQEND
   0
POLYLINE
   8
LEVEL001
   6
CONTINUOUS
  62
7
  66
1
  10
0.0
  20
0.0
  30
0.0
  70
0
   0
VERTEX
   8
LEVEL001
   6
CONTINUOUS
  62
7
  10
 136.000
  20
 154.000
  30
0.0
   0
VERTEX
   8
LEVEL001
   6
CONTINUOUS
  62
7
  10
 136.000
  20
 184.000
  30
0.0
   0
VERTEX
   8
LEVEL001
   6
CONTINUOUS
  62
7
  10
 147.000
  20
 184.000
  30
0.0
   0
VERTEX
   8
LEVEL001
   6
CONTINUOUS
  62
7
  10
 147.000
  20
 154.000
  30
0.0
   0
VERTEX
   8
LEVEL001
   6
CONTINUOUS
  62
7
  10
 136.000
  20
 154.000
  30
0.0
   0
SEQEND
   0
ARC
   8
LEVEL001
   6
CONTINUOUS
  62
7
  10
 131.000
  20
 156.000
  30
0.0
  40
 1.50000
  50
 180.000
  51
 270.000
   0
ARC
   8
LEVEL001
   6
CONTINUOUS
  62
7
  10
 152.000
  20
 156.000
  30
0.0
  40
 1.50000
  50
 270.000
  51
0.0
   0
LINE
   8
LEVEL001
   6
CONTINUOUS
  62
7
  10
 153.500
  20
 182.000
  30
0.0
  11
 153.500
  21
 156.000
  31
0.0
   0
ARC
   8
LEVEL001
   6
DASHDOT
  62
1
  10
 162.500
  20
 156.000
  30
0.0
  40
 1.00000
  50
 270.000
  51
 0.325689E-11
   0
LINE
   8
LEVEL001
   6
DASHDOT
  62
1
  10
 154.500
  20
 155.000
  30
0.0
  11
 162.500
  21
 155.000
  31
0.0
   0
LINE
   8
LEVEL001
   6
DASHDOT
  62
1
  10
 163.500
  20
 182.000
  30
0.0
  11
 163.500
  21
 156.000
  31
0.0
   0
CIRCLE
   8
LEVEL001
   6
DASHDOT
  62
1
  10
 166.500
  20
 169.000
  30
0.0
  40
 1.50000
   0
ARC
   8
LEVEL001
   6
DASHDOT
  62
1
  10
 154.500
  20
 156.000
  30
0.0
  40
 1.00000
  50
 180.000
  51
 270.000
   0
ARC
   8
LEVEL001
   6
DASHDOT
  62
1
  10
 165.500
  20
 163.500
  30
0.0
  40
 2.00000
  50
 90.0000
  51
 180.000
   0
LINE
   8
LEVEL001
   6
DASHDOT
  62
1
  10
 165.500
  20
 165.500
  30
0.0
  11
 166.000
  21
 165.500
  31
0.0
   0
ARC
   8
LEVEL001
   6
DASHDOT
  62
1
  10
 166.000
  20
 169.000
  30
0.0
  40
 3.50000
  50
 270.000
  51
 90.0000
   0
LINE
   8
LEVEL001
   6
CONTINUOUS
  62
3
  10
 136.000
  20
 156.000
  30
0.0
  11
 147.000
  21
 156.000
  31
0.0
   0
LINE
   8
LEVEL001
   6
CONTINUOUS
  62
3
  10
 136.000
  20
 158.000
  30
0.0
  11
 147.000
  21
 158.000
  31
0.0
   0
LINE
   8
LEVEL001
   6
CONTINUOUS
  62
7
  10
 129.500
  20
 178.500
  30
0.0
  11
 113.984
  21
 178.500
  31
0.0
   0
ARC
   8
LEVEL001
   6
CONTINUOUS
  62
7
  10
 131.000
  20
 182.000
  30
0.0
  40
 1.50000
  50
 90.0000
  51
 180.000
   0
LINE
   8
LEVEL001
   6
CONTINUOUS
  62
7
  10
 131.000
  20
 183.500
  30
0.0
  11
 136.000
  21
 183.500
  31
0.0
   0
LINE
   8
LEVEL001
   6
CONTINUOUS
  62
7
  10
 147.000
  20
 183.500
  30
0.0
  11
 152.000
  21
 183.500
  31
0.0
   0
LINE
   8
LEVEL001
   6
CONTINUOUS
  62
3
  10
 136.000
  20
 180.000
  30
0.0
  11
 147.000
  21
 180.000
  31
0.0
   0
LINE
   8
LEVEL001
   6
CONTINUOUS
  62
3
  10
 136.000
  20
 182.000
  30
0.0
  11
 147.000
  21
 182.000
  31
0.0
   0
ARC
   8
LEVEL001
   6
CONTINUOUS
  62
7
  10
 152.000
  20
 182.000
  30
0.0
  40
 1.50000
  50
0.0
  51
 90.0000
   0
ARC
   8
LEVEL001
   6
DASHDOT
  62
1
  10
 162.500
  20
 182.000
  30
0.0
  40
 1.00000
  50
0.0
  51
 90.0000
   0
ARC
   8
LEVEL001
   6
DASHDOT
  62
1
  10
 154.500
  20
 182.000
  30
0.0
  40
 1.00000
  50
 90.0000
  51
 180.000
   0
ARC
   8
LEVEL001
   6
DASHDOT
  62
1
  10
 165.500
  20
 174.500
  30
0.0
  40
 2.00000
  50
 180.000
  51
 270.000
   0
LINE
   8
LEVEL001
   6
DASHDOT
  62
1
  10
 165.500
  20
 172.500
  30
0.0
  11
 166.000
  21
 172.500
  31
0.0
   0
LINE
   8
LEVEL001
   6
DASHDOT
  62
1
  10
 154.500
  20
 183.000
  30
0.0
  11
 162.500
  21
 183.000
  31
0.0
   0
LINE
   8
LEVEL001
   6
CONTINUOUS
  62
7
  10
 147.000
  20
 154.500
  30
0.0
  11
 152.000
  21
 154.500
  31
0.0
   0
LINE
   8
LEVEL001
   6
CONTINUOUS
  62
7
  10
 131.000
  20
 154.500
  30
0.0
  11
 136.000
  21
 154.500
  31
0.0
   0
LINE
   8
LEVEL003
   6
CONTINUOUS
  62
3
  10
 86.4500
  20
 217.000
  30
0.0
  11
 132.000
  21
 217.000
  31
0.0
   0
LINE
   8
LEVEL003
   6
CONTINUOUS
  62
3
  10
 84.2500
  20
 235.000
  30
0.0
  11
 132.000
  21
 235.000
  31
0.0
   0
LINE
   8
LEVEL003
   6
CONTINUOUS
  62
3
  10
 130.000
  20
 217.000
  30
0.0
  11
 130.000
  21
 235.000
  31
0.0
   0
LINE
   8
LEVEL003
   6
CONTINUOUS
  62
3
  10
 130.000
  20
 217.000
  30
0.0
  11
 130.529
  21
 220.000
  31
0.0
   0
LINE
   8
LEVEL003
   6
CONTINUOUS
  62
3
  10
 130.000
  20
 217.000
  30
0.0
  11
 129.471
  21
 220.000
  31
0.0
   0
LINE
   8
LEVEL003
   6
CONTINUOUS
  62
3
  10
 130.000
  20
 235.000
  30
0.0
  11
 129.471
  21
 232.000
  31
0.0
   0
LINE
   8
LEVEL003
   6
CONTINUOUS
  62
3
  10
 130.000
  20
 235.000
  30
0.0
  11
 130.529
  21
 232.000
  31
0.0
   0
TEXT
   8
LEVEL003
  62
3
  10
 129.200
  20
 222.000
  30
0.0
  40
 4.00000
   1
18
  50
 90.0000
   7
STANDARD
  72
1
  11
 129.200
  21
 226.000
  31
0.0
   0
LINE
   8
LEVEL003
   6
CONTINUOUS
  62
3
  10
 89.0000
  20
 243.000
  30
0.0
  11
 132.000
  21
 243.000
  31
0.0
   0
LINE
   8
LEVEL003
   6
CONTINUOUS
  62
3
  10
 84.2500
  20
 235.000
  30
0.0
  11
 132.000
  21
 235.000
  31
0.0
   0
LINE
   8
LEVEL003
   6
CONTINUOUS
  62
3
  10
 130.000
  20
 243.000
  30
0.0
  11
 130.000
  21
 235.000
  31
0.0
   0
LINE
   8
LEVEL003
   6
CONTINUOUS
  62
3
  10
 130.000
  20
 243.000
  30
0.0
  11
 129.471
  21
 240.000
  31
0.0
   0
LINE
   8
LEVEL003
   6
CONTINUOUS
  62
3
  10
 130.000
  20
 243.000
  30
0.0
  11
 130.529
  21
 240.000
  31
0.0
   0
LINE
   8
LEVEL003
   6
CONTINUOUS
  62
3
  10
 130.000
  20
 235.000
  30
0.0
  11
 130.529
  21
 238.000
  31
0.0
   0
LINE
   8
LEVEL003
   6
CONTINUOUS
  62
3
  10
 130.000
  20
 235.000
  30
0.0
  11
 129.471
  21
 238.000
  31
0.0
   0
TEXT
   8
LEVEL003
  62
3
  10
 129.200
  20
 237.000
  30
0.0
  40
 4.00000
   1
8
  50
 90.0000
   7
STANDARD
  72
1
  11
 129.200
  21
 239.000
  31
0.0
   0
LINE
   8
LEVEL003
   6
CONTINUOUS
  62
3
  10
 102.500
  20
 25.0000
  30
0.0
  11
 187.000
  21
 25.0000
  31
0.0
   0
LINE
   8
LEVEL003
   6
CONTINUOUS
  62
3
  10
 173.500
  20
 56.0000
  30
0.0
  11
 187.000
  21
 56.0000
  31
0.0
   0
LINE
   8
LEVEL003
   6
CONTINUOUS
  62
3
  10
 185.000
  20
 25.0000
  30
0.0
  11
 185.000
  21
 56.0000
  31
0.0
   0
LINE
   8
LEVEL003
   6
CONTINUOUS
  62
3
  10
 185.000
  20
 25.0000
  30
0.0
  11
 185.529
  21
 28.0000
  31
0.0
   0
LINE
   8
LEVEL003
   6
CONTINUOUS
  62
3
  10
 185.000
  20
 25.0000
  30
0.0
  11
 184.471
  21
 28.0000
  31
0.0
   0
LINE
   8
LEVEL003
   6
CONTINUOUS
  62
3
  10
 185.000
  20
 56.0000
  30
0.0
  11
 184.471
  21
 53.0000
  31
0.0
   0
LINE
   8
LEVEL003
   6
CONTINUOUS
  62
3
  10
 185.000
  20
 56.0000
  30
0.0
  11
 185.529
  21
 53.0000
  31
0.0
   0
TEXT
   8
LEVEL003
  62
3
  10
 184.200
  20
 36.5000
  30
0.0
  40
 4.00000
   1
31
  50
 90.0000
   7
STANDARD
  72
1
  11
 184.200
  21
 40.5000
  31
0.0
   0
LINE
   8
LEVEL003
   6
CONTINUOUS
  62
3
  10
 101.500
  20
 213.000
  30
0.0
  11
 187.000
  21
 213.000
  31
0.0
   0
LINE
   8
LEVEL003
   6
CONTINUOUS
  62
3
  10
 173.500
  20
 169.000
  30
0.0
  11
 187.000
  21
 169.000
  31
0.0
   0
LINE
   8
LEVEL003
   6
CONTINUOUS
  62
3
  10
 185.000
  20
 213.000
  30
0.0
  11
 185.000
  21
 169.000
  31
0.0
   0
LINE
   8
LEVEL003
   6
CONTINUOUS
  62
3
  10
 185.000
  20
 213.000
  30
0.0
  11
 184.471
  21
 210.000
  31
0.0
   0
LINE
   8
LEVEL003
   6
CONTINUOUS
  62
3
  10
 185.000
  20
 213.000
  30
0.0
  11
 185.529
  21
 210.000
  31
0.0
   0
LINE
   8
LEVEL003
   6
CONTINUOUS
  62
3
  10
 185.000
  20
 169.000
  30
0.0
  11
 185.529
  21
 172.000
  31
0.0
   0
LINE
   8
LEVEL003
   6
CONTINUOUS
  62
3
  10
 185.000
  20
 169.000
  30
0.0
  11
 184.471
  21
 172.000
  31
0.0
   0
TEXT
   8
LEVEL003
  62
3
  10
 184.200
  20
 187.000
  30
0.0
  40
 4.00000
   1
44
  50
 90.0000
   7
STANDARD
  72
1
  11
 184.200
  21
 191.000
  31
0.0
   0
LINE
   8
LEVEL003
   6
CONTINUOUS
  62
3
  10
 89.0000
  20
 243.000
  30
0.0
  11
 187.000
  21
 243.000
  31
0.0
   0
LINE
   8
LEVEL003
   6
CONTINUOUS
  62
3
  10
 101.500
  20
 213.000
  30
0.0
  11
 187.000
  21
 213.000
  31
0.0
   0
LINE
   8
LEVEL003
   6
CONTINUOUS
  62
3
  10
 185.000
  20
 243.000
  30
0.0
  11
 185.000
  21
 213.000
  31
0.0
   0
LINE
   8
LEVEL003
   6
CONTINUOUS
  62
3
  10
 185.000
  20
 243.000
  30
0.0
  11
 184.471
  21
 240.000
  31
0.0
   0
LINE
   8
LEVEL003
   6
CONTINUOUS
  62
3
  10
 185.000
  20
 243.000
  30
0.0
  11
 185.529
  21
 240.000
  31
0.0
   0
LINE
   8
LEVEL003
   6
CONTINUOUS
  62
3
  10
 185.000
  20
 213.000
  30
0.0
  11
 185.529
  21
 216.000
  31
0.0
   0
LINE
   8
LEVEL003
   6
CONTINUOUS
  62
3
  10
 185.000
  20
 213.000
  30
0.0
  11
 184.471
  21
 216.000
  31
0.0
   0
TEXT
   8
LEVEL003
  62
3
  10
 184.200
  20
 224.000
  30
0.0
  40
 4.00000
   1
30
  50
 90.0000
   7
STANDARD
  72
1
  11
 184.200
  21
 228.000
  31
0.0
   0
LINE
   8
LEVEL003
   6
CONTINUOUS
  62
3
  10
 89.0000
  20
 243.000
  30
0.0
  11
 207.000
  21
 243.000
  31
0.0
   0
LINE
   8
LEVEL003
   6
CONTINUOUS
  62
3
  10
 102.500
  20
 25.0000
  30
0.0
  11
 207.000
  21
 25.0000
  31
0.0
   0
LINE
   8
LEVEL003
   6
CONTINUOUS
  62
3
  10
 205.000
  20
 243.000
  30
0.0
  11
 205.000
  21
 25.0000
  31
0.0
   0
LINE
   8
LEVEL003
   6
CONTINUOUS
  62
3
  10
 205.000
  20
 243.000
  30
0.0
  11
 204.471
  21
 240.000
  31
0.0
   0
LINE
   8
LEVEL003
   6
CONTINUOUS
  62
3
  10
 205.000
  20
 243.000
  30
0.0
  11
 205.529
  21
 240.000
  31
0.0
   0
LINE
   8
LEVEL003
   6
CONTINUOUS
  62
3
  10
 205.000
  20
 25.0000
  30
0.0
  11
 205.529
  21
 28.0000
  31
0.0
   0
LINE
   8
LEVEL003
   6
CONTINUOUS
  62
3
  10
 205.000
  20
 25.0000
  30
0.0
  11
 204.471
  21
 28.0000
  31
0.0
   0
TEXT
   8
LEVEL003
  62
3
  10
 204.200
  20
 128.000
  30
0.0
  40
 4.00000
   1
218
  50
 90.0000
   7
STANDARD
  72
1
  11
 204.200
  21
 134.000
  31
0.0
   0
LINE
   8
LEVEL001
   6
CONTINUOUS
  62
7
  10
 101.500
  20
 212.000
  30
0.0
  11
 100.500
  21
 213.000
  31
0.0
   0
LINE
   8
LEVEL001
   6
CONTINUOUS
  62
7
  10
 101.500
  20
 212.000
  30
0.0
  11
 101.500
  21
 210.000
  31
0.0
   0
POLYLINE
   8
LEVEL001
   6
CONTINUOUS
  62
7
  66
1
  10
0.0
  20
0.0
  30
0.0
  70
0
   0
VERTEX
   8
LEVEL001
   6
CONTINUOUS
  62
7
  10
 101.750
  20
 210.000
  30
0.0
   0
VERTEX
   8
LEVEL001
   6
CONTINUOUS
  62
7
  10
 102.500
  20
 209.250
  30
0.0
   0
VERTEX
   8
LEVEL001
   6
CONTINUOUS
  62
7
  10
 102.500
  20
 183.201
  30
0.0
   0
SEQEND
   0
LINE
   8
LEVEL001
   6
CONTINUOUS
  62
3
  10
 101.750
  20
 186.000
  30
0.0
  11
 102.500
  21
 183.201
  31
0.0
   0
ARC
   8
LEVEL001
   6
CONTINUOUS
  62
7
  10
 84.0000
  20
 218.750
  30
0.0
  40
 0.750000
  50
 90.0000
  51
 180.000
   0
ARC
   8
LEVEL001
   6
CONTINUOUS
  62
7
  10
 84.0000
  20
 217.750
  30
0.0
  40
 0.750000
  50
 180.000
  51
 270.000
   0
LINE
   8
LEVEL001
   6
CONTINUOUS
  62
7
  10
 83.2500
  20
 218.750
  30
0.0
  11
 83.2500
  21
 217.750
  31
0.0
   0
LINE
   8
LEVEL001
   6
CONTINUOUS
  62
7
  10
 89.0000
  20
 221.000
  30
0.0
  11
 88.0000
  21
 220.000
  31
0.0
   0
LINE
   8
LEVEL001
   6
CONTINUOUS
  62
7
  10
 89.0000
  20
 242.000
  30
0.0
  11
 88.0000
  21
 243.000
  31
0.0
   0
LINE
   8
LEVEL001
   6
CONTINUOUS
  62
7
  10
 89.0000
  20
 242.000
  30
0.0
  11
 89.0000
  21
 221.000
  31
0.0
   0
LINE
   8
LEVEL001
   6
CONTINUOUS
  62
7
  10
 86.2000
  20
 214.000
  30
0.0
  11
 85.4500
  21
 217.000
  31
0.0
   0
LINE
   8
LEVEL001
   6
DASHDOT
  62
1
  10
 105.500
  20
 210.000
  30
0.0
  11
 105.500
  21
 186.000
  31
0.0
   0
LINE
   8
LEVEL001
   6
DASHDOT
  62
1
  10
 101.750
  20
 210.000
  30
0.0
  11
 105.500
  21
 210.000
  31
0.0
   0
LINE
   8
LEVEL001
   6
DASHDOT
  62
1
  10
 105.500
  20
 186.000
  30
0.0
  11
 102.500
  21
 186.000
  31
0.0
   0
LINE
   8
LEVEL001
   6
CONTINUOUS
  62
7
  10
 48.5000
  20
 212.000
  30
0.0
  11
 49.5000
  21
 213.000
  31
0.0
   0
LINE
   8
LEVEL001
   6
CONTINUOUS
  62
7
  10
 48.5000
  20
 212.000
  30
0.0
  11
 48.5000
  21
 210.000
  31
0.0
   0
LINE
   8
LEVEL001
   6
CONTINUOUS
  62
7
  10
 47.5000
  20
 183.201
  30
0.0
  11
 47.5000
  21
 26.0000
  31
0.0
   0
POLYLINE
   8
LEVEL001
   6
CONTINUOUS
  62
7
  66
1
  10
0.0
  20
0.0
  30
0.0
  70
0
   0
VERTEX
   8
LEVEL001
   6
CONTINUOUS
  62
7
  10
 48.2500
  20
 210.000
  30
0.0
   0
VERTEX
   8
LEVEL001
   6
CONTINUOUS
  62
7
  10
 47.5000
  20
 209.250
  30
0.0
   0
VERTEX
   8
LEVEL001
   6
CONTINUOUS
  62
7
  10
 47.5000
  20
 183.201
  30
0.0
   0
SEQEND
   0
LINE
   8
LEVEL001
   6
CONTINUOUS
  62
3
  10
 48.2500
  20
 186.000
  30
0.0
  11
 47.5000
  21
 183.201
  31
0.0
   0
ARC
   8
LEVEL001
   6
CONTINUOUS
  62
7
  10
 66.0000
  20
 218.750
  30
0.0
  40
 0.750000
  50
0.0
  51
 90.0000
   0
ARC
   8
LEVEL001
   6
CONTINUOUS
  62
7
  10
 66.0000
  20
 217.750
  30
0.0
  40
 0.750000
  50
 270.000
  51
0.0
   0
LINE
   8
LEVEL001
   6
CONTINUOUS
  62
7
  10
 66.7500
  20
 218.750
  30
0.0
  11
 66.7500
  21
 217.750
  31
0.0
   0
LINE
   8
LEVEL001
   6
CONTINUOUS
  62
7
  10
 61.0000
  20
 221.000
  30
0.0
  11
 62.0000
  21
 220.000
  31
0.0
   0
LINE
   8
LEVEL001
   6
CONTINUOUS
  62
7
  10
 61.0000
  20
 242.000
  30
0.0
  11
 62.0000
  21
 243.000
  31
0.0
   0
LINE
   8
LEVEL001
   6
CONTINUOUS
  62
7
  10
 61.0000
  20
 242.000
  30
0.0
  11
 61.0000
  21
 221.000
  31
0.0
   0
LINE
   8
LEVEL001
   6
CONTINUOUS
  62
7
  10
 63.8000
  20
 214.000
  30
0.0
  11
 64.5500
  21
 217.000
  31
0.0
   0
LINE
   8
LEVEL001
   6
DASHDOT
  62
1
  10
 44.5000
  20
 210.000
  30
0.0
  11
 44.5000
  21
 186.000
  31
0.0
   0
LINE
   8
LEVEL001
   6
DASHDOT
  62
1
  10
 48.2500
  20
 210.000
  30
0.0
  11
 44.5000
  21
 210.000
  31
0.0
   0
LINE
   8
LEVEL001
   6
DASHDOT
  62
1
  10
 44.5000
  20
 186.000
  30
0.0
  11
 47.5000
  21
 186.000
  31
0.0
   0
LINE
   8
LEVEL001
   6
CONTINUOUS
  62
7
  10
 62.0000
  20
 243.000
  30
0.0
  11
 88.0000
  21
 243.000
  31
0.0
   0
LINE
   8
LEVEL001
   6
CONTINUOUS
  62
7
  10
 84.0000
  20
 219.500
  30
0.0
  11
 66.0000
  21
 219.500
  31
0.0
   0
LINE
   8
LEVEL001
   6
CONTINUOUS
  62
7
  10
 85.4500
  20
 217.000
  30
0.0
  11
 64.5500
  21
 217.000
  31
0.0
   0
LINE
   8
LEVEL001
   6
CONTINUOUS
  62
7
  10
 86.2000
  20
 214.000
  30
0.0
  11
 63.8000
  21
 214.000
  31
0.0
   0
LINE
   8
LEVEL001
   6
DASHDOT
  62
1
  10
 75.0000
  20
 250.000
  30
0.0
  11
 75.0000
  21
 145.000
  31
0.0
   0
LINE
   8
LEVEL001
   6
DASHDOT
  62
1
  10
 75.0000
  20
 140.000
  30
0.0
  11
 75.0000
  21
 135.000
  31
0.0
   0
LINE
   8
LEVEL001
   6
DASHDOT
  62
1
  10
 75.0000
  20
 130.000
  30
0.0
  11
 75.0000
  21
 125.000
  31
0.0
   0
LINE
   8
LEVEL001
   6
DASHDOT
  62
1
  10
 75.0000
  20
 120.000
  30
0.0
  11
 75.0000
  21
 20.0000
  31
0.0
   0
LINE
   8
LEVEL001
   6
CONTINUOUS
  62
7
  10
 101.500
  20
 25.0000
  30
0.0
  11
 102.500
  21
 26.0000
  31
0.0
   0
LINE
   8
LEVEL001
   6
CONTINUOUS
  62
7
  10
 48.5000
  20
 25.0000
  30
0.0
  11
 47.5000
  21
 26.0000
  31
0.0
   0
LINE
   8
LEVEL001
   6
CONTINUOUS
  62
7
  10
 101.500
  20
 25.0000
  30
0.0
  11
 48.5000
  21
 25.0000
  31
0.0
   0
LINE
   8
LEVEL001
   6
CONTINUOUS
  62
7
  10
 112.500
  20
 177.644
  30
0.0
  11
 102.500
  21
 177.331
  31
0.0
   0
LINE
   8
LEVEL001
   6
CONTINUOUS
  62
7
  10
 112.500
  20
 160.356
  30
0.0
  11
 102.500
  21
 160.669
  31
0.0
   0
LINE
   8
LEVEL001
   6
CONTINUOUS
  62
7
  10
 112.500
  20
 64.6435
  30
0.0
  11
 102.500
  21
 64.3310
  31
0.0
   0
LINE
   8
LEVEL001
   6
CONTINUOUS
  62
7
  10
 112.500
  20
 47.3565
  30
0.0
  11
 102.500
  21
 47.6690
  31
0.0
   0
LINE
   8
LEVEL001
   6
CONTINUOUS
  62
7
  10
 102.500
  20
 183.201
  30
0.0
  11
 102.500
  21
 26.0000
  31
0.0
   0
LINE
   8
LEVEL001
   6
CONTINUOUS
  62
3
  10
 108.884
  20
 63.6745
  30
0.0
  11
 102.500
  21
 63.4750
  31
0.0
   0
LINE
   8
LEVEL001
   6
CONTINUOUS
  62
3
  10
 108.884
  20
 48.3255
  30
0.0
  11
 102.500
  21
 48.5250
  31
0.0
   0
LINE
   8
LEVEL001
   6
CONTINUOUS
  62
3
  10
 108.884
  20
 161.326
  30
0.0
  11
 102.500
  21
 161.525
  31
0.0
   0
LINE
   8
LEVEL001
   6
CONTINUOUS
  62
3
  10
 108.884
  20
 176.674
  30
0.0
  11
 102.500
  21
 176.475
  31
0.0
   0
LINE
   8
LEVEL001
   6
DASHDOT
  62
1
  10
 172.500
  20
 169.000
  30
0.0
  11
 95.0000
  21
 169.000
  31
0.0
   0
LINE
   8
LEVEL001
   6
DASHDOT
  62
1
  10
 172.500
  20
 56.0000
  30
0.0
  11
 95.0000
  21
 56.0000
  31
0.0
   0
LINE
   8
LEVEL001
   6
CONTINUOUS
  62
7
  10
 84.0000
  20
 220.000
  30
0.0
  11
 84.0000
  21
 219.500
  31
0.0
   0
LINE
   8
LEVEL001
   6
CONTINUOUS
  62
7
  10
 66.0000
  20
 220.000
  30
0.0
  11
 66.0000
  21
 219.500
  31
0.0
   0
LINE
   8
LEVEL001
   6
CONTINUOUS
  62
3
  10
 83.2500
  20
 220.000
  30
0.0
  11
 83.2500
  21
 218.750
  31
0.0
   0
LINE
   8
LEVEL001
   6
CONTINUOUS
  62
3
  10
 66.7500
  20
 220.000
  30
0.0
  11
 66.7500
  21
 218.750
  31
0.0
   0
LINE
   8
LEVEL001
   6
CONTINUOUS
  62
7
  10
 88.0000
  20
 220.000
  30
0.0
  11
 62.0000
  21
 220.000
  31
0.0
   0
LINE
   8
LEVEL001
   6
CONTINUOUS
  62
7
  10
 89.0000
  20
 221.000
  30
0.0
  11
 61.0000
  21
 221.000
  31
0.0
   0
LINE
   8
LEVEL001
   6
CONTINUOUS
  62
7
  10
 61.0000
  20
 242.000
  30
0.0
  11
 89.0000
  21
 242.000
  31
0.0
   0
LINE
   8
LEVEL001
   6
CONTINUOUS
  62
7
  10
 101.500
  20
 212.000
  30
0.0
  11
 48.5000
  21
 212.000
  31
0.0
   0
LINE
   8
LEVEL001
   6
CONTINUOUS
  62
7
  10
 48.2500
  20
 210.000
  30
0.0
  11
 101.750
  21
 210.000
  31
0.0
   0
LINE
   8
LEVEL001
   6
CONTINUOUS
  62
7
  10
 102.500
  20
 183.201
  30
0.0
  11
 47.5000
  21
 183.201
  31
0.0
   0
LINE
   8
LEVEL001
   6
CONTINUOUS
  62
3
  10
 48.2500
  20
 210.000
  30
0.0
  11
 48.2500
  21
 186.000
  31
0.0
   0
LINE
   8
LEVEL001
   6
CONTINUOUS
  62
3
  10
 101.750
  20
 210.000
  30
0.0
  11
 101.750
  21
 186.000
  31
0.0
   0
LINE
   8
LEVEL001
   6
CONTINUOUS
  62
3
  10
 47.5000
  20
 209.250
  30
0.0
  11
 102.500
  21
 209.250
  31
0.0
   0
LINE
   8
LEVEL001
   6
CONTINUOUS
  62
3
  10
 102.500
  20
 186.000
  30
0.0
  11
 47.5000
  21
 186.000
  31
0.0
   0
LINE
   8
LEVEL004
   6
DOT
  62
3
  10
 60.0000
  20
 171.000
  30
0.0
  11
 60.0000
  21
 62.0000
  31
0.0
   0
LINE
   8
LEVEL004
   6
DOT
  62
3
  10
 90.0000
  20
 171.000
  30
0.0
  11
 90.0000
  21
 62.0000
  31
0.0
   0
ARC
   8
LEVEL004
   6
DOT
  62
3
  10
 65.0000
  20
 243.000
  30
0.0
  40
 1.50000
  50
 180.000
  51
0.0
   0
ARC
   8
LEVEL004
   6
DOT
  62
3
  10
 85.0000
  20
 243.000
  30
0.0
  40
 1.50000
  50
 180.000
  51
0.0
   0
LINE
   8
LEVEL004
   6
DOT
  62
3
  10
 83.2500
  20
 235.000
  30
0.0
  11
 66.7500
  21
 235.000
  31
0.0
   0
ARC
   8
LEVEL004
   6
DOT
  62
3
  10
 66.7500
  20
 234.250
  30
0.0
  40
 0.750000
  50
 90.0000
  51
 180.000
   0
POLYLINE
   8
LEVEL004
   6
DOT
  62
3
  66
1
  10
0.0
  20
0.0
  30
0.0
  70
0
   0
VERTEX
   8
LEVEL004
   6
DOT
  62
3
  10
 66.0000
  20
 220.000
  30
0.0
   0
VERTEX
   8
LEVEL004
   6
DOT
  62
3
  10
 66.7500
  20
 220.750
  30
0.0
   0
VERTEX
   8
LEVEL004
   6
DOT
  62
3
  10
 66.7500
  20
 231.000
  30
0.0
   0
SEQEND
   0
ARC
   8
LEVEL004
   6
DOT
  62
3
  10
 66.7500
  20
 231.750
  30
0.0
  40
 0.750000
  50
 180.000
  51
 270.000
   0
LINE
   8
LEVEL004
   6
DOT
  62
3
  10
 66.7500
  20
 235.000
  30
0.0
  11
 66.7500
  21
 231.000
  31
0.0
   0
ARC
   8
LEVEL004
   6
DOT
  62
3
  10
 83.2500
  20
 231.750
  30
0.0
  40
 0.750000
  50
 270.000
  51
0.0
   0
ARC
   8
LEVEL004
   6
DOT
  62
3
  10
 83.2500
  20
 234.250
  30
0.0
  40
 0.750000
  50
0.0
  51
 90.0000
   0
LINE
   8
LEVEL004
   6
DOT
  62
3
  10
 84.0000
  20
 234.250
  30
0.0
  11
 66.0000
  21
 234.250
  31
0.0
   0
LINE
   8
LEVEL004
   6
DOT
  62
3
  10
 83.2500
  20
 235.000
  30
0.0
  11
 83.2500
  21
 231.000
  31
0.0
   0
POLYLINE
   8
LEVEL004
   6
DOT
  62
3
  66
1
  10
0.0
  20
0.0
  30
0.0
  70
0
   0
VERTEX
   8
LEVEL004
   6
DOT
  62
3
  10
 83.2500
  20
 235.000
  30
0.0
   0
VERTEX
   8
LEVEL004
   6
DOT
  62
3
  10
 84.0000
  20
 234.250
  30
0.0
   0
VERTEX
   8
LEVEL004
   6
DOT
  62
3
  10
 84.0000
  20
 220.000
  30
0.0
   0
SEQEND
   0
POLYLINE
   8
LEVEL004
   6
DOT
  62
3
  66
1
  10
0.0
  20
0.0
  30
0.0
  70
0
   0
VERTEX
   8
LEVEL004
   6
DOT
  62
3
  10
 66.7500
  20
 235.000
  30
0.0
   0
VERTEX
   8
LEVEL004
   6
DOT
  62
3
  10
 66.0000
  20
 234.250
  30
0.0
   0
VERTEX
   8
LEVEL004
   6
DOT
  62
3
  10
 66.0000
  20
 220.000
  30
0.0
   0
SEQEND
   0
LINE
   8
LEVEL004
   6
DOT
  62
3
  10
 66.7500
  20
 220.750
  30
0.0
  11
 66.7500
  21
 220.000
  31
0.0
   0
LINE
   8
LEVEL004
   6
DOT
  62
3
  10
 83.2500
  20
 220.750
  30
0.0
  11
 83.2500
  21
 220.000
  31
0.0
   0
POLYLINE
   8
LEVEL004
   6
DOT
  62
3
  66
1
  10
0.0
  20
0.0
  30
0.0
  70
0
   0
VERTEX
   8
LEVEL004
   6
DOT
  62
3
  10
 84.0000
  20
 220.000
  30
0.0
   0
VERTEX
   8
LEVEL004
   6
DOT
  62
3
  10
 83.2500
  20
 220.750
  30
0.0
   0
VERTEX
   8
LEVEL004
   6
DOT
  62
3
  10
 83.2500
  20
 231.000
  30
0.0
   0
SEQEND
   0
ARC
   8
LEVEL004
   6
DOT
  62
3
  10
 62.5000
  20
 43.0000
  30
0.0
  40
 1.00000
  50
 180.000
  51
 270.000
   0
ARC
   8
LEVEL004
   6
DOT
  62
3
  10
 62.5000
  20
 44.0000
  30
0.0
  40
 1.00000
  50
 90.0000
  51
 180.000
   0
LINE
   8
LEVEL004
   6
DOT
  62
3
  10
 61.5000
  20
 43.0000
  30
0.0
  11
 61.5000
  21
 44.0000
  31
0.0
   0
LINE
   8
LEVEL004
   6
DOT
  62
3
  10
 61.5000
  20
 25.0000
  30
0.0
  11
 61.5000
  21
 43.0000
  31
0.0
   0
POLYLINE
   8
LEVEL004
   6
DOT
  62
3
  66
1
  10
0.0
  20
0.0
  30
0.0
  70
0
   0
VERTEX
   8
LEVEL004
   6
DOT
  62
3
  10
 61.5000
  20
 25.0000
  30
0.0
   0
VERTEX
   8
LEVEL004
   6
DOT
  62
3
  10
 62.5000
  20
 26.0000
  30
0.0
   0
VERTEX
   8
LEVEL004
   6
DOT
  62
3
  10
 62.5000
  20
 42.0000
  30
0.0
   0
SEQEND
   0
LINE
   8
LEVEL004
   6
DOT
  62
3
  10
 87.5000
  20
 45.0000
  30
0.0
  11
 62.5000
  21
 45.0000
  31
0.0
   0
ARC
   8
LEVEL004
   6
DOT
  62
3
  10
 87.5000
  20
 44.0000
  30
0.0
  40
 1.00000
  50
0.0
  51
 90.0000
   0
LINE
   8
LEVEL004
   6
DOT
  62
3
  10
 88.5000
  20
 43.0000
  30
0.0
  11
 88.5000
  21
 44.0000
  31
0.0
   0
LINE
   8
LEVEL004
   6
DOT
  62
3
  10
 88.5000
  20
 25.0000
  30
0.0
  11
 88.5000
  21
 43.0000
  31
0.0
   0
POLYLINE
   8
LEVEL004
   6
DOT
  62
3
  66
1
  10
0.0
  20
0.0
  30
0.0
  70
0
   0
VERTEX
   8
LEVEL004
   6
DOT
  62
3
  10
 88.5000
  20
 25.0000
  30
0.0
   0
VERTEX
   8
LEVEL004
   6
DOT
  62
3
  10
 87.5000
  20
 26.0000
  30
0.0
   0
VERTEX
   8
LEVEL004
   6
DOT
  62
3
  10
 87.5000
  20
 42.0000
  30
0.0
   0
SEQEND
   0
LINE
   8
LEVEL004
   6
DOT
  62
3
  10
 87.5000
  20
 42.0000
  30
0.0
  11
 62.5000
  21
 42.0000
  31
0.0
   0
ARC
   8
LEVEL004
   6
DOT
  62
3
  10
 87.5000
  20
 43.0000
  30
0.0
  40
 1.00000
  50
 270.000
  51
0.0
   0
LINE
   8
LEVEL004
   6
DOT
  62
3
  10
 87.5000
  20
 26.0000
  30
0.0
  11
 62.5000
  21
 26.0000
  31
0.0
   0
LINE
   8
LEVEL004
   6
DOT
  62
3
  10
 86.2000
  20
 102.000
  30
0.0
  11
 86.2000
  21
 213.000
  31
0.0
   0
LINE
   8
LEVEL004
   6
DOT
  62
3
  10
 63.8000
  20
 102.000
  30
0.0
  11
 63.8000
  21
 213.000
  31
0.0
   0
LINE
   8
LEVEL001
   6
CONTINUOUS
  62
7
  10
 86.2000
  20
 214.000
  30
0.0
  11
 86.2000
  21
 213.000
  31
0.0
   0
LINE
   8
LEVEL001
   6
CONTINUOUS
  62
7
  10
 63.8000
  20
 214.000
  30
0.0
  11
 63.8000
  21
 213.000
  31
0.0
   0
LINE
   8
LEVEL001
   6
CONTINUOUS
  62
7
  10
 100.500
  20
 213.000
  30
0.0
  11
 49.5000
  21
 213.000
  31
0.0
   0
LINE
   8
LEVEL001
   6
CONTINUOUS
  62
7
  10
 102.500
  20
 26.0000
  30
0.0
  11
 47.5000
  21
 26.0000
  31
0.0
   0
CIRCLE
   8
LEVEL003
   6
CONTINUOUS
  62
7
  10
 209.718
  20
 12.2707
  30
0.0
  40
 3.00000
   0
LINE
   8
LEVEL003
   6
CONTINUOUS
  62
7
  10
 215.606
  20
 15.2707
  30
0.0
  11
 211.797
  21
 8.67067
  31
0.0
   0
LINE
   8
LEVEL003
   6
CONTINUOUS
  62
7
  10
 211.797
  20
 8.67067
  30
0.0
  11
 204.176
  21
 8.67067
  31
0.0
   0
LINE
   8
LEVEL003
   6
CONTINUOUS
  62
7
  10
 203.309
  20
 7.17067
  30
0.0
  11
 216.930
  21
 7.17067
  31
0.0
   0
LINE
   8
LEVEL003
   6
CONTINUOUS
  62
7
  10
 216.930
  20
 7.17067
  30
0.0
  11
 221.606
  21
 15.2707
  31
0.0
   0
LINE
   8
LEVEL003
   6
CONTINUOUS
  62
7
  10
 221.606
  20
 15.2707
  30
0.0
  11
 215.606
  21
 15.2707
  31
0.0
   0
LINE
   8
LEVEL003
   6
CONTINUOUS
  62
7
  10
 204.176
  20
 8.67067
  30
0.0
  11
 203.309
  21
 7.17067
  31
0.0
   0
TEXT
   8
LEVEL003
  62
7
  10
 221.691
  20
 5.21997
  30
0.0
  40
 10.0000
   1
ＯＳＡＫＡ ＪＡＣＫ
   7
STANDARD
   0
TEXT
   8
LEVEL003
  62
7
  10
 224.602
  20
 22.1134
  30
0.0
  40
 6.00000
   1
Model : Ｅ５Ｈ８
   7
STANDARD
   0
ENDSEC
   0
EOF
