   0
SECTION
   2
HEADER
   9
$LIMMIN
  10
0.0
  20
0.0
   9
$LIMMAX
  10
 630.000
  20
 446.000
   9
$EXTMIN
  10
0.0
  20
0.0
   9
$EXTMAX
  10
 630.000
  20
 446.000
   9
$LTSCALE
  40
 12.6000
   0
ENDSEC
   0
SECTION
   2
TABLES
  0
TABLE
  2
LTYPE
 70
    25
  0
LTYPE
  2
CONTINUOUS
 70
    64
  3
Solid line
 72
    65
 73
     0
 40
0.0
  0
LTYPE
  2
BORDER
 70
    64
  3
__ __ . __ __ . __ __ . __ __ . __ __ . __ __ .
 72
    65
 73
     6
 40
1.75
 49
0.5
 49
-0.25
 49
0.5
 49
-0.25
 49
0.0
 49
-0.25
  0
LTYPE
  2
BORDER2
 70
    64
  3
__.__.__.__.__.__.__.__.__.__.__.__.__.__.__.__
 72
    65
 73
     6
 40
0.875
 49
0.25
 49
-0.125
 49
0.25
 49
-0.125
 49
0.0
 49
-0.125
  0
LTYPE
  2
BORDERX2
 70
    64
  3
____  ____  .  ____  ____  .  ____  ____  .  __
 72
    65
 73
     6
 40
3.5
 49
1.0
 49
-0.5
 49
1.0
 49
-0.5
 49
0.0
 49
-0.5
  0
LTYPE
  2
CENTER
 70
    64
  3
____ _ ____ _ ____ _ ____ _ ____ _ ____ _ ____ 
 72
    65
 73
     4
 40
2.0
 49
1.25
 49
-0.25
 49
0.25
 49
-0.25
  0
LTYPE
  2
CENTER2
 70
    64
  3
___ _ ___ _ ___ _ ___ _ ___ _ ___ _ ___ _ ___ _
 72
    65
 73
     4
 40
1.125
 49
0.75
 49
-0.125
 49
0.125
 49
-0.125
  0
LTYPE
  2
CENTERX2
 70
    64
  3
________  __  ________  __  ________  __  _____
 72
    65
 73
     4
 40
4.0
 49
2.5
 49
-0.5
 49
0.5
 49
-0.5
  0
LTYPE
  2
DASHDOT
 70
    64
  3
__ . __ . __ . __ . __ . __ . __ . __ . __ . __
 72
    65
 73
     4
 40
1.0
 49
0.5
 49
-0.25
 49
0.0
 49
-0.25
  0
LTYPE
  2
DASHDOT2
 70
    64
  3
_._._._._._._._._._._._._._._._._._._._._._._._
 72
    65
 73
     4
 40
0.5
 49
0.25
 49
-0.125
 49
0.0
 49
-0.125
  0
LTYPE
  2
DASHDOTX2
 70
    64
  3
____  .  ____  .  ____  .  ____  .  ____  .  __
 72
    65
 73
     4
 40
2.0
 49
1.0
 49
-0.5
 49
0.0
 49
-0.5
  0
LTYPE
  2
DASHED
 70
    64
  3
__ __ __ __ __ __ __ __ __ __ __ __ __ __ __ __
 72
    65
 73
     2
 40
0.75
 49
0.5
 49
-0.25
  0
LTYPE
  2
DASHED2
 70
    64
  3
_ _ _ _ _ _ _ _ _ _ _ _ _ _ _ _ _ _ _ _ _ _ _ _
 72
    65
 73
     2
 40
0.375
 49
0.25
 49
-0.125
  0
LTYPE
  2
DASHEDX2
 70
    64
  3
____  ____  ____  ____  ____  ____  ____  ____ 
 72
    65
 73
     2
 40
1.5
 49
1.0
 49
-0.5
  0
LTYPE
  2
DIVIDE
 70
    64
  3
____ . . ____ . . ____ . . ____ . . ____ . . __
 72
    65
 73
     6
 40
1.25
 49
0.5
 49
-0.25
 49
0.0
 49
-0.25
 49
0.0
 49
-0.25
  0
LTYPE
  2
DIVIDE2
 70
    64
  3
__..__..__..__..__..__..__..__..__..__..__..__.
 72
    65
 73
     6
 40
0.625
 49
0.25
 49
-0.125
 49
0.0
 49
-0.125
 49
0.0
 49
-0.125
  0
LTYPE
  2
DIVIDEX2
 70
    64
  3
________  .  .  ________  .  .  ________  .  . 
 72
    65
 73
     6
 40
2.5
 49
1.0
 49
-0.5
 49
0.0
 49
-0.5
 49
0.0
 49
-0.5
  0
LTYPE
  2
DOT
 70
    64
  3
. . . . . . . . . . . . . . . . . . . . . . . .
 72
    65
 73
     2
 40
0.25
 49
0.0
 49
-0.25
  0
LTYPE
  2
DOT2
 70
    64
  3
...............................................
 72
    65
 73
     2
 40
0.125
 49
0.0
 49
-0.125
  0
LTYPE
  2
DOTX2
 70
    64
  3
.  .  .  .  .  .  .  .  .  .  .  .  .  .  .  . 
 72
    65
 73
     2
 40
0.5
 49
0.0
 49
-0.5
  0
LTYPE
  2
HIDDEN
 70
    64
  3
__ __ __ __ __ __ __ __ __ __ __ __ __ __ __ __
 72
    65
 73
     2
 40
0.375
 49
0.25
 49
-0.125
  0
LTYPE
  2
HIDDEN2
 70
    64
  3
_ _ _ _ _ _ _ _ _ _ _ _ _ _ _ _ _ _ _ _ _ _ _ _
 72
    65
 73
     2
 40
0.1875
 49
0.125
 49
-0.0625
  0
LTYPE
  2
HIDDENX2
 70
    64
  3
____ ____ ____ ____ ____ ____ ____ ____ ____ __
 72
    65
 73
     2
 40
0.75
 49
0.5
 49
-0.25
  0
LTYPE
  2
PHANTOM
 70
    64
  3
______  __  __  ______  __  __  ______  __  __ 
 72
    65
 73
     6
 40
2.5
 49
1.25
 49
-0.25
 49
0.25
 49
-0.25
 49
0.25
 49
-0.25
  0
LTYPE
  2
PHANTOM2
 70
    64
  3
___ _ _ ___ _ _ ___ _ _ ___ _ _ ___ _ _ ___ _ _
 72
    65
 73
     6
 40
1.25
 49
0.625
 49
-0.125
 49
0.125
 49
-0.125
 49
0.125
 49
-0.125
  0
LTYPE
  2
PHANTOMX2
 70
    64
  3
____________    ____    ____    ____________   
 72
    65
 73
     6
 40
5.0
 49
2.5
 49
-0.5
 49
0.5
 49
-0.5
 49
0.5
 49
-0.5
  0
ENDTAB
  0
TABLE
  2
STYLE
 70
     2
  0
STYLE
  2
STANDARD
 70
0
 40
0.0
 41
1.0
 50
0.0
 71
0
 42
0.2
  3
TXT
  4
BIGFONT
  0
STYLE
  2
STANDARD1
 70
     4
 40
0.0
 41
1.0
 50
0.0
 71
     0
 42
0.2
  3
TXT
  4
BIGFONT
  0
ENDTAB
   0
TABLE
   2
LAYER
  70
4
   0
LAYER
   2
0
  70
0
  62
7
   6
CONTINUOUS
   0
LAYER
   2
LEVEL001
  70
0
  62
7
   6
CONTINUOUS
   0
LAYER
   2
LEVEL003
  70
0
  62
7
   6
CONTINUOUS
   0
LAYER
   2
LEVEL004
  70
0
  62
7
   6
CONTINUOUS
   0
ENDTAB
   0
ENDSEC
   0
SECTION
   2
ENTITIES
   0
LINE
   8
LEVEL001
   6
CONTINUOUS
  62
7
  10
 223.000
  20
 47.0000
  30
0.0
  11
 221.000
  21
 45.0000
  31
0.0
   0
LINE
   8
LEVEL001
   6
CONTINUOUS
  62
7
  10
 220.500
  20
 365.000
  30
0.0
  11
 219.500
  21
 366.000
  31
0.0
   0
LINE
   8
LEVEL001
   6
CONTINUOUS
  62
7
  10
 220.500
  20
 365.000
  30
0.0
  11
 220.500
  21
 361.000
  31
0.0
   0
LINE
   8
LEVEL001
   6
CONTINUOUS
  62
7
  10
 221.500
  20
 361.000
  30
0.0
  11
 223.000
  21
 359.500
  31
0.0
   0
LINE
   8
LEVEL001
   6
CONTINUOUS
  62
7
  10
 223.000
  20
 359.500
  30
0.0
  11
 223.000
  21
 300.402
  31
0.0
   0
LINE
   8
LEVEL001
   6
CONTINUOUS
  62
3
  10
 221.500
  20
 306.000
  30
0.0
  11
 223.000
  21
 300.402
  31
0.0
   0
LINE
   8
LEVEL001
   6
CONTINUOUS
  62
7
  10
 187.500
  20
 379.000
  30
0.0
  11
 186.500
  21
 380.000
  31
0.0
   0
LINE
   8
LEVEL001
   6
CONTINUOUS
  62
7
  10
 187.500
  20
 366.000
  30
0.0
  11
 187.500
  21
 379.000
  31
0.0
   0
LINE
   8
LEVEL001
   6
CONTINUOUS
  62
7
  10
 77.0000
  20
 47.0000
  30
0.0
  11
 79.0000
  21
 45.0000
  31
0.0
   0
LINE
   8
LEVEL001
   6
CONTINUOUS
  62
7
  10
 79.5000
  20
 365.000
  30
0.0
  11
 80.5000
  21
 366.000
  31
0.0
   0
LINE
   8
LEVEL001
   6
CONTINUOUS
  62
7
  10
 79.5000
  20
 365.000
  30
0.0
  11
 79.5000
  21
 361.000
  31
0.0
   0
LINE
   8
LEVEL001
   6
CONTINUOUS
  62
7
  10
 77.0000
  20
 300.402
  30
0.0
  11
 77.0000
  21
 47.0000
  31
0.0
   0
LINE
   8
LEVEL001
   6
CONTINUOUS
  62
7
  10
 78.5000
  20
 361.000
  30
0.0
  11
 77.0000
  21
 359.500
  31
0.0
   0
LINE
   8
LEVEL001
   6
CONTINUOUS
  62
7
  10
 77.0000
  20
 359.500
  30
0.0
  11
 77.0000
  21
 300.402
  31
0.0
   0
LINE
   8
LEVEL001
   6
CONTINUOUS
  62
3
  10
 78.5000
  20
 306.000
  30
0.0
  11
 77.0000
  21
 300.402
  31
0.0
   0
LINE
   8
LEVEL001
   6
CONTINUOUS
  62
7
  10
 112.500
  20
 379.000
  30
0.0
  11
 113.500
  21
 380.000
  31
0.0
   0
LINE
   8
LEVEL001
   6
CONTINUOUS
  62
7
  10
 112.500
  20
 366.000
  30
0.0
  11
 112.500
  21
 379.000
  31
0.0
   0
LINE
   8
LEVEL001
   6
CONTINUOUS
  62
7
  10
 113.500
  20
 380.000
  30
0.0
  11
 186.500
  21
 380.000
  31
0.0
   0
LINE
   8
LEVEL001
   6
CONTINUOUS
  62
7
  10
 221.000
  20
 45.0000
  30
0.0
  11
 79.0000
  21
 45.0000
  31
0.0
   0
LINE
   8
LEVEL001
   6
DASHDOT
  62
1
  10
 221.500
  20
 361.000
  30
0.0
  11
 226.000
  21
 361.000
  31
0.0
   0
LINE
   8
LEVEL001
   6
DASHDOT
  62
1
  10
 226.000
  20
 361.000
  30
0.0
  11
 226.000
  21
 306.000
  31
0.0
   0
LINE
   8
LEVEL001
   6
DASHDOT
  62
1
  10
 226.000
  20
 306.000
  30
0.0
  11
 223.000
  21
 306.000
  31
0.0
   0
LINE
   8
LEVEL001
   6
DASHDOT
  62
1
  10
 78.5000
  20
 361.000
  30
0.0
  11
 74.0000
  21
 361.000
  31
0.0
   0
LINE
   8
LEVEL001
   6
DASHDOT
  62
1
  10
 74.0000
  20
 361.000
  30
0.0
  11
 74.0000
  21
 306.000
  31
0.0
   0
LINE
   8
LEVEL001
   6
DASHDOT
  62
1
  10
 74.0000
  20
 306.000
  30
0.0
  11
 77.0000
  21
 306.000
  31
0.0
   0
LINE
   8
LEVEL003
   6
CONTINUOUS
  62
3
  10
 112.500
  20
 380.500
  30
0.0
  11
 112.500
  21
 408.000
  31
0.0
   0
LINE
   8
LEVEL003
   6
CONTINUOUS
  62
3
  10
 187.500
  20
 380.500
  30
0.0
  11
 187.500
  21
 408.000
  31
0.0
   0
LINE
   8
LEVEL003
   6
CONTINUOUS
  62
3
  10
 112.500
  20
 405.000
  30
0.0
  11
 187.500
  21
 405.000
  31
0.0
   0
LINE
   8
LEVEL003
   6
CONTINUOUS
  62
3
  10
 112.500
  20
 405.000
  30
0.0
  11
 117.000
  21
 404.207
  31
0.0
   0
LINE
   8
LEVEL003
   6
CONTINUOUS
  62
3
  10
 112.500
  20
 405.000
  30
0.0
  11
 117.000
  21
 405.793
  31
0.0
   0
LINE
   8
LEVEL003
   6
CONTINUOUS
  62
3
  10
 187.500
  20
 405.000
  30
0.0
  11
 183.000
  21
 405.793
  31
0.0
   0
LINE
   8
LEVEL003
   6
CONTINUOUS
  62
3
  10
 187.500
  20
 405.000
  30
0.0
  11
 183.000
  21
 404.207
  31
0.0
   0
TEXT
   8
LEVEL003
  62
3
  10
 144.000
  20
 406.200
  30
0.0
  40
 6.00000
   1
%%c75
   7
STANDARD
  72
1
  11
 150.000
  21
 406.200
  31
0.0
   0
LINE
   8
LEVEL003
   6
CONTINUOUS
  62
3
  10
 125.000
  20
 43.5000
  30
0.0
  11
 125.000
  21
 27.0000
  31
0.0
   0
LINE
   8
LEVEL003
   6
CONTINUOUS
  62
3
  10
 175.000
  20
 43.5000
  30
0.0
  11
 175.000
  21
 27.0000
  31
0.0
   0
LINE
   8
LEVEL003
   6
CONTINUOUS
  62
3
  10
 125.000
  20
 30.0000
  30
0.0
  11
 175.000
  21
 30.0000
  31
0.0
   0
LINE
   8
LEVEL003
   6
CONTINUOUS
  62
3
  10
 125.000
  20
 30.0000
  30
0.0
  11
 129.500
  21
 29.2065
  31
0.0
   0
LINE
   8
LEVEL003
   6
CONTINUOUS
  62
3
  10
 125.000
  20
 30.0000
  30
0.0
  11
 129.500
  21
 30.7935
  31
0.0
   0
LINE
   8
LEVEL003
   6
CONTINUOUS
  62
3
  10
 175.000
  20
 30.0000
  30
0.0
  11
 170.500
  21
 30.7935
  31
0.0
   0
LINE
   8
LEVEL003
   6
CONTINUOUS
  62
3
  10
 175.000
  20
 30.0000
  30
0.0
  11
 170.500
  21
 29.2065
  31
0.0
   0
TEXT
   8
LEVEL003
  62
3
  10
 141.000
  20
 31.2000
  30
0.0
  40
 6.00000
   1
M50×3
   7
STANDARD
  72
1
  11
 150.000
  21
 31.2000
  31
0.0
   0
LINE
   8
LEVEL003
   6
CONTINUOUS
  62
3
  10
 165.000
  20
 45.0000
  30
0.0
  11
 165.000
  21
 80.0000
  31
0.0
   0
LINE
   8
LEVEL003
   6
CONTINUOUS
  62
3
  10
 165.000
  20
 45.0000
  30
0.0
  11
 165.793
  21
 49.5000
  31
0.0
   0
LINE
   8
LEVEL003
   6
CONTINUOUS
  62
3
  10
 165.000
  20
 45.0000
  30
0.0
  11
 164.207
  21
 49.5000
  31
0.0
   0
LINE
   8
LEVEL003
   6
CONTINUOUS
  62
3
  10
 165.000
  20
 80.0000
  30
0.0
  11
 164.207
  21
 75.5000
  31
0.0
   0
LINE
   8
LEVEL003
   6
CONTINUOUS
  62
3
  10
 165.000
  20
 80.0000
  30
0.0
  11
 165.793
  21
 75.5000
  31
0.0
   0
TEXT
   8
LEVEL003
  62
3
  10
 163.800
  20
 59.5000
  30
0.0
  40
 6.00000
   1
35
  50
 90.0000
  41
 0.500000
   7
STANDARD
  72
1
  11
 163.800
  21
 62.5000
  31
0.0
   0
LINE
   8
LEVEL003
   6
CONTINUOUS
  62
3
  10
 77.0000
  20
 195.000
  30
0.0
  11
 223.000
  21
 195.000
  31
0.0
   0
LINE
   8
LEVEL003
   6
CONTINUOUS
  62
3
  10
 77.0000
  20
 195.000
  30
0.0
  11
 81.5000
  21
 194.207
  31
0.0
   0
LINE
   8
LEVEL003
   6
CONTINUOUS
  62
3
  10
 77.0000
  20
 195.000
  30
0.0
  11
 81.5000
  21
 195.793
  31
0.0
   0
LINE
   8
LEVEL003
   6
CONTINUOUS
  62
3
  10
 223.000
  20
 195.000
  30
0.0
  11
 218.500
  21
 195.793
  31
0.0
   0
LINE
   8
LEVEL003
   6
CONTINUOUS
  62
3
  10
 223.000
  20
 195.000
  30
0.0
  11
 218.500
  21
 194.207
  31
0.0
   0
TEXT
   8
LEVEL003
  62
3
  10
 142.500
  20
 196.200
  30
0.0
  40
 6.00000
   1
%%c146
   7
STANDARD
  72
1
  11
 150.000
  21
 196.200
  31
0.0
   0
LINE
   8
LEVEL003
   6
CONTINUOUS
  62
3
  10
 94.0000
  20
 210.000
  30
0.0
  11
 206.000
  21
 210.000
  31
0.0
   0
LINE
   8
LEVEL003
   6
CONTINUOUS
  62
3
  10
 94.0000
  20
 210.000
  30
0.0
  11
 98.5000
  21
 209.207
  31
0.0
   0
LINE
   8
LEVEL003
   6
CONTINUOUS
  62
3
  10
 94.0000
  20
 210.000
  30
0.0
  11
 98.5000
  21
 210.793
  31
0.0
   0
LINE
   8
LEVEL003
   6
CONTINUOUS
  62
3
  10
 206.000
  20
 210.000
  30
0.0
  11
 201.500
  21
 210.793
  31
0.0
   0
LINE
   8
LEVEL003
   6
CONTINUOUS
  62
3
  10
 206.000
  20
 210.000
  30
0.0
  11
 201.500
  21
 209.207
  31
0.0
   0
TEXT
   8
LEVEL003
  62
3
  10
 142.500
  20
 211.200
  30
0.0
  40
 6.00000
   1
%%c112
   7
STANDARD
  72
1
  11
 150.000
  21
 211.200
  31
0.0
   0
LINE
   8
LEVEL003
   6
CONTINUOUS
  62
3
  10
 110.000
  20
 225.000
  30
0.0
  11
 190.000
  21
 225.000
  31
0.0
   0
LINE
   8
LEVEL003
   6
CONTINUOUS
  62
3
  10
 110.000
  20
 225.000
  30
0.0
  11
 114.500
  21
 224.207
  31
0.0
   0
LINE
   8
LEVEL003
   6
CONTINUOUS
  62
3
  10
 110.000
  20
 225.000
  30
0.0
  11
 114.500
  21
 225.793
  31
0.0
   0
LINE
   8
LEVEL003
   6
CONTINUOUS
  62
3
  10
 190.000
  20
 225.000
  30
0.0
  11
 185.500
  21
 225.793
  31
0.0
   0
LINE
   8
LEVEL003
   6
CONTINUOUS
  62
3
  10
 190.000
  20
 225.000
  30
0.0
  11
 185.500
  21
 224.207
  31
0.0
   0
TEXT
   8
LEVEL003
  62
3
  10
 144.000
  20
 226.200
  30
0.0
  40
 6.00000
   1
%%c80
   7
STANDARD
  72
1
  11
 150.000
  21
 226.200
  31
0.0
   0
LINE
   8
LEVEL001
   6
DASHDOT
  62
1
  10
 150.000
  20
 390.000
  30
0.0
  11
 150.000
  21
 232.500
  31
0.0
   0
LINE
   8
LEVEL001
   6
DASHDOT
  62
1
  10
 150.000
  20
 225.000
  30
0.0
  11
 150.000
  21
 37.5000
  31
0.0
   0
LINE
   8
LEVEL003
   6
CONTINUOUS
  62
3
  10
 173.250
  20
 366.000
  30
0.0
  11
 162.000
  21
 366.000
  31
0.0
   0
LINE
   8
LEVEL003
   6
CONTINUOUS
  62
3
  10
 165.000
  20
 366.000
  30
0.0
  11
 165.000
  21
 331.000
  31
0.0
   0
LINE
   8
LEVEL003
   6
CONTINUOUS
  62
3
  10
 165.000
  20
 366.000
  30
0.0
  11
 164.207
  21
 361.500
  31
0.0
   0
LINE
   8
LEVEL003
   6
CONTINUOUS
  62
3
  10
 165.000
  20
 366.000
  30
0.0
  11
 165.793
  21
 361.500
  31
0.0
   0
LINE
   8
LEVEL003
   6
CONTINUOUS
  62
3
  10
 165.000
  20
 331.000
  30
0.0
  11
 165.793
  21
 335.500
  31
0.0
   0
LINE
   8
LEVEL003
   6
CONTINUOUS
  62
3
  10
 165.000
  20
 331.000
  30
0.0
  11
 164.207
  21
 335.500
  31
0.0
   0
TEXT
   8
LEVEL003
  62
3
  10
 163.800
  20
 347.500
  30
0.0
  40
 6.00000
   1
35
  50
 90.0000
  41
 0.500000
   7
STANDARD
  72
1
  11
 163.800
  21
 350.500
  31
0.0
   0
TEXT
   8
LEVEL003
  62
3
  10
 232.500
  20
 67.5000
  30
0.0
  40
 6.00000
   1
ＮＰＴ３／８
   7
STANDARD
   0
TEXT
   8
LEVEL003
  62
3
  10
 240.000
  20
 322.500
  30
0.0
  40
 6.00000
   1
Ｍ１４６×３
   7
STANDARD
   0
LINE
   8
LEVEL003
   6
CONTINUOUS
  62
3
  10
 226.402
  20
 94.5627
  30
0.0
  11
 232.500
  21
 67.5000
  31
0.0
   0
LINE
   8
LEVEL003
   6
CONTINUOUS
  62
3
  10
 226.402
  20
 94.5627
  30
0.0
  11
 226.617
  21
 89.9983
  31
0.0
   0
LINE
   8
LEVEL003
   6
CONTINUOUS
  62
3
  10
 226.402
  20
 94.5627
  30
0.0
  11
 228.165
  21
 90.3472
  31
0.0
   0
LINE
   8
LEVEL003
   6
CONTINUOUS
  62
3
  10
 223.000
  20
 337.500
  30
0.0
  11
 240.000
  21
 322.500
  31
0.0
   0
LINE
   8
LEVEL003
   6
CONTINUOUS
  62
3
  10
 223.000
  20
 337.500
  30
0.0
  11
 225.849
  21
 333.928
  31
0.0
   0
LINE
   8
LEVEL003
   6
CONTINUOUS
  62
3
  10
 223.000
  20
 337.500
  30
0.0
  11
 226.899
  21
 335.118
  31
0.0
   0
LINE
   8
LEVEL003
   6
CONTINUOUS
  62
3
  10
 175.000
  20
 345.000
  30
0.0
  11
 202.500
  21
 390.000
  31
0.0
   0
LINE
   8
LEVEL003
   6
CONTINUOUS
  62
3
  10
 175.000
  20
 345.000
  30
0.0
  11
 178.024
  21
 348.426
  31
0.0
   0
LINE
   8
LEVEL003
   6
CONTINUOUS
  62
3
  10
 175.000
  20
 345.000
  30
0.0
  11
 176.669
  21
 349.254
  31
0.0
   0
TEXT
   8
LEVEL003
  62
3
  10
 202.500
  20
 390.000
  30
0.0
  40
 6.00000
   1
Ｍ５０×３
   7
STANDARD
   0
LINE
   8
LEVEL001
   6
CONTINUOUS
  62
3
  10
 233.000
  20
 111.643
  30
0.0
  11
 229.384
  21
 110.675
  31
0.0
   0
LINE
   8
LEVEL001
   6
CONTINUOUS
  62
3
  10
 233.000
  20
 94.3565
  30
0.0
  11
 229.384
  21
 95.3255
  31
0.0
   0
LINE
   8
LEVEL001
   6
CONTINUOUS
  62
7
  10
 233.000
  20
 111.643
  30
0.0
  11
 234.484
  21
 112.500
  31
0.0
   0
LINE
   8
LEVEL001
   6
CONTINUOUS
  62
7
  10
 250.000
  20
 112.500
  30
0.0
  11
 234.484
  21
 112.500
  31
0.0
   0
LINE
   8
LEVEL001
   6
CONTINUOUS
  62
7
  10
 233.000
  20
 94.3565
  30
0.0
  11
 234.484
  21
 93.5000
  31
0.0
   0
LINE
   8
LEVEL001
   6
CONTINUOUS
  62
7
  10
 250.000
  20
 93.5000
  30
0.0
  11
 234.484
  21
 93.5000
  31
0.0
   0
ARC
   8
LEVEL001
   6
CONTINUOUS
  62
7
  10
 251.500
  20
 116.000
  30
0.0
  40
 1.50000
  50
 90.0000
  51
 180.000
   0
LINE
   8
LEVEL001
   6
CONTINUOUS
  62
7
  10
 251.500
  20
 117.500
  30
0.0
  11
 256.500
  21
 117.500
  31
0.0
   0
ARC
   8
LEVEL001
   6
CONTINUOUS
  62
7
  10
 251.500
  20
 90.0000
  30
0.0
  40
 1.50000
  50
 180.000
  51
 270.000
   0
LINE
   8
LEVEL001
   6
CONTINUOUS
  62
7
  10
 250.000
  20
 90.0000
  30
0.0
  11
 250.000
  21
 116.000
  31
0.0
   0
LINE
   8
LEVEL001
   6
CONTINUOUS
  62
7
  10
 251.500
  20
 88.5000
  30
0.0
  11
 256.500
  21
 88.5000
  31
0.0
   0
ARC
   8
LEVEL001
   6
CONTINUOUS
  62
7
  10
 272.500
  20
 116.000
  30
0.0
  40
 1.50000
  50
0.0
  51
 90.0000
   0
LINE
   8
LEVEL001
   6
CONTINUOUS
  62
7
  10
 267.500
  20
 117.500
  30
0.0
  11
 272.500
  21
 117.500
  31
0.0
   0
ARC
   8
LEVEL001
   6
CONTINUOUS
  62
7
  10
 272.500
  20
 90.0000
  30
0.0
  40
 1.50000
  50
 270.000
  51
 0.531958E-10
   0
LINE
   8
LEVEL001
   6
CONTINUOUS
  62
7
  10
 267.500
  20
 88.5000
  30
0.0
  11
 272.500
  21
 88.5000
  31
0.0
   0
LINE
   8
LEVEL001
   6
CONTINUOUS
  62
7
  10
 274.000
  20
 116.000
  30
0.0
  11
 274.000
  21
 90.0000
  31
0.0
   0
ARC
   8
LEVEL001
   6
DASHDOT
  62
1
  10
 283.000
  20
 116.000
  30
0.0
  40
 1.00000
  50
0.0
  51
 90.0004
   0
LINE
   8
LEVEL001
   6
DASHDOT
  62
1
  10
 275.000
  20
 117.000
  30
0.0
  11
 283.000
  21
 117.000
  31
0.0
   0
ARC
   8
LEVEL001
   6
DASHDOT
  62
1
  10
 283.000
  20
 90.0000
  30
0.0
  40
 1.00000
  50
 270.000
  51
 0.435426E-3
   0
LINE
   8
LEVEL001
   6
DASHDOT
  62
1
  10
 275.000
  20
 89.0000
  30
0.0
  11
 283.000
  21
 89.0000
  31
0.0
   0
LINE
   8
LEVEL001
   6
DASHDOT
  62
1
  10
 284.000
  20
 116.000
  30
0.0
  11
 284.000
  21
 90.0000
  31
0.0
   0
CIRCLE
   8
LEVEL001
   6
DASHDOT
  62
1
  10
 287.000
  20
 103.000
  30
0.0
  40
 1.50000
   0
ARC
   8
LEVEL001
   6
DASHDOT
  62
1
  10
 275.000
  20
 90.0000
  30
0.0
  40
 1.00000
  50
 180.000
  51
 270.000
   0
ARC
   8
LEVEL001
   6
DASHDOT
  62
1
  10
 275.000
  20
 116.000
  30
0.0
  40
 1.00000
  50
 89.9996
  51
 180.000
   0
ARC
   8
LEVEL001
   6
DASHDOT
  62
1
  10
 286.000
  20
 108.500
  30
0.0
  40
 2.00000
  50
 180.000
  51
 270.000
   0
ARC
   8
LEVEL001
   6
DASHDOT
  62
1
  10
 286.000
  20
 97.5000
  30
0.0
  40
 2.00000
  50
 90.0002
  51
 180.000
   0
LINE
   8
LEVEL001
   6
DASHDOT
  62
1
  10
 286.000
  20
 106.500
  30
0.0
  11
 286.500
  21
 106.500
  31
0.0
   0
LINE
   8
LEVEL001
   6
DASHDOT
  62
1
  10
 286.000
  20
 99.5000
  30
0.0
  11
 286.500
  21
 99.5000
  31
0.0
   0
ARC
   8
LEVEL001
   6
DASHDOT
  62
1
  10
 286.500
  20
 103.000
  30
0.0
  40
 3.50000
  50
 270.000
  51
 90.0000
   0
LINE
   8
LEVEL001
   6
CONTINUOUS
  62
7
  10
 234.484
  20
 93.5000
  30
0.0
  11
 234.484
  21
 97.1690
  31
0.0
   0
LINE
   8
LEVEL001
   6
CONTINUOUS
  62
7
  10
 234.484
  20
 108.831
  30
0.0
  11
 234.484
  21
 112.500
  31
0.0
   0
LINE
   8
LEVEL001
   6
CONTINUOUS
  62
7
  10
 229.000
  20
 98.9608
  30
0.0
  11
 243.000
  21
 108.831
  31
0.0
   0
LINE
   8
LEVEL001
   6
CONTINUOUS
  62
7
  10
 229.000
  20
 107.039
  30
0.0
  11
 243.000
  21
 97.1690
  31
0.0
   0
LINE
   8
LEVEL001
   6
CONTINUOUS
  62
3
  10
 229.384
  20
 110.674
  30
0.0
  11
 229.384
  21
 107.039
  31
0.0
   0
LINE
   8
LEVEL001
   6
CONTINUOUS
  62
3
  10
 229.384
  20
 98.9608
  30
0.0
  11
 229.384
  21
 95.3255
  31
0.0
   0
LINE
   8
LEVEL001
   6
CONTINUOUS
  62
7
  10
 233.000
  20
 111.643
  30
0.0
  11
 233.000
  21
 107.297
  31
0.0
   0
LINE
   8
LEVEL001
   6
CONTINUOUS
  62
7
  10
 233.000
  20
 98.7035
  30
0.0
  11
 233.000
  21
 94.3565
  31
0.0
   0
LINE
   8
LEVEL001
   6
CONTINUOUS
  62
3
  10
 256.500
  20
 90.0000
  30
0.0
  11
 267.500
  21
 90.0000
  31
0.0
   0
LINE
   8
LEVEL001
   6
CONTINUOUS
  62
3
  10
 256.500
  20
 92.0000
  30
0.0
  11
 267.500
  21
 92.0000
  31
0.0
   0
LINE
   8
LEVEL001
   6
CONTINUOUS
  62
3
  10
 256.500
  20
 94.0000
  30
0.0
  11
 267.500
  21
 94.0000
  31
0.0
   0
LINE
   8
LEVEL001
   6
CONTINUOUS
  62
3
  10
 256.500
  20
 96.0000
  30
0.0
  11
 267.500
  21
 96.0000
  31
0.0
   0
LINE
   8
LEVEL001
   6
CONTINUOUS
  62
3
  10
 256.500
  20
 98.0000
  30
0.0
  11
 267.500
  21
 98.0000
  31
0.0
   0
LINE
   8
LEVEL001
   6
CONTINUOUS
  62
3
  10
 256.500
  20
 100.000
  30
0.0
  11
 267.500
  21
 100.000
  31
0.0
   0
LINE
   8
LEVEL001
   6
CONTINUOUS
  62
3
  10
 256.500
  20
 102.000
  30
0.0
  11
 267.500
  21
 102.000
  31
0.0
   0
LINE
   8
LEVEL001
   6
CONTINUOUS
  62
3
  10
 256.500
  20
 104.000
  30
0.0
  11
 267.500
  21
 104.000
  31
0.0
   0
LINE
   8
LEVEL001
   6
CONTINUOUS
  62
3
  10
 256.500
  20
 106.000
  30
0.0
  11
 267.500
  21
 106.000
  31
0.0
   0
LINE
   8
LEVEL001
   6
CONTINUOUS
  62
3
  10
 256.500
  20
 108.000
  30
0.0
  11
 267.500
  21
 108.000
  31
0.0
   0
LINE
   8
LEVEL001
   6
CONTINUOUS
  62
3
  10
 256.500
  20
 110.000
  30
0.0
  11
 267.500
  21
 110.000
  31
0.0
   0
LINE
   8
LEVEL001
   6
CONTINUOUS
  62
3
  10
 256.500
  20
 112.000
  30
0.0
  11
 267.500
  21
 112.000
  31
0.0
   0
LINE
   8
LEVEL001
   6
CONTINUOUS
  62
3
  10
 256.500
  20
 114.000
  30
0.0
  11
 267.500
  21
 114.000
  31
0.0
   0
LINE
   8
LEVEL001
   6
CONTINUOUS
  62
3
  10
 256.500
  20
 116.000
  30
0.0
  11
 267.500
  21
 116.000
  31
0.0
   0
LINE
   8
LEVEL001
   6
CONTINUOUS
  62
7
  10
 229.000
  20
 98.9608
  30
0.0
  11
 229.000
  21
 107.039
  31
0.0
   0
LINE
   8
LEVEL001
   6
CONTINUOUS
  62
7
  10
 229.000
  20
 107.039
  30
0.0
  11
 233.000
  21
 107.297
  31
0.0
   0
LINE
   8
LEVEL001
   6
CONTINUOUS
  62
7
  10
 233.000
  20
 107.297
  30
0.0
  11
 234.484
  21
 108.831
  31
0.0
   0
LINE
   8
LEVEL001
   6
CONTINUOUS
  62
7
  10
 234.484
  20
 108.831
  30
0.0
  11
 243.000
  21
 108.831
  31
0.0
   0
LINE
   8
LEVEL001
   6
CONTINUOUS
  62
7
  10
 243.000
  20
 108.831
  30
0.0
  11
 243.000
  21
 97.1690
  31
0.0
   0
LINE
   8
LEVEL001
   6
CONTINUOUS
  62
7
  10
 243.000
  20
 97.1690
  30
0.0
  11
 234.484
  21
 97.1690
  31
0.0
   0
LINE
   8
LEVEL001
   6
CONTINUOUS
  62
7
  10
 234.484
  20
 97.1690
  30
0.0
  11
 233.000
  21
 98.7035
  31
0.0
   0
LINE
   8
LEVEL001
   6
CONTINUOUS
  62
7
  10
 233.000
  20
 98.7035
  30
0.0
  11
 229.000
  21
 98.9608
  31
0.0
   0
LINE
   8
LEVEL001
   6
CONTINUOUS
  62
7
  10
 256.500
  20
 88.0000
  30
0.0
  11
 256.500
  21
 118.000
  31
0.0
   0
LINE
   8
LEVEL001
   6
CONTINUOUS
  62
7
  10
 256.500
  20
 118.000
  30
0.0
  11
 267.500
  21
 118.000
  31
0.0
   0
LINE
   8
LEVEL001
   6
CONTINUOUS
  62
7
  10
 267.500
  20
 118.000
  30
0.0
  11
 267.500
  21
 88.0000
  31
0.0
   0
LINE
   8
LEVEL001
   6
CONTINUOUS
  62
7
  10
 267.500
  20
 88.0000
  30
0.0
  11
 256.500
  21
 88.0000
  31
0.0
   0
LINE
   8
LEVEL003
   6
CONTINUOUS
  62
3
  10
 222.500
  20
 45.0000
  30
0.0
  11
 310.500
  21
 45.0000
  31
0.0
   0
LINE
   8
LEVEL003
   6
CONTINUOUS
  62
3
  10
 294.500
  20
 103.000
  30
0.0
  11
 310.500
  21
 103.000
  31
0.0
   0
LINE
   8
LEVEL003
   6
CONTINUOUS
  62
3
  10
 307.500
  20
 45.0000
  30
0.0
  11
 307.500
  21
 103.000
  31
0.0
   0
LINE
   8
LEVEL003
   6
CONTINUOUS
  62
3
  10
 307.500
  20
 45.0000
  30
0.0
  11
 308.293
  21
 49.5000
  31
0.0
   0
LINE
   8
LEVEL003
   6
CONTINUOUS
  62
3
  10
 307.500
  20
 45.0000
  30
0.0
  11
 306.707
  21
 49.5000
  31
0.0
   0
LINE
   8
LEVEL003
   6
CONTINUOUS
  62
3
  10
 307.500
  20
 103.000
  30
0.0
  11
 306.707
  21
 98.5000
  31
0.0
   0
LINE
   8
LEVEL003
   6
CONTINUOUS
  62
3
  10
 307.500
  20
 103.000
  30
0.0
  11
 308.293
  21
 98.5000
  31
0.0
   0
TEXT
   8
LEVEL003
  62
3
  10
 306.300
  20
 71.0000
  30
0.0
  40
 6.00000
   1
58
  50
 90.0000
  41
 0.500000
   7
STANDARD
  72
1
  11
 306.300
  21
 74.0000
  31
0.0
   0
LINE
   8
LEVEL003
   6
CONTINUOUS
  62
3
  10
 151.500
  20
 255.000
  30
0.0
  11
 333.000
  21
 255.000
  31
0.0
   0
LINE
   8
LEVEL003
   6
CONTINUOUS
  62
3
  10
 222.500
  20
 45.0000
  30
0.0
  11
 333.000
  21
 45.0000
  31
0.0
   0
LINE
   8
LEVEL003
   6
CONTINUOUS
  62
3
  10
 330.000
  20
 255.000
  30
0.0
  11
 330.000
  21
 45.0000
  31
0.0
   0
LINE
   8
LEVEL003
   6
CONTINUOUS
  62
3
  10
 330.000
  20
 255.000
  30
0.0
  11
 329.207
  21
 250.500
  31
0.0
   0
LINE
   8
LEVEL003
   6
CONTINUOUS
  62
3
  10
 330.000
  20
 255.000
  30
0.0
  11
 330.793
  21
 250.500
  31
0.0
   0
LINE
   8
LEVEL003
   6
CONTINUOUS
  62
3
  10
 330.000
  20
 45.0000
  30
0.0
  11
 330.793
  21
 49.5000
  31
0.0
   0
LINE
   8
LEVEL003
   6
CONTINUOUS
  62
3
  10
 330.000
  20
 45.0000
  30
0.0
  11
 329.207
  21
 49.5000
  31
0.0
   0
TEXT
   8
LEVEL003
  62
3
  10
 328.800
  20
 145.500
  30
0.0
  40
 6.00000
   1
210
  50
 90.0000
  41
 0.500000
   7
STANDARD
  72
1
  11
 328.800
  21
 150.000
  31
0.0
   0
LINE
   8
LEVEL003
   6
CONTINUOUS
  62
3
  10
 222.500
  20
 45.0000
  30
0.0
  11
 355.500
  21
 45.0000
  31
0.0
   0
LINE
   8
LEVEL003
   6
CONTINUOUS
  62
3
  10
 188.000
  20
 380.000
  30
0.0
  11
 355.500
  21
 380.000
  31
0.0
   0
LINE
   8
LEVEL003
   6
CONTINUOUS
  62
3
  10
 352.500
  20
 45.0000
  30
0.0
  11
 352.500
  21
 380.000
  31
0.0
   0
LINE
   8
LEVEL003
   6
CONTINUOUS
  62
3
  10
 352.500
  20
 45.0000
  30
0.0
  11
 353.293
  21
 49.5000
  31
0.0
   0
LINE
   8
LEVEL003
   6
CONTINUOUS
  62
3
  10
 352.500
  20
 45.0000
  30
0.0
  11
 351.707
  21
 49.5000
  31
0.0
   0
LINE
   8
LEVEL003
   6
CONTINUOUS
  62
3
  10
 352.500
  20
 380.000
  30
0.0
  11
 351.707
  21
 375.500
  31
0.0
   0
LINE
   8
LEVEL003
   6
CONTINUOUS
  62
3
  10
 352.500
  20
 380.000
  30
0.0
  11
 353.293
  21
 375.500
  31
0.0
   0
TEXT
   8
LEVEL003
  62
3
  10
 351.300
  20
 208.000
  30
0.0
  40
 6.00000
   1
335
  50
 90.0000
  41
 0.500000
   7
STANDARD
  72
1
  11
 351.300
  21
 212.500
  31
0.0
   0
LINE
   8
LEVEL001
   6
CONTINUOUS
  62
3
  10
 233.000
  20
 295.644
  30
0.0
  11
 229.384
  21
 294.675
  31
0.0
   0
LINE
   8
LEVEL001
   6
CONTINUOUS
  62
3
  10
 233.000
  20
 278.356
  30
0.0
  11
 229.384
  21
 279.325
  31
0.0
   0
LINE
   8
LEVEL001
   6
CONTINUOUS
  62
7
  10
 233.000
  20
 295.644
  30
0.0
  11
 234.484
  21
 296.500
  31
0.0
   0
LINE
   8
LEVEL001
   6
CONTINUOUS
  62
7
  10
 250.000
  20
 296.500
  30
0.0
  11
 234.484
  21
 296.500
  31
0.0
   0
LINE
   8
LEVEL001
   6
CONTINUOUS
  62
7
  10
 233.000
  20
 278.356
  30
0.0
  11
 234.484
  21
 277.500
  31
0.0
   0
LINE
   8
LEVEL001
   6
CONTINUOUS
  62
7
  10
 250.000
  20
 277.500
  30
0.0
  11
 234.484
  21
 277.500
  31
0.0
   0
ARC
   8
LEVEL001
   6
CONTINUOUS
  62
7
  10
 251.500
  20
 300.000
  30
0.0
  40
 1.50000
  50
 90.0000
  51
 180.000
   0
LINE
   8
LEVEL001
   6
CONTINUOUS
  62
7
  10
 251.500
  20
 301.500
  30
0.0
  11
 256.500
  21
 301.500
  31
0.0
   0
ARC
   8
LEVEL001
   6
CONTINUOUS
  62
7
  10
 251.500
  20
 274.000
  30
0.0
  40
 1.50000
  50
 180.000
  51
 270.000
   0
LINE
   8
LEVEL001
   6
CONTINUOUS
  62
7
  10
 250.000
  20
 274.000
  30
0.0
  11
 250.000
  21
 300.000
  31
0.0
   0
LINE
   8
LEVEL001
   6
CONTINUOUS
  62
7
  10
 251.500
  20
 272.500
  30
0.0
  11
 256.500
  21
 272.500
  31
0.0
   0
ARC
   8
LEVEL001
   6
CONTINUOUS
  62
7
  10
 272.500
  20
 300.000
  30
0.0
  40
 1.50000
  50
0.0
  51
 90.0000
   0
LINE
   8
LEVEL001
   6
CONTINUOUS
  62
7
  10
 267.500
  20
 301.500
  30
0.0
  11
 272.500
  21
 301.500
  31
0.0
   0
ARC
   8
LEVEL001
   6
CONTINUOUS
  62
7
  10
 272.500
  20
 274.000
  30
0.0
  40
 1.50000
  50
 270.000
  51
 0.607952E-10
   0
LINE
   8
LEVEL001
   6
CONTINUOUS
  62
7
  10
 267.500
  20
 272.500
  30
0.0
  11
 272.500
  21
 272.500
  31
0.0
   0
LINE
   8
LEVEL001
   6
CONTINUOUS
  62
7
  10
 274.000
  20
 300.000
  30
0.0
  11
 274.000
  21
 274.000
  31
0.0
   0
ARC
   8
LEVEL001
   6
DASHDOT
  62
1
  10
 283.000
  20
 300.000
  30
0.0
  40
 1.00000
  50
 0.875970E-3
  51
 90.0004
   0
LINE
   8
LEVEL001
   6
DASHDOT
  62
1
  10
 275.000
  20
 301.000
  30
0.0
  11
 283.000
  21
 301.000
  31
0.0
   0
ARC
   8
LEVEL001
   6
DASHDOT
  62
1
  10
 283.000
  20
 274.000
  30
0.0
  40
 1.00000
  50
 270.000
  51
0.0
   0
LINE
   8
LEVEL001
   6
DASHDOT
  62
1
  10
 275.000
  20
 273.000
  30
0.0
  11
 283.000
  21
 273.000
  31
0.0
   0
LINE
   8
LEVEL001
   6
DASHDOT
  62
1
  10
 284.000
  20
 300.000
  30
0.0
  11
 284.000
  21
 274.000
  31
0.0
   0
CIRCLE
   8
LEVEL001
   6
DASHDOT
  62
1
  10
 287.000
  20
 287.000
  30
0.0
  40
 1.50000
   0
ARC
   8
LEVEL001
   6
DASHDOT
  62
1
  10
 275.000
  20
 274.000
  30
0.0
  40
 1.00000
  50
 180.001
  51
 270.000
   0
ARC
   8
LEVEL001
   6
DASHDOT
  62
1
  10
 275.000
  20
 300.000
  30
0.0
  40
 1.00000
  50
 89.9996
  51
 179.999
   0
ARC
   8
LEVEL001
   6
DASHDOT
  62
1
  10
 286.000
  20
 292.500
  30
0.0
  40
 2.00000
  50
 180.000
  51
 270.000
   0
ARC
   8
LEVEL001
   6
DASHDOT
  62
1
  10
 286.000
  20
 281.500
  30
0.0
  40
 2.00000
  50
 90.0002
  51
 180.000
   0
LINE
   8
LEVEL001
   6
DASHDOT
  62
1
  10
 286.000
  20
 290.500
  30
0.0
  11
 286.500
  21
 290.500
  31
0.0
   0
LINE
   8
LEVEL001
   6
DASHDOT
  62
1
  10
 286.000
  20
 283.500
  30
0.0
  11
 286.500
  21
 283.500
  31
0.0
   0
ARC
   8
LEVEL001
   6
DASHDOT
  62
1
  10
 286.493
  20
 287.000
  30
0.0
  40
 3.50000
  50
 270.121
  51
 89.8785
   0
LINE
   8
LEVEL001
   6
CONTINUOUS
  62
7
  10
 234.484
  20
 277.500
  30
0.0
  11
 234.484
  21
 281.169
  31
0.0
   0
LINE
   8
LEVEL001
   6
CONTINUOUS
  62
7
  10
 234.484
  20
 292.831
  30
0.0
  11
 234.484
  21
 296.500
  31
0.0
   0
LINE
   8
LEVEL001
   6
CONTINUOUS
  62
7
  10
 229.000
  20
 282.961
  30
0.0
  11
 243.000
  21
 292.831
  31
0.0
   0
LINE
   8
LEVEL001
   6
CONTINUOUS
  62
7
  10
 229.000
  20
 291.039
  30
0.0
  11
 243.000
  21
 281.169
  31
0.0
   0
LINE
   8
LEVEL001
   6
CONTINUOUS
  62
3
  10
 229.384
  20
 294.674
  30
0.0
  11
 229.384
  21
 291.039
  31
0.0
   0
LINE
   8
LEVEL001
   6
CONTINUOUS
  62
3
  10
 229.384
  20
 282.961
  30
0.0
  11
 229.384
  21
 279.325
  31
0.0
   0
LINE
   8
LEVEL001
   6
CONTINUOUS
  62
7
  10
 233.000
  20
 295.644
  30
0.0
  11
 233.000
  21
 291.297
  31
0.0
   0
LINE
   8
LEVEL001
   6
CONTINUOUS
  62
7
  10
 233.000
  20
 282.703
  30
0.0
  11
 233.000
  21
 278.356
  31
0.0
   0
LINE
   8
LEVEL001
   6
CONTINUOUS
  62
3
  10
 256.500
  20
 274.000
  30
0.0
  11
 267.500
  21
 274.000
  31
0.0
   0
LINE
   8
LEVEL001
   6
CONTINUOUS
  62
3
  10
 256.500
  20
 276.000
  30
0.0
  11
 267.500
  21
 276.000
  31
0.0
   0
LINE
   8
LEVEL001
   6
CONTINUOUS
  62
3
  10
 256.500
  20
 278.000
  30
0.0
  11
 267.500
  21
 278.000
  31
0.0
   0
LINE
   8
LEVEL001
   6
CONTINUOUS
  62
3
  10
 256.500
  20
 280.000
  30
0.0
  11
 267.500
  21
 280.000
  31
0.0
   0
LINE
   8
LEVEL001
   6
CONTINUOUS
  62
3
  10
 256.500
  20
 282.000
  30
0.0
  11
 267.500
  21
 282.000
  31
0.0
   0
LINE
   8
LEVEL001
   6
CONTINUOUS
  62
3
  10
 256.500
  20
 284.000
  30
0.0
  11
 267.500
  21
 284.000
  31
0.0
   0
LINE
   8
LEVEL001
   6
CONTINUOUS
  62
3
  10
 256.500
  20
 286.000
  30
0.0
  11
 267.500
  21
 286.000
  31
0.0
   0
LINE
   8
LEVEL001
   6
CONTINUOUS
  62
3
  10
 256.500
  20
 288.000
  30
0.0
  11
 267.500
  21
 288.000
  31
0.0
   0
LINE
   8
LEVEL001
   6
CONTINUOUS
  62
3
  10
 256.500
  20
 290.000
  30
0.0
  11
 267.500
  21
 290.000
  31
0.0
   0
LINE
   8
LEVEL001
   6
CONTINUOUS
  62
3
  10
 256.500
  20
 292.000
  30
0.0
  11
 267.500
  21
 292.000
  31
0.0
   0
LINE
   8
LEVEL001
   6
CONTINUOUS
  62
3
  10
 256.500
  20
 294.000
  30
0.0
  11
 267.500
  21
 294.000
  31
0.0
   0
LINE
   8
LEVEL001
   6
CONTINUOUS
  62
3
  10
 256.500
  20
 296.000
  30
0.0
  11
 267.500
  21
 296.000
  31
0.0
   0
LINE
   8
LEVEL001
   6
CONTINUOUS
  62
3
  10
 256.500
  20
 298.000
  30
0.0
  11
 267.500
  21
 298.000
  31
0.0
   0
LINE
   8
LEVEL001
   6
CONTINUOUS
  62
3
  10
 256.500
  20
 300.000
  30
0.0
  11
 267.500
  21
 300.000
  31
0.0
   0
LINE
   8
LEVEL001
   6
CONTINUOUS
  62
7
  10
 229.000
  20
 282.961
  30
0.0
  11
 229.000
  21
 291.039
  31
0.0
   0
LINE
   8
LEVEL001
   6
CONTINUOUS
  62
7
  10
 229.000
  20
 291.039
  30
0.0
  11
 233.000
  21
 291.297
  31
0.0
   0
LINE
   8
LEVEL001
   6
CONTINUOUS
  62
7
  10
 233.000
  20
 291.297
  30
0.0
  11
 234.484
  21
 292.831
  31
0.0
   0
LINE
   8
LEVEL001
   6
CONTINUOUS
  62
7
  10
 234.484
  20
 292.831
  30
0.0
  11
 243.000
  21
 292.831
  31
0.0
   0
LINE
   8
LEVEL001
   6
CONTINUOUS
  62
7
  10
 243.000
  20
 292.831
  30
0.0
  11
 243.000
  21
 281.169
  31
0.0
   0
LINE
   8
LEVEL001
   6
CONTINUOUS
  62
7
  10
 243.000
  20
 281.169
  30
0.0
  11
 234.484
  21
 281.169
  31
0.0
   0
LINE
   8
LEVEL001
   6
CONTINUOUS
  62
7
  10
 234.484
  20
 281.169
  30
0.0
  11
 233.000
  21
 282.703
  31
0.0
   0
LINE
   8
LEVEL001
   6
CONTINUOUS
  62
7
  10
 233.000
  20
 282.703
  30
0.0
  11
 229.000
  21
 282.961
  31
0.0
   0
LINE
   8
LEVEL001
   6
CONTINUOUS
  62
7
  10
 256.500
  20
 272.000
  30
0.0
  11
 256.500
  21
 302.000
  31
0.0
   0
LINE
   8
LEVEL001
   6
CONTINUOUS
  62
7
  10
 256.500
  20
 302.000
  30
0.0
  11
 267.500
  21
 302.000
  31
0.0
   0
LINE
   8
LEVEL001
   6
CONTINUOUS
  62
7
  10
 267.500
  20
 302.000
  30
0.0
  11
 267.500
  21
 272.000
  31
0.0
   0
LINE
   8
LEVEL001
   6
CONTINUOUS
  62
7
  10
 267.500
  20
 272.000
  30
0.0
  11
 256.500
  21
 272.000
  31
0.0
   0
LINE
   8
LEVEL003
   6
CONTINUOUS
  62
3
  10
 294.500
  20
 287.000
  30
0.0
  11
 310.500
  21
 287.000
  31
0.0
   0
LINE
   8
LEVEL003
   6
CONTINUOUS
  62
3
  10
 221.000
  20
 366.000
  30
0.0
  11
 310.500
  21
 366.000
  31
0.0
   0
LINE
   8
LEVEL003
   6
CONTINUOUS
  62
3
  10
 307.500
  20
 287.000
  30
0.0
  11
 307.500
  21
 366.000
  31
0.0
   0
LINE
   8
LEVEL003
   6
CONTINUOUS
  62
3
  10
 307.500
  20
 287.000
  30
0.0
  11
 308.293
  21
 291.500
  31
0.0
   0
LINE
   8
LEVEL003
   6
CONTINUOUS
  62
3
  10
 307.500
  20
 287.000
  30
0.0
  11
 306.707
  21
 291.500
  31
0.0
   0
LINE
   8
LEVEL003
   6
CONTINUOUS
  62
3
  10
 307.500
  20
 366.000
  30
0.0
  11
 306.707
  21
 361.500
  31
0.0
   0
LINE
   8
LEVEL003
   6
CONTINUOUS
  62
3
  10
 307.500
  20
 366.000
  30
0.0
  11
 308.293
  21
 361.500
  31
0.0
   0
TEXT
   8
LEVEL003
  62
3
  10
 306.300
  20
 323.500
  30
0.0
  40
 6.00000
   1
79
  50
 90.0000
  41
 0.500000
   7
STANDARD
  72
1
  11
 306.300
  21
 326.500
  31
0.0
   0
LINE
   8
LEVEL003
   6
CONTINUOUS
  62
3
  10
 221.000
  20
 366.000
  30
0.0
  11
 310.500
  21
 366.000
  31
0.0
   0
LINE
   8
LEVEL003
   6
CONTINUOUS
  62
3
  10
 188.000
  20
 380.000
  30
0.0
  11
 310.500
  21
 380.000
  31
0.0
   0
LINE
   8
LEVEL003
   6
CONTINUOUS
  62
3
  10
 307.500
  20
 366.000
  30
0.0
  11
 307.500
  21
 380.000
  31
0.0
   0
LINE
   8
LEVEL003
   6
CONTINUOUS
  62
3
  10
 307.500
  20
 366.000
  30
0.0
  11
 308.293
  21
 370.500
  31
0.0
   0
LINE
   8
LEVEL003
   6
CONTINUOUS
  62
3
  10
 307.500
  20
 366.000
  30
0.0
  11
 306.707
  21
 370.500
  31
0.0
   0
LINE
   8
LEVEL003
   6
CONTINUOUS
  62
3
  10
 307.500
  20
 380.000
  30
0.0
  11
 306.707
  21
 375.500
  31
0.0
   0
LINE
   8
LEVEL003
   6
CONTINUOUS
  62
3
  10
 307.500
  20
 380.000
  30
0.0
  11
 308.293
  21
 375.500
  31
0.0
   0
TEXT
   8
LEVEL003
  62
3
  10
 306.300
  20
 370.000
  30
0.0
  40
 6.00000
   1
14
  50
 90.0000
  41
 0.500000
   7
STANDARD
  72
1
  11
 306.300
  21
 373.000
  31
0.0
   0
LINE
   8
LEVEL003
   6
CONTINUOUS
  62
3
  10
 227.500
  20
 306.000
  30
0.0
  11
 288.000
  21
 306.000
  31
0.0
   0
LINE
   8
LEVEL003
   6
CONTINUOUS
  62
3
  10
 221.000
  20
 366.000
  30
0.0
  11
 288.000
  21
 366.000
  31
0.0
   0
LINE
   8
LEVEL003
   6
CONTINUOUS
  62
3
  10
 285.000
  20
 306.000
  30
0.0
  11
 285.000
  21
 366.000
  31
0.0
   0
LINE
   8
LEVEL003
   6
CONTINUOUS
  62
3
  10
 285.000
  20
 306.000
  30
0.0
  11
 285.793
  21
 310.500
  31
0.0
   0
LINE
   8
LEVEL003
   6
CONTINUOUS
  62
3
  10
 285.000
  20
 306.000
  30
0.0
  11
 284.207
  21
 310.500
  31
0.0
   0
LINE
   8
LEVEL003
   6
CONTINUOUS
  62
3
  10
 285.000
  20
 366.000
  30
0.0
  11
 284.207
  21
 361.500
  31
0.0
   0
LINE
   8
LEVEL003
   6
CONTINUOUS
  62
3
  10
 285.000
  20
 366.000
  30
0.0
  11
 285.793
  21
 361.500
  31
0.0
   0
TEXT
   8
LEVEL003
  62
3
  10
 283.800
  20
 333.000
  30
0.0
  40
 6.00000
   1
60
  50
 90.0000
  41
 0.500000
   7
STANDARD
  72
1
  11
 283.800
  21
 336.000
  31
0.0
   0
LINE
   8
LEVEL003
   6
CONTINUOUS
  62
3
  10
 221.000
  20
 366.000
  30
0.0
  11
 265.500
  21
 366.000
  31
0.0
   0
LINE
   8
LEVEL003
   6
CONTINUOUS
  62
3
  10
 227.500
  20
 361.000
  30
0.0
  11
 265.500
  21
 361.000
  31
0.0
   0
LINE
   8
LEVEL003
   6
CONTINUOUS
  62
3
  10
 262.500
  20
 366.000
  30
0.0
  11
 262.500
  21
 361.000
  31
0.0
   0
LINE
   8
LEVEL003
   6
CONTINUOUS
  62
3
  10
 262.500
  20
 366.000
  30
0.0
  11
 263.293
  21
 370.500
  31
0.0
   0
LINE
   8
LEVEL003
   6
CONTINUOUS
  62
3
  10
 262.500
  20
 366.000
  30
0.0
  11
 261.707
  21
 370.500
  31
0.0
   0
LINE
   8
LEVEL003
   6
CONTINUOUS
  62
3
  10
 262.500
  20
 361.000
  30
0.0
  11
 261.707
  21
 356.500
  31
0.0
   0
LINE
   8
LEVEL003
   6
CONTINUOUS
  62
3
  10
 262.500
  20
 361.000
  30
0.0
  11
 263.293
  21
 356.500
  31
0.0
   0
LINE
   8
LEVEL003
   6
CONTINUOUS
  62
3
  10
 262.500
  20
 366.000
  30
0.0
  11
 262.500
  21
 371.625
  31
0.0
   0
LINE
   8
LEVEL003
   6
CONTINUOUS
  62
3
  10
 262.500
  20
 361.000
  30
0.0
  11
 262.500
  21
 355.375
  31
0.0
   0
TEXT
   8
LEVEL003
  62
3
  10
 261.300
  20
 362.000
  30
0.0
  40
 6.00000
   1
5
  50
 90.0000
  41
 0.500000
   7
STANDARD
  72
1
  11
 261.300
  21
 363.500
  31
0.0
   0
LINE
   8
LEVEL001
   6
CONTINUOUS
  62
7
  10
 219.500
  20
 366.000
  30
0.0
  11
 80.5000
  21
 366.000
  31
0.0
   0
LINE
   8
LEVEL001
   6
CONTINUOUS
  62
7
  10
 187.500
  20
 379.000
  30
0.0
  11
 112.500
  21
 379.000
  31
0.0
   0
LINE
   8
LEVEL001
   6
CONTINUOUS
  62
7
  10
 79.5000
  20
 365.000
  30
0.0
  11
 220.500
  21
 365.000
  31
0.0
   0
LINE
   8
LEVEL001
   6
CONTINUOUS
  62
7
  10
 221.500
  20
 361.000
  30
0.0
  11
 78.5000
  21
 361.000
  31
0.0
   0
LINE
   8
LEVEL001
   6
CONTINUOUS
  62
3
  10
 78.5000
  20
 361.000
  30
0.0
  11
 78.5000
  21
 306.000
  31
0.0
   0
LINE
   8
LEVEL001
   6
CONTINUOUS
  62
3
  10
 221.500
  20
 361.000
  30
0.0
  11
 221.500
  21
 306.000
  31
0.0
   0
LINE
   8
LEVEL001
   6
CONTINUOUS
  62
7
  10
 77.0000
  20
 300.402
  30
0.0
  11
 223.000
  21
 300.402
  31
0.0
   0
LINE
   8
LEVEL001
   6
CONTINUOUS
  62
3
  10
 223.000
  20
 359.500
  30
0.0
  11
 77.0000
  21
 359.500
  31
0.0
   0
LINE
   8
LEVEL001
   6
CONTINUOUS
  62
3
  10
 223.000
  20
 306.000
  30
0.0
  11
 77.0000
  21
 306.000
  31
0.0
   0
LINE
   8
LEVEL001
   6
CONTINUOUS
  62
7
  10
 233.000
  20
 295.644
  30
0.0
  11
 223.000
  21
 295.331
  31
0.0
   0
LINE
   8
LEVEL001
   6
CONTINUOUS
  62
7
  10
 233.000
  20
 278.356
  30
0.0
  11
 223.000
  21
 278.669
  31
0.0
   0
LINE
   8
LEVEL001
   6
CONTINUOUS
  62
3
  10
 229.384
  20
 294.674
  30
0.0
  11
 223.000
  21
 294.475
  31
0.0
   0
LINE
   8
LEVEL001
   6
CONTINUOUS
  62
3
  10
 229.384
  20
 279.325
  30
0.0
  11
 223.000
  21
 279.525
  31
0.0
   0
LINE
   8
LEVEL001
   6
CONTINUOUS
  62
7
  10
 223.000
  20
 300.402
  30
0.0
  11
 223.000
  21
 47.0000
  31
0.0
   0
LINE
   8
LEVEL001
   6
CONTINUOUS
  62
7
  10
 233.000
  20
 111.643
  30
0.0
  11
 223.000
  21
 111.331
  31
0.0
   0
LINE
   8
LEVEL001
   6
CONTINUOUS
  62
7
  10
 233.000
  20
 94.3565
  30
0.0
  11
 223.000
  21
 94.6690
  31
0.0
   0
LINE
   8
LEVEL001
   6
CONTINUOUS
  62
3
  10
 229.384
  20
 95.3255
  30
0.0
  11
 223.000
  21
 95.5250
  31
0.0
   0
LINE
   8
LEVEL001
   6
CONTINUOUS
  62
3
  10
 229.384
  20
 110.674
  30
0.0
  11
 223.000
  21
 110.475
  31
0.0
   0
LINE
   8
LEVEL001
   6
DASHDOT
  62
1
  10
 293.000
  20
 103.000
  30
0.0
  11
 217.500
  21
 103.000
  31
0.0
   0
LINE
   8
LEVEL001
   6
DASHDOT
  62
1
  10
 293.000
  20
 287.000
  30
0.0
  11
 217.500
  21
 287.000
  31
0.0
   0
LINE
   8
LEVEL001
   6
CONTINUOUS
  62
7
  10
 77.0000
  20
 47.0000
  30
0.0
  11
 223.000
  21
 47.0000
  31
0.0
   0
CIRCLE
   8
LEVEL004
   6
DOT
  62
3
  10
 150.000
  20
 255.000
  30
0.0
  40
 12.5000
   0
CIRCLE
   8
LEVEL004
   6
DOT
  62
3
  10
 150.000
  20
 255.000
  30
0.0
  40
 11.5000
   0
ARC
   8
LEVEL004
   6
DOT
  62
3
  10
 150.000
  20
 217.000
  30
0.0
  40
 43.5000
  50
 105.869
  51
 74.1306
   0
ARC
   8
LEVEL004
   6
DOT
  62
3
  10
 150.000
  20
 217.000
  30
0.0
  40
 32.5000
  50
 108.380
  51
 71.6203
   0
LINE
   8
LEVEL004
   6
DOT
  62
3
  10
 125.000
  20
 45.0000
  30
0.0
  11
 126.500
  21
 46.5000
  31
0.0
   0
LINE
   8
LEVEL004
   6
DOT
  62
3
  10
 126.500
  20
 46.5000
  30
0.0
  11
 126.500
  21
 80.0000
  31
0.0
   0
ARC
   8
LEVEL004
   6
DOT
  62
3
  10
 126.500
  20
 81.5000
  30
0.0
  40
 1.50000
  50
 180.000
  51
 270.000
   0
ARC
   8
LEVEL004
   6
DOT
  62
3
  10
 126.500
  20
 83.5000
  30
0.0
  40
 1.50000
  50
 90.0000
  51
 180.000
   0
LINE
   8
LEVEL004
   6
DOT
  62
3
  10
 125.000
  20
 81.5000
  30
0.0
  11
 125.000
  21
 83.5000
  31
0.0
   0
LINE
   8
LEVEL004
   6
DOT
  62
3
  10
 125.000
  20
 45.0000
  30
0.0
  11
 125.000
  21
 81.5000
  31
0.0
   0
ARC
   8
LEVEL004
   6
DOT
  62
3
  10
 173.500
  20
 81.5000
  30
0.0
  40
 1.50000
  50
 270.000
  51
0.0
   0
ARC
   8
LEVEL004
   6
DOT
  62
3
  10
 173.500
  20
 83.5000
  30
0.0
  40
 1.50000
  50
 0.173701E-10
  51
 90.0000
   0
LINE
   8
LEVEL004
   6
DOT
  62
3
  10
 175.000
  20
 81.5000
  30
0.0
  11
 175.000
  21
 83.5000
  31
0.0
   0
LINE
   8
LEVEL004
   6
DOT
  62
3
  10
 126.500
  20
 85.0000
  30
0.0
  11
 173.500
  21
 85.0000
  31
0.0
   0
LINE
   8
LEVEL004
   6
DOT
  62
3
  10
 126.500
  20
 80.0000
  30
0.0
  11
 173.500
  21
 80.0000
  31
0.0
   0
LINE
   8
LEVEL004
   6
DOT
  62
3
  10
 126.500
  20
 46.5000
  30
0.0
  11
 173.500
  21
 46.5000
  31
0.0
   0
LINE
   8
LEVEL004
   6
DOT
  62
3
  10
 175.000
  20
 45.0000
  30
0.0
  11
 175.000
  21
 81.5000
  31
0.0
   0
LINE
   8
LEVEL004
   6
DOT
  62
3
  10
 175.000
  20
 45.0000
  30
0.0
  11
 173.500
  21
 46.5000
  31
0.0
   0
LINE
   8
LEVEL004
   6
DOT
  62
3
  10
 173.500
  20
 46.5000
  30
0.0
  11
 173.500
  21
 80.0000
  31
0.0
   0
LINE
   8
LEVEL004
   6
DOT
  62
3
  10
 94.0000
  20
 318.000
  30
0.0
  11
 94.0000
  21
 77.0000
  31
0.0
   0
LINE
   8
LEVEL004
   6
DOT
  62
3
  10
 110.000
  20
 363.000
  30
0.0
  11
 110.000
  21
 130.000
  31
0.0
   0
LINE
   8
LEVEL004
   6
DOT
  62
3
  10
 206.000
  20
 318.000
  30
0.0
  11
 206.000
  21
 77.0000
  31
0.0
   0
LINE
   8
LEVEL004
   6
DOT
  62
3
  10
 190.000
  20
 363.000
  30
0.0
  11
 190.000
  21
 130.000
  31
0.0
   0
ARC
   8
LEVEL004
   6
DOT
  62
3
  10
 136.000
  20
 380.000
  30
0.0
  40
 1.00001
  50
 180.000
  51
0.0
   0
ARC
   8
LEVEL004
   6
DOT
  62
3
  10
 122.000
  20
 380.000
  30
0.0
  40
 1.00001
  50
 180.000
  51
0.0
   0
ARC
   8
LEVEL004
   6
DOT
  62
3
  10
 164.000
  20
 380.000
  30
0.0
  40
 1.00001
  50
 180.000
  51
0.0
   0
ARC
   8
LEVEL004
   6
DOT
  62
3
  10
 178.000
  20
 380.000
  30
0.0
  40
 1.00001
  50
 180.000
  51
0.0
   0
LINE
   8
LEVEL004
   6
DOT
  62
3
  10
 125.000
  20
 365.500
  30
0.0
  11
 124.500
  21
 366.000
  31
0.0
   0
LINE
   8
LEVEL004
   6
DOT
  62
3
  10
 125.000
  20
 363.000
  30
0.0
  11
 125.000
  21
 365.500
  31
0.0
   0
LINE
   8
LEVEL004
   6
DOT
  62
3
  10
 126.500
  20
 361.500
  30
0.0
  11
 126.750
  21
 361.500
  31
0.0
   0
LINE
   8
LEVEL004
   6
DOT
  62
3
  10
 126.750
  20
 363.000
  30
0.0
  11
 125.000
  21
 363.000
  31
0.0
   0
ARC
   8
LEVEL004
   6
DOT
  62
3
  10
 125.250
  20
 364.500
  30
0.0
  40
 1.50000
  50
 0.173701E-10
  51
 90.0000
   0
LINE
   8
LEVEL004
   6
DOT
  62
3
  10
 126.750
  20
 364.500
  30
0.0
  11
 126.750
  21
 358.146
  31
0.0
   0
LINE
   8
LEVEL004
   6
DOT
  62
3
  10
 144.750
  20
 359.800
  30
0.0
  11
 144.750
  21
 354.200
  31
0.0
   0
LINE
   8
LEVEL004
   6
DOT
  62
3
  10
 126.750
  20
 351.000
  30
0.0
  11
 127.750
  21
 350.000
  31
0.0
   0
LINE
   8
LEVEL004
   6
DOT
  62
3
  10
 172.250
  20
 350.000
  30
0.0
  11
 127.750
  21
 350.000
  31
0.0
   0
LINE
   8
LEVEL004
   6
DOT
  62
3
  10
 126.750
  20
 355.854
  30
0.0
  11
 126.750
  21
 351.000
  31
0.0
   0
LINE
   8
LEVEL004
   6
DOT
  62
3
  10
 126.750
  20
 354.200
  30
0.0
  11
 144.750
  21
 354.200
  31
0.0
   0
LINE
   8
LEVEL004
   6
DOT
  62
3
  10
 144.750
  20
 354.200
  30
0.0
  11
 146.367
  21
 357.000
  31
0.0
   0
LINE
   8
LEVEL004
   6
DOT
  62
3
  10
 146.367
  20
 357.000
  30
0.0
  11
 144.750
  21
 359.800
  31
0.0
   0
LINE
   8
LEVEL004
   6
DOT
  62
3
  10
 144.750
  20
 359.800
  30
0.0
  11
 126.750
  21
 359.800
  31
0.0
   0
CIRCLE
   8
LEVEL004
   6
DOT
  62
3
  10
 129.250
  20
 357.000
  30
0.0
  40
 2.75000
   0
LINE
   8
LEVEL004
   6
DOT
  62
3
  10
 125.000
  20
 331.000
  30
0.0
  11
 126.500
  21
 326.000
  31
0.0
   0
LINE
   8
LEVEL004
   6
DOT
  62
3
  10
 125.000
  20
 363.000
  30
0.0
  11
 125.000
  21
 331.000
  31
0.0
   0
LINE
   8
LEVEL004
   6
DOT
  62
3
  10
 175.000
  20
 331.000
  30
0.0
  11
 173.500
  21
 326.000
  31
0.0
   0
LINE
   8
LEVEL004
   6
DOT
  62
3
  10
 173.500
  20
 326.000
  30
0.0
  11
 126.500
  21
 326.000
  31
0.0
   0
LINE
   8
LEVEL004
   6
DOT
  62
3
  10
 175.000
  20
 331.000
  30
0.0
  11
 125.000
  21
 331.000
  31
0.0
   0
LINE
   8
LEVEL004
   6
DOT
  62
3
  10
 175.000
  20
 365.500
  30
0.0
  11
 175.500
  21
 366.000
  31
0.0
   0
ARC
   8
LEVEL004
   6
DOT
  62
3
  10
 174.750
  20
 364.500
  30
0.0
  40
 1.50000
  50
 90.0000
  51
 180.000
   0
LINE
   8
LEVEL004
   6
DOT
  62
3
  10
 173.250
  20
 351.000
  30
0.0
  11
 172.250
  21
 350.000
  31
0.0
   0
LINE
   8
LEVEL004
   6
DOT
  62
3
  10
 173.500
  20
 361.500
  30
0.0
  11
 173.250
  21
 361.500
  31
0.0
   0
LINE
   8
LEVEL004
   6
DOT
  62
3
  10
 173.250
  20
 363.000
  30
0.0
  11
 175.000
  21
 363.000
  31
0.0
   0
LINE
   8
LEVEL004
   6
DOT
  62
3
  10
 173.250
  20
 364.500
  30
0.0
  11
 173.250
  21
 351.000
  31
0.0
   0
LINE
   8
LEVEL004
   6
DOT
  62
3
  10
 175.000
  20
 363.000
  30
0.0
  11
 175.000
  21
 331.000
  31
0.0
   0
LINE
   8
LEVEL004
   6
DOT
  62
3
  10
 125.000
  20
 363.000
  30
0.0
  11
 126.500
  21
 361.500
  31
0.0
   0
LINE
   8
LEVEL004
   6
DOT
  62
3
  10
 126.500
  20
 361.500
  30
0.0
  11
 126.500
  21
 326.000
  31
0.0
   0
LINE
   8
LEVEL004
   6
DOT
  62
3
  10
 126.500
  20
 326.000
  30
0.0
  11
 150.000
  21
 312.432
  31
0.0
   0
LINE
   8
LEVEL004
   6
DOT
  62
3
  10
 150.000
  20
 312.432
  30
0.0
  11
 173.500
  21
 326.000
  31
0.0
   0
LINE
   8
LEVEL004
   6
DOT
  62
3
  10
 173.500
  20
 326.000
  30
0.0
  11
 173.500
  21
 361.500
  31
0.0
   0
LINE
   8
LEVEL004
   6
DOT
  62
3
  10
 173.500
  20
 361.500
  30
0.0
  11
 175.000
  21
 363.000
  31
0.0
   0
LINE
   8
LEVEL004
   6
DOT
  62
3
  10
 175.000
  20
 363.000
  30
0.0
  11
 175.000
  21
 365.500
  31
0.0
   0
LINE
   8
LEVEL004
   6
DASHDOT
  62
1
  10
 131.137
  20
 355.000
  30
0.0
  11
 131.640
  21
 359.000
  31
0.0
   0
LINE
   8
LEVEL004
   6
DASHDOT
  62
1
  10
 131.640
  20
 359.000
  30
0.0
  11
 132.143
  21
 355.000
  31
0.0
   0
LINE
   8
LEVEL004
   6
DASHDOT
  62
1
  10
 132.143
  20
 355.000
  30
0.0
  11
 132.645
  21
 359.000
  31
0.0
   0
LINE
   8
LEVEL004
   6
DASHDOT
  62
1
  10
 132.645
  20
 359.000
  30
0.0
  11
 133.148
  21
 355.000
  31
0.0
   0
LINE
   8
LEVEL004
   6
DASHDOT
  62
1
  10
 133.148
  20
 355.000
  30
0.0
  11
 133.651
  21
 359.000
  31
0.0
   0
LINE
   8
LEVEL004
   6
DASHDOT
  62
1
  10
 133.651
  20
 359.000
  30
0.0
  11
 134.153
  21
 355.000
  31
0.0
   0
LINE
   8
LEVEL004
   6
DASHDOT
  62
1
  10
 134.153
  20
 355.000
  30
0.0
  11
 134.656
  21
 359.000
  31
0.0
   0
LINE
   8
LEVEL004
   6
DASHDOT
  62
1
  10
 134.656
  20
 359.000
  30
0.0
  11
 135.159
  21
 355.000
  31
0.0
   0
LINE
   8
LEVEL004
   6
DASHDOT
  62
1
  10
 135.159
  20
 355.000
  30
0.0
  11
 135.661
  21
 359.000
  31
0.0
   0
LINE
   8
LEVEL004
   6
DASHDOT
  62
1
  10
 135.661
  20
 359.000
  30
0.0
  11
 136.164
  21
 355.000
  31
0.0
   0
LINE
   8
LEVEL004
   6
DASHDOT
  62
1
  10
 136.164
  20
 355.000
  30
0.0
  11
 136.667
  21
 359.000
  31
0.0
   0
LINE
   8
LEVEL004
   6
DASHDOT
  62
1
  10
 136.667
  20
 359.000
  30
0.0
  11
 137.169
  21
 355.000
  31
0.0
   0
LINE
   8
LEVEL004
   6
DASHDOT
  62
1
  10
 137.169
  20
 355.000
  30
0.0
  11
 137.672
  21
 359.000
  31
0.0
   0
LINE
   8
LEVEL004
   6
DASHDOT
  62
1
  10
 137.672
  20
 359.000
  30
0.0
  11
 138.175
  21
 355.000
  31
0.0
   0
LINE
   8
LEVEL004
   6
DASHDOT
  62
1
  10
 138.175
  20
 355.000
  30
0.0
  11
 138.677
  21
 359.000
  31
0.0
   0
LINE
   8
LEVEL004
   6
DASHDOT
  62
1
  10
 138.677
  20
 359.000
  30
0.0
  11
 139.180
  21
 355.000
  31
0.0
   0
LINE
   8
LEVEL004
   6
DASHDOT
  62
1
  10
 139.180
  20
 355.000
  30
0.0
  11
 139.683
  21
 359.000
  31
0.0
   0
LINE
   8
LEVEL004
   6
DASHDOT
  62
1
  10
 139.683
  20
 359.000
  30
0.0
  11
 140.185
  21
 355.000
  31
0.0
   0
LINE
   8
LEVEL004
   6
DASHDOT
  62
1
  10
 140.185
  20
 355.000
  30
0.0
  11
 140.688
  21
 359.000
  31
0.0
   0
LINE
   8
LEVEL004
   6
DASHDOT
  62
1
  10
 140.688
  20
 359.000
  30
0.0
  11
 141.191
  21
 355.000
  31
0.0
   0
LINE
   8
LEVEL004
   6
DASHDOT
  62
1
  10
 141.191
  20
 355.000
  30
0.0
  11
 141.693
  21
 359.000
  31
0.0
   0
LINE
   8
LEVEL004
   6
DASHDOT
  62
1
  10
 141.693
  20
 359.000
  30
0.0
  11
 142.196
  21
 355.000
  31
0.0
   0
LINE
   8
LEVEL004
   6
DASHDOT
  62
1
  10
 142.196
  20
 355.000
  30
0.0
  11
 142.699
  21
 359.000
  31
0.0
   0
LINE
   8
LEVEL004
   6
DASHDOT
  62
1
  10
 142.699
  20
 359.000
  30
0.0
  11
 143.201
  21
 355.000
  31
0.0
   0
LINE
   8
LEVEL004
   6
DASHDOT
  62
1
  10
 143.201
  20
 355.000
  30
0.0
  11
 143.704
  21
 359.000
  31
0.0
   0
LINE
   8
LEVEL004
   6
DASHDOT
  62
1
  10
 143.704
  20
 359.000
  30
0.0
  11
 144.207
  21
 355.000
  31
0.0
   0
LINE
   8
LEVEL004
   6
DASHDOT
  62
1
  10
 144.207
  20
 355.000
  30
0.0
  11
 144.709
  21
 359.000
  31
0.0
   0
LINE
   8
LEVEL004
   6
DASHDOT
  62
1
  10
 144.709
  20
 359.000
  30
0.0
  11
 145.212
  21
 355.000
  31
0.0
   0
LINE
   8
LEVEL004
   6
DASHDOT
  62
1
  10
 121.750
  20
 357.000
  30
0.0
  11
 151.750
  21
 357.000
  31
0.0
   0
CIRCLE
   8
LEVEL003
   6
CONTINUOUS
  62
7
  10
 354.718
  20
 19.7707
  30
0.0
  40
 3.00000
   0
LINE
   8
LEVEL003
   6
CONTINUOUS
  62
7
  10
 360.606
  20
 22.7707
  30
0.0
  11
 356.797
  21
 16.1707
  31
0.0
   0
LINE
   8
LEVEL003
   6
CONTINUOUS
  62
7
  10
 356.797
  20
 16.1707
  30
0.0
  11
 349.176
  21
 16.1707
  31
0.0
   0
LINE
   8
LEVEL003
   6
CONTINUOUS
  62
7
  10
 348.309
  20
 14.6707
  30
0.0
  11
 361.930
  21
 14.6707
  31
0.0
   0
LINE
   8
LEVEL003
   6
CONTINUOUS
  62
7
  10
 361.930
  20
 14.6707
  30
0.0
  11
 366.606
  21
 22.7707
  31
0.0
   0
LINE
   8
LEVEL003
   6
CONTINUOUS
  62
7
  10
 366.606
  20
 22.7707
  30
0.0
  11
 360.606
  21
 22.7707
  31
0.0
   0
LINE
   8
LEVEL003
   6
CONTINUOUS
  62
7
  10
 349.176
  20
 16.1707
  30
0.0
  11
 348.309
  21
 14.6707
  31
0.0
   0
TEXT
   8
LEVEL003
  62
7
  10
 366.691
  20
 12.7200
  30
0.0
  40
 10.0000
   1
ＯＳＡＫＡ ＪＡＣＫ
   7
STANDARD
   0
TEXT
   8
LEVEL003
  62
7
  10
 369.602
  20
 29.6134
  30
0.0
  40
 6.00000
   1
Model : Ｅ７０Ｈ１５
   7
STANDARD
   0
CIRCLE
   8
LEVEL004
   6
DASHDOT
  62
1
  10
 150.000
  20
 217.000
  30
0.0
  40
 38.0000
   0
LINE
   8
LEVEL003
   6
CONTINUOUS
  62
3
  10
 232.500
  20
 67.5000
  30
0.0
  11
 275.053
  21
 67.5000
  31
0.0
   0
LINE
   8
LEVEL003
   6
CONTINUOUS
  62
3
  10
 240.000
  20
 322.500
  30
0.0
  11
 280.724
  21
 322.500
  31
0.0
   0
LINE
   8
LEVEL003
   6
CONTINUOUS
  62
3
  10
 202.500
  20
 390.000
  30
0.0
  11
 238.761
  21
 390.000
  31
0.0
   0
ENDSEC
   0
EOF
