   0
SECTION
   2
HEADER
   9
$LIMMIN
  10
0.0
  20
0.0
   9
$LIMMAX
  10
 630.000
  20
 700.000
   9
$EXTMIN
  10
0.0
  20
0.0
   9
$EXTMAX
  10
 630.000
  20
 700.000
   9
$LTSCALE
  40
 14.0000
   0
ENDSEC
   0
SECTION
   2
TABLES
  0
TABLE
  2
LTYPE
 70
    25
  0
LTYPE
  2
CONTINUOUS
 70
    64
  3
Solid line
 72
    65
 73
     0
 40
0.0
  0
LTYPE
  2
BORDER
 70
    64
  3
__ __ . __ __ . __ __ . __ __ . __ __ . __ __ .
 72
    65
 73
     6
 40
1.75
 49
0.5
 49
-0.25
 49
0.5
 49
-0.25
 49
0.0
 49
-0.25
  0
LTYPE
  2
BORDER2
 70
    64
  3
__.__.__.__.__.__.__.__.__.__.__.__.__.__.__.__
 72
    65
 73
     6
 40
0.875
 49
0.25
 49
-0.125
 49
0.25
 49
-0.125
 49
0.0
 49
-0.125
  0
LTYPE
  2
BORDERX2
 70
    64
  3
____  ____  .  ____  ____  .  ____  ____  .  __
 72
    65
 73
     6
 40
3.5
 49
1.0
 49
-0.5
 49
1.0
 49
-0.5
 49
0.0
 49
-0.5
  0
LTYPE
  2
CENTER
 70
    64
  3
____ _ ____ _ ____ _ ____ _ ____ _ ____ _ ____ 
 72
    65
 73
     4
 40
2.0
 49
1.25
 49
-0.25
 49
0.25
 49
-0.25
  0
LTYPE
  2
CENTER2
 70
    64
  3
___ _ ___ _ ___ _ ___ _ ___ _ ___ _ ___ _ ___ _
 72
    65
 73
     4
 40
1.125
 49
0.75
 49
-0.125
 49
0.125
 49
-0.125
  0
LTYPE
  2
CENTERX2
 70
    64
  3
________  __  ________  __  ________  __  _____
 72
    65
 73
     4
 40
4.0
 49
2.5
 49
-0.5
 49
0.5
 49
-0.5
  0
LTYPE
  2
DASHDOT
 70
    64
  3
__ . __ . __ . __ . __ . __ . __ . __ . __ . __
 72
    65
 73
     4
 40
1.0
 49
0.5
 49
-0.25
 49
0.0
 49
-0.25
  0
LTYPE
  2
DASHDOT2
 70
    64
  3
_._._._._._._._._._._._._._._._._._._._._._._._
 72
    65
 73
     4
 40
0.5
 49
0.25
 49
-0.125
 49
0.0
 49
-0.125
  0
LTYPE
  2
DASHDOTX2
 70
    64
  3
____  .  ____  .  ____  .  ____  .  ____  .  __
 72
    65
 73
     4
 40
2.0
 49
1.0
 49
-0.5
 49
0.0
 49
-0.5
  0
LTYPE
  2
DASHED
 70
    64
  3
__ __ __ __ __ __ __ __ __ __ __ __ __ __ __ __
 72
    65
 73
     2
 40
0.75
 49
0.5
 49
-0.25
  0
LTYPE
  2
DASHED2
 70
    64
  3
_ _ _ _ _ _ _ _ _ _ _ _ _ _ _ _ _ _ _ _ _ _ _ _
 72
    65
 73
     2
 40
0.375
 49
0.25
 49
-0.125
  0
LTYPE
  2
DASHEDX2
 70
    64
  3
____  ____  ____  ____  ____  ____  ____  ____ 
 72
    65
 73
     2
 40
1.5
 49
1.0
 49
-0.5
  0
LTYPE
  2
DIVIDE
 70
    64
  3
____ . . ____ . . ____ . . ____ . . ____ . . __
 72
    65
 73
     6
 40
1.25
 49
0.5
 49
-0.25
 49
0.0
 49
-0.25
 49
0.0
 49
-0.25
  0
LTYPE
  2
DIVIDE2
 70
    64
  3
__..__..__..__..__..__..__..__..__..__..__..__.
 72
    65
 73
     6
 40
0.625
 49
0.25
 49
-0.125
 49
0.0
 49
-0.125
 49
0.0
 49
-0.125
  0
LTYPE
  2
DIVIDEX2
 70
    64
  3
________  .  .  ________  .  .  ________  .  . 
 72
    65
 73
     6
 40
2.5
 49
1.0
 49
-0.5
 49
0.0
 49
-0.5
 49
0.0
 49
-0.5
  0
LTYPE
  2
DOT
 70
    64
  3
. . . . . . . . . . . . . . . . . . . . . . . .
 72
    65
 73
     2
 40
0.25
 49
0.0
 49
-0.25
  0
LTYPE
  2
DOT2
 70
    64
  3
...............................................
 72
    65
 73
     2
 40
0.125
 49
0.0
 49
-0.125
  0
LTYPE
  2
DOTX2
 70
    64
  3
.  .  .  .  .  .  .  .  .  .  .  .  .  .  .  . 
 72
    65
 73
     2
 40
0.5
 49
0.0
 49
-0.5
  0
LTYPE
  2
HIDDEN
 70
    64
  3
__ __ __ __ __ __ __ __ __ __ __ __ __ __ __ __
 72
    65
 73
     2
 40
0.375
 49
0.25
 49
-0.125
  0
LTYPE
  2
HIDDEN2
 70
    64
  3
_ _ _ _ _ _ _ _ _ _ _ _ _ _ _ _ _ _ _ _ _ _ _ _
 72
    65
 73
     2
 40
0.1875
 49
0.125
 49
-0.0625
  0
LTYPE
  2
HIDDENX2
 70
    64
  3
____ ____ ____ ____ ____ ____ ____ ____ ____ __
 72
    65
 73
     2
 40
0.75
 49
0.5
 49
-0.25
  0
LTYPE
  2
PHANTOM
 70
    64
  3
______  __  __  ______  __  __  ______  __  __ 
 72
    65
 73
     6
 40
2.5
 49
1.25
 49
-0.25
 49
0.25
 49
-0.25
 49
0.25
 49
-0.25
  0
LTYPE
  2
PHANTOM2
 70
    64
  3
___ _ _ ___ _ _ ___ _ _ ___ _ _ ___ _ _ ___ _ _
 72
    65
 73
     6
 40
1.25
 49
0.625
 49
-0.125
 49
0.125
 49
-0.125
 49
0.125
 49
-0.125
  0
LTYPE
  2
PHANTOMX2
 70
    64
  3
____________    ____    ____    ____________   
 72
    65
 73
     6
 40
5.0
 49
2.5
 49
-0.5
 49
0.5
 49
-0.5
 49
0.5
 49
-0.5
  0
ENDTAB
  0
TABLE
  2
STYLE
 70
     2
  0
STYLE
  2
STANDARD
 70
0
 40
0.0
 41
1.0
 50
0.0
 71
0
 42
0.2
  3
TXT
  4
BIGFONT
  0
STYLE
  2
STANDARD1
 70
     4
 40
0.0
 41
1.0
 50
0.0
 71
     0
 42
0.2
  3
TXT
  4
BIGFONT
  0
ENDTAB
   0
TABLE
   2
LAYER
  70
4
   0
LAYER
   2
0
  70
0
  62
7
   6
CONTINUOUS
   0
LAYER
   2
LEVEL001
  70
0
  62
7
   6
CONTINUOUS
   0
LAYER
   2
LEVEL003
  70
0
  62
7
   6
CONTINUOUS
   0
LAYER
   2
LEVEL004
  70
0
  62
7
   6
CONTINUOUS
   0
ENDTAB
   0
ENDSEC
   0
SECTION
   2
ENTITIES
   0
LINE
   8
LEVEL001
   6
CONTINUOUS
  62
7
  10
 37.5000
  20
 289.500
  30
0.0
  11
 39.5000
  21
 287.500
  31
0.0
   0
LINE
   8
LEVEL001
   6
CONTINUOUS
  62
7
  10
 39.5000
  20
 287.500
  30
0.0
  11
 215.500
  21
 287.500
  31
0.0
   0
LINE
   8
LEVEL003
   6
CONTINUOUS
  62
3
  10
 55.0000
  20
 283.000
  30
0.0
  11
 55.0000
  21
 252.000
  31
0.0
   0
LINE
   8
LEVEL003
   6
CONTINUOUS
  62
3
  10
 200.000
  20
 283.000
  30
0.0
  11
 200.000
  21
 252.000
  31
0.0
   0
LINE
   8
LEVEL003
   6
CONTINUOUS
  62
3
  10
 55.0000
  20
 255.000
  30
0.0
  11
 200.000
  21
 255.000
  31
0.0
   0
LINE
   8
LEVEL003
   6
CONTINUOUS
  62
3
  10
 55.0000
  20
 255.000
  30
0.0
  11
 59.5000
  21
 254.207
  31
0.0
   0
LINE
   8
LEVEL003
   6
CONTINUOUS
  62
3
  10
 55.0000
  20
 255.000
  30
0.0
  11
 59.5000
  21
 255.793
  31
0.0
   0
LINE
   8
LEVEL003
   6
CONTINUOUS
  62
3
  10
 200.000
  20
 255.000
  30
0.0
  11
 195.500
  21
 255.793
  31
0.0
   0
LINE
   8
LEVEL003
   6
CONTINUOUS
  62
3
  10
 200.000
  20
 255.000
  30
0.0
  11
 195.500
  21
 254.207
  31
0.0
   0
TEXT
   8
LEVEL003
  62
3
  10
 120.000
  20
 256.200
  30
0.0
  40
 6.00000
   1
%%c145
   7
STANDARD
  72
1
  11
 127.500
  21
 256.200
  31
0.0
   0
LINE
   8
LEVEL001
   6
CONTINUOUS
  62
7
  10
 217.500
  20
 289.500
  30
0.0
  11
 215.500
  21
 287.500
  31
0.0
   0
LINE
   8
LEVEL001
   6
CONTINUOUS
  62
7
  10
 244.500
  20
 338.000
  30
0.0
  11
 228.984
  21
 338.000
  31
0.0
   0
ARC
   8
LEVEL001
   6
CONTINUOUS
  62
7
  10
 246.000
  20
 334.500
  30
0.0
  40
 1.50000
  50
 180.000
  51
 270.000
   0
LINE
   8
LEVEL001
   6
CONTINUOUS
  62
7
  10
 244.500
  20
 334.500
  30
0.0
  11
 244.500
  21
 360.500
  31
0.0
   0
LINE
   8
LEVEL001
   6
CONTINUOUS
  62
7
  10
 246.000
  20
 333.000
  30
0.0
  11
 251.000
  21
 333.000
  31
0.0
   0
ARC
   8
LEVEL001
   6
CONTINUOUS
  62
7
  10
 267.000
  20
 334.500
  30
0.0
  40
 1.50000
  50
 270.000
  51
0.0
   0
LINE
   8
LEVEL001
   6
CONTINUOUS
  62
7
  10
 262.000
  20
 333.000
  30
0.0
  11
 267.000
  21
 333.000
  31
0.0
   0
LINE
   8
LEVEL001
   6
CONTINUOUS
  62
7
  10
 268.500
  20
 360.500
  30
0.0
  11
 268.500
  21
 334.500
  31
0.0
   0
ARC
   8
LEVEL001
   6
DASHDOT
  62
1
  10
 277.500
  20
 334.500
  30
0.0
  40
 1.00000
  50
 270.000
  51
0.0
   0
LINE
   8
LEVEL001
   6
DASHDOT
  62
1
  10
 269.500
  20
 333.500
  30
0.0
  11
 277.500
  21
 333.500
  31
0.0
   0
LINE
   8
LEVEL001
   6
DASHDOT
  62
1
  10
 278.500
  20
 360.500
  30
0.0
  11
 278.500
  21
 334.500
  31
0.0
   0
CIRCLE
   8
LEVEL001
   6
DASHDOT
  62
1
  10
 281.500
  20
 347.500
  30
0.0
  40
 1.50000
   0
ARC
   8
LEVEL001
   6
DASHDOT
  62
1
  10
 269.500
  20
 334.500
  30
0.0
  40
 1.00000
  50
 180.000
  51
 270.000
   0
ARC
   8
LEVEL001
   6
DASHDOT
  62
1
  10
 280.500
  20
 342.000
  30
0.0
  40
 2.00000
  50
 90.0000
  51
 180.000
   0
LINE
   8
LEVEL001
   6
DASHDOT
  62
1
  10
 280.500
  20
 344.000
  30
0.0
  11
 281.000
  21
 344.000
  31
0.0
   0
ARC
   8
LEVEL001
   6
DASHDOT
  62
1
  10
 281.000
  20
 347.500
  30
0.0
  40
 3.50000
  50
 270.000
  51
 90.0000
   0
LINE
   8
LEVEL001
   6
CONTINUOUS
  62
7
  10
 223.500
  20
 351.539
  30
0.0
  11
 237.500
  21
 341.669
  31
0.0
   0
LINE
   8
LEVEL001
   6
CONTINUOUS
  62
3
  10
 251.000
  20
 334.500
  30
0.0
  11
 262.000
  21
 334.500
  31
0.0
   0
LINE
   8
LEVEL001
   6
CONTINUOUS
  62
3
  10
 251.000
  20
 336.500
  30
0.0
  11
 262.000
  21
 336.500
  31
0.0
   0
LINE
   8
LEVEL001
   6
CONTINUOUS
  62
3
  10
 251.000
  20
 338.500
  30
0.0
  11
 262.000
  21
 338.500
  31
0.0
   0
LINE
   8
LEVEL001
   6
CONTINUOUS
  62
3
  10
 251.000
  20
 340.500
  30
0.0
  11
 262.000
  21
 340.500
  31
0.0
   0
LINE
   8
LEVEL001
   6
CONTINUOUS
  62
3
  10
 251.000
  20
 342.500
  30
0.0
  11
 262.000
  21
 342.500
  31
0.0
   0
LINE
   8
LEVEL001
   6
CONTINUOUS
  62
3
  10
 251.000
  20
 344.500
  30
0.0
  11
 262.000
  21
 344.500
  31
0.0
   0
LINE
   8
LEVEL001
   6
CONTINUOUS
  62
3
  10
 251.000
  20
 346.500
  30
0.0
  11
 262.000
  21
 346.500
  31
0.0
   0
LINE
   8
LEVEL001
   6
CONTINUOUS
  62
7
  10
 223.500
  20
 343.461
  30
0.0
  11
 223.500
  21
 351.539
  31
0.0
   0
LINE
   8
LEVEL001
   6
CONTINUOUS
  62
7
  10
 223.500
  20
 351.539
  30
0.0
  11
 227.500
  21
 351.797
  31
0.0
   0
LINE
   8
LEVEL001
   6
CONTINUOUS
  62
7
  10
 227.500
  20
 351.797
  30
0.0
  11
 228.984
  21
 353.331
  31
0.0
   0
LINE
   8
LEVEL001
   6
CONTINUOUS
  62
7
  10
 228.984
  20
 353.331
  30
0.0
  11
 237.500
  21
 353.331
  31
0.0
   0
LINE
   8
LEVEL001
   6
CONTINUOUS
  62
7
  10
 237.500
  20
 353.331
  30
0.0
  11
 237.500
  21
 341.669
  31
0.0
   0
LINE
   8
LEVEL001
   6
CONTINUOUS
  62
7
  10
 237.500
  20
 341.669
  30
0.0
  11
 228.984
  21
 341.669
  31
0.0
   0
LINE
   8
LEVEL001
   6
CONTINUOUS
  62
7
  10
 228.984
  20
 341.669
  30
0.0
  11
 227.500
  21
 343.203
  31
0.0
   0
LINE
   8
LEVEL001
   6
CONTINUOUS
  62
7
  10
 227.500
  20
 343.203
  30
0.0
  11
 223.500
  21
 343.461
  31
0.0
   0
LINE
   8
LEVEL001
   6
CONTINUOUS
  62
7
  10
 251.000
  20
 332.500
  30
0.0
  11
 251.000
  21
 362.500
  31
0.0
   0
LINE
   8
LEVEL001
   6
CONTINUOUS
  62
7
  10
 251.000
  20
 362.500
  30
0.0
  11
 262.000
  21
 362.500
  31
0.0
   0
LINE
   8
LEVEL001
   6
CONTINUOUS
  62
7
  10
 262.000
  20
 362.500
  30
0.0
  11
 262.000
  21
 332.500
  31
0.0
   0
LINE
   8
LEVEL001
   6
CONTINUOUS
  62
7
  10
 262.000
  20
 332.500
  30
0.0
  11
 251.000
  21
 332.500
  31
0.0
   0
LINE
   8
LEVEL001
   6
CONTINUOUS
  62
7
  10
 244.500
  20
 357.000
  30
0.0
  11
 228.984
  21
 357.000
  31
0.0
   0
ARC
   8
LEVEL001
   6
CONTINUOUS
  62
7
  10
 246.000
  20
 360.500
  30
0.0
  40
 1.50000
  50
 90.0000
  51
 180.000
   0
LINE
   8
LEVEL001
   6
CONTINUOUS
  62
7
  10
 246.000
  20
 362.000
  30
0.0
  11
 251.000
  21
 362.000
  31
0.0
   0
ARC
   8
LEVEL001
   6
CONTINUOUS
  62
7
  10
 267.000
  20
 360.500
  30
0.0
  40
 1.50000
  50
0.0
  51
 90.0000
   0
LINE
   8
LEVEL001
   6
CONTINUOUS
  62
7
  10
 262.000
  20
 362.000
  30
0.0
  11
 267.000
  21
 362.000
  31
0.0
   0
ARC
   8
LEVEL001
   6
DASHDOT
  62
1
  10
 277.500
  20
 360.500
  30
0.0
  40
 1.00000
  50
0.0
  51
 90.0000
   0
LINE
   8
LEVEL001
   6
DASHDOT
  62
1
  10
 269.500
  20
 361.500
  30
0.0
  11
 277.500
  21
 361.500
  31
0.0
   0
ARC
   8
LEVEL001
   6
DASHDOT
  62
1
  10
 269.500
  20
 360.500
  30
0.0
  40
 1.00000
  50
 90.0000
  51
 180.000
   0
ARC
   8
LEVEL001
   6
DASHDOT
  62
1
  10
 280.500
  20
 353.000
  30
0.0
  40
 2.00000
  50
 180.000
  51
 270.000
   0
LINE
   8
LEVEL001
   6
DASHDOT
  62
1
  10
 280.500
  20
 351.000
  30
0.0
  11
 281.000
  21
 351.000
  31
0.0
   0
LINE
   8
LEVEL001
   6
CONTINUOUS
  62
3
  10
 251.000
  20
 348.500
  30
0.0
  11
 262.000
  21
 348.500
  31
0.0
   0
LINE
   8
LEVEL001
   6
CONTINUOUS
  62
3
  10
 251.000
  20
 350.500
  30
0.0
  11
 262.000
  21
 350.500
  31
0.0
   0
LINE
   8
LEVEL001
   6
CONTINUOUS
  62
3
  10
 251.000
  20
 352.500
  30
0.0
  11
 262.000
  21
 352.500
  31
0.0
   0
LINE
   8
LEVEL001
   6
CONTINUOUS
  62
3
  10
 251.000
  20
 354.500
  30
0.0
  11
 262.000
  21
 354.500
  31
0.0
   0
LINE
   8
LEVEL001
   6
CONTINUOUS
  62
3
  10
 251.000
  20
 356.500
  30
0.0
  11
 262.000
  21
 356.500
  31
0.0
   0
LINE
   8
LEVEL001
   6
CONTINUOUS
  62
3
  10
 251.000
  20
 358.500
  30
0.0
  11
 262.000
  21
 358.500
  31
0.0
   0
LINE
   8
LEVEL001
   6
CONTINUOUS
  62
3
  10
 251.000
  20
 360.500
  30
0.0
  11
 262.000
  21
 360.500
  31
0.0
   0
LINE
   8
LEVEL001
   6
CONTINUOUS
  62
7
  10
 223.500
  20
 343.461
  30
0.0
  11
 237.500
  21
 353.331
  31
0.0
   0
LINE
   8
LEVEL001
   6
CONTINUOUS
  62
3
  10
 227.500
  20
 356.143
  30
0.0
  11
 223.884
  21
 355.174
  31
0.0
   0
LINE
   8
LEVEL001
   6
CONTINUOUS
  62
7
  10
 227.500
  20
 356.143
  30
0.0
  11
 228.984
  21
 357.000
  31
0.0
   0
LINE
   8
LEVEL001
   6
CONTINUOUS
  62
7
  10
 228.984
  20
 353.331
  30
0.0
  11
 228.984
  21
 357.000
  31
0.0
   0
LINE
   8
LEVEL001
   6
CONTINUOUS
  62
3
  10
 223.884
  20
 355.174
  30
0.0
  11
 223.884
  21
 351.539
  31
0.0
   0
LINE
   8
LEVEL001
   6
CONTINUOUS
  62
7
  10
 227.500
  20
 356.143
  30
0.0
  11
 227.500
  21
 351.797
  31
0.0
   0
LINE
   8
LEVEL001
   6
CONTINUOUS
  62
3
  10
 227.500
  20
 338.856
  30
0.0
  11
 223.884
  21
 339.825
  31
0.0
   0
LINE
   8
LEVEL001
   6
CONTINUOUS
  62
7
  10
 227.500
  20
 338.856
  30
0.0
  11
 228.984
  21
 338.000
  31
0.0
   0
LINE
   8
LEVEL001
   6
CONTINUOUS
  62
7
  10
 228.984
  20
 338.000
  30
0.0
  11
 228.984
  21
 341.669
  31
0.0
   0
LINE
   8
LEVEL001
   6
CONTINUOUS
  62
7
  10
 227.500
  20
 343.203
  30
0.0
  11
 227.500
  21
 338.856
  31
0.0
   0
LINE
   8
LEVEL001
   6
CONTINUOUS
  62
3
  10
 223.884
  20
 343.461
  30
0.0
  11
 223.884
  21
 339.825
  31
0.0
   0
TEXT
   8
LEVEL003
  62
3
  10
 225.854
  20
 315.391
  30
0.0
  40
 6.00000
   1
ＮＰＴ３／８
   7
STANDARD
   0
LINE
   8
LEVEL003
   6
CONTINUOUS
  62
3
  10
 220.915
  20
 339.062
  30
0.0
  11
 225.000
  21
 315.000
  31
0.0
   0
LINE
   8
LEVEL003
   6
CONTINUOUS
  62
3
  10
 220.915
  20
 339.062
  30
0.0
  11
 220.886
  21
 334.493
  31
0.0
   0
LINE
   8
LEVEL003
   6
CONTINUOUS
  62
3
  10
 220.915
  20
 339.062
  30
0.0
  11
 222.450
  21
 334.759
  31
0.0
   0
LINE
   8
LEVEL003
   6
CONTINUOUS
  62
3
  10
 217.000
  20
 287.500
  30
0.0
  11
 303.000
  21
 287.500
  31
0.0
   0
LINE
   8
LEVEL003
   6
CONTINUOUS
  62
3
  10
 289.000
  20
 347.500
  30
0.0
  11
 303.000
  21
 347.500
  31
0.0
   0
LINE
   8
LEVEL003
   6
CONTINUOUS
  62
3
  10
 300.000
  20
 287.500
  30
0.0
  11
 300.000
  21
 347.500
  31
0.0
   0
LINE
   8
LEVEL003
   6
CONTINUOUS
  62
3
  10
 300.000
  20
 287.500
  30
0.0
  11
 300.793
  21
 292.000
  31
0.0
   0
LINE
   8
LEVEL003
   6
CONTINUOUS
  62
3
  10
 300.000
  20
 287.500
  30
0.0
  11
 299.207
  21
 292.000
  31
0.0
   0
LINE
   8
LEVEL003
   6
CONTINUOUS
  62
3
  10
 300.000
  20
 347.500
  30
0.0
  11
 299.207
  21
 343.000
  31
0.0
   0
LINE
   8
LEVEL003
   6
CONTINUOUS
  62
3
  10
 300.000
  20
 347.500
  30
0.0
  11
 300.793
  21
 343.000
  31
0.0
   0
TEXT
   8
LEVEL003
  62
3
  10
 298.800
  20
 314.500
  30
0.0
  40
 6.00000
   1
60
  50
 90.0000
  41
 0.500000
   7
STANDARD
  72
1
  11
 298.800
  21
 317.500
  31
0.0
   0
LINE
   8
LEVEL003
   6
CONTINUOUS
  62
3
  10
 217.000
  20
 287.500
  30
0.0
  11
 325.500
  21
 287.500
  31
0.0
   0
LINE
   8
LEVEL003
   6
CONTINUOUS
  62
3
  10
 322.500
  20
 287.500
  30
0.0
  11
 323.293
  21
 292.000
  31
0.0
   0
LINE
   8
LEVEL003
   6
CONTINUOUS
  62
3
  10
 322.500
  20
 287.500
  30
0.0
  11
 321.707
  21
 292.000
  31
0.0
   0
LINE
   8
LEVEL003
   6
CONTINUOUS
  62
3
  10
 217.000
  20
 287.500
  30
0.0
  11
 348.000
  21
 287.500
  31
0.0
   0
LINE
   8
LEVEL003
   6
CONTINUOUS
  62
3
  10
 345.000
  20
 287.500
  30
0.0
  11
 345.793
  21
 292.000
  31
0.0
   0
LINE
   8
LEVEL003
   6
CONTINUOUS
  62
3
  10
 345.000
  20
 287.500
  30
0.0
  11
 344.207
  21
 292.000
  31
0.0
   0
CIRCLE
   8
LEVEL001
   6
CONTINUOUS
  62
7
  10
 127.500
  20
 127.500
  30
0.0
  40
 90.0000
   0
CIRCLE
   8
LEVEL001
   6
CONTINUOUS
  62
7
  10
 127.500
  20
 127.500
  30
0.0
  40
 88.0000
   0
CIRCLE
   8
LEVEL001
   6
DASHDOT
  62
1
  10
 127.500
  20
 127.500
  30
0.0
  40
 72.5000
   0
CIRCLE
   8
LEVEL001
   6
CONTINUOUS
  62
7
  10
 76.2348
  20
 76.2348
  30
0.0
  40
 5.12500
   0
CIRCLE
   8
LEVEL001
   6
CONTINUOUS
  62
3
  10
 76.2348
  20
 76.2348
  30
0.0
  40
 6.00000
   0
LINE
   8
LEVEL001
   6
DASHDOT
  62
1
  10
 69.8708
  20
 69.8708
  30
0.0
  11
 82.5987
  21
 82.5987
  31
0.0
   0
CIRCLE
   8
LEVEL001
   6
CONTINUOUS
  62
7
  10
 76.2348
  20
 178.765
  30
0.0
  40
 5.12500
   0
CIRCLE
   8
LEVEL001
   6
CONTINUOUS
  62
3
  10
 76.2348
  20
 178.765
  30
0.0
  40
 6.00000
   0
LINE
   8
LEVEL001
   6
DASHDOT
  62
1
  10
 69.8708
  20
 185.129
  30
0.0
  11
 82.5987
  21
 172.401
  31
0.0
   0
CIRCLE
   8
LEVEL001
   6
CONTINUOUS
  62
3
  10
 127.500
  20
 127.500
  30
0.0
  40
 7.47495
   0
LINE
   8
LEVEL001
   6
CONTINUOUS
  62
7
  10
 127.500
  20
 122.881
  30
0.0
  11
 123.500
  21
 125.191
  31
0.0
   0
LINE
   8
LEVEL001
   6
CONTINUOUS
  62
7
  10
 123.500
  20
 125.191
  30
0.0
  11
 123.500
  21
 129.809
  31
0.0
   0
LINE
   8
LEVEL001
   6
CONTINUOUS
  62
7
  10
 123.500
  20
 129.809
  30
0.0
  11
 127.500
  21
 132.119
  31
0.0
   0
LINE
   8
LEVEL001
   6
CONTINUOUS
  62
7
  10
 127.500
  20
 132.119
  30
0.0
  11
 131.500
  21
 129.809
  31
0.0
   0
LINE
   8
LEVEL001
   6
CONTINUOUS
  62
7
  10
 131.500
  20
 129.809
  30
0.0
  11
 131.500
  21
 125.191
  31
0.0
   0
LINE
   8
LEVEL001
   6
CONTINUOUS
  62
7
  10
 131.500
  20
 125.191
  30
0.0
  11
 127.500
  21
 122.881
  31
0.0
   0
CIRCLE
   8
LEVEL001
   6
CONTINUOUS
  62
7
  10
 127.500
  20
 127.500
  30
0.0
  40
 8.33095
   0
CIRCLE
   8
LEVEL001
   6
CONTINUOUS
  62
7
  10
 127.500
  20
 127.500
  30
0.0
  40
 9.83096
   0
CIRCLE
   8
LEVEL001
   6
CONTINUOUS
  62
7
  10
 178.765
  20
 178.765
  30
0.0
  40
 5.12500
   0
CIRCLE
   8
LEVEL001
   6
CONTINUOUS
  62
3
  10
 178.765
  20
 178.765
  30
0.0
  40
 6.00000
   0
LINE
   8
LEVEL001
   6
DASHDOT
  62
1
  10
 185.129
  20
 185.129
  30
0.0
  11
 172.401
  21
 172.401
  31
0.0
   0
CIRCLE
   8
LEVEL001
   6
CONTINUOUS
  62
7
  10
 178.765
  20
 76.2348
  30
0.0
  40
 5.12500
   0
CIRCLE
   8
LEVEL001
   6
CONTINUOUS
  62
3
  10
 178.765
  20
 76.2348
  30
0.0
  40
 6.00000
   0
LINE
   8
LEVEL001
   6
DASHDOT
  62
1
  10
 185.129
  20
 69.8708
  30
0.0
  11
 172.401
  21
 82.5987
  31
0.0
   0
LINE
   8
LEVEL001
   6
CONTINUOUS
  62
7
  10
 115.000
  20
 35.5000
  30
0.0
  11
 140.000
  21
 35.5000
  31
0.0
   0
LINE
   8
LEVEL001
   6
CONTINUOUS
  62
7
  10
 115.000
  20
 12.5000
  30
0.0
  11
 140.000
  21
 12.5000
  31
0.0
   0
LINE
   8
LEVEL001
   6
CONTINUOUS
  62
7
  10
 89.5000
  20
 29.0000
  30
0.0
  11
 115.000
  21
 29.0000
  31
0.0
   0
LINE
   8
LEVEL001
   6
CONTINUOUS
  62
7
  10
 140.000
  20
 29.0000
  30
0.0
  11
 165.500
  21
 29.0000
  31
0.0
   0
LINE
   8
LEVEL001
   6
CONTINUOUS
  62
7
  10
 89.5000
  20
 18.0000
  30
0.0
  11
 115.000
  21
 18.0000
  31
0.0
   0
LINE
   8
LEVEL001
   6
CONTINUOUS
  62
7
  10
 140.000
  20
 18.0000
  30
0.0
  11
 165.500
  21
 18.0000
  31
0.0
   0
LINE
   8
LEVEL001
   6
DASHDOT
  62
1
  10
 77.5000
  20
 23.5000
  30
0.0
  11
 177.500
  21
 23.5000
  31
0.0
   0
ARC
   8
LEVEL001
   6
CONTINUOUS
  62
7
  10
 89.5000
  20
 23.5000
  30
0.0
  40
 5.50000
  50
 90.0000
  51
 270.000
   0
ARC
   8
LEVEL001
   6
CONTINUOUS
  62
7
  10
 165.500
  20
 23.5000
  30
0.0
  40
 5.50000
  50
 270.000
  51
 90.0000
   0
LINE
   8
LEVEL001
   6
CONTINUOUS
  62
7
  10
 135.000
  20
 37.5000
  30
0.0
  11
 120.000
  21
 37.5000
  31
0.0
   0
LINE
   8
LEVEL001
   6
CONTINUOUS
  62
7
  10
 120.000
  20
 37.5000
  30
0.0
  11
 115.000
  21
 35.5000
  31
0.0
   0
LINE
   8
LEVEL001
   6
CONTINUOUS
  62
7
  10
 115.000
  20
 35.5000
  30
0.0
  11
 115.000
  21
 12.5000
  31
0.0
   0
LINE
   8
LEVEL001
   6
CONTINUOUS
  62
7
  10
 115.000
  20
 12.5000
  30
0.0
  11
 116.000
  21
 11.5000
  31
0.0
   0
LINE
   8
LEVEL001
   6
CONTINUOUS
  62
7
  10
 116.000
  20
 11.5000
  30
0.0
  11
 139.000
  21
 11.5000
  31
0.0
   0
LINE
   8
LEVEL001
   6
CONTINUOUS
  62
7
  10
 139.000
  20
 11.5000
  30
0.0
  11
 140.000
  21
 12.5000
  31
0.0
   0
LINE
   8
LEVEL001
   6
CONTINUOUS
  62
7
  10
 140.000
  20
 12.5000
  30
0.0
  11
 140.000
  21
 35.5000
  31
0.0
   0
LINE
   8
LEVEL001
   6
CONTINUOUS
  62
7
  10
 140.000
  20
 35.5000
  30
0.0
  11
 135.000
  21
 37.5000
  31
0.0
   0
LINE
   8
LEVEL001
   6
CONTINUOUS
  62
3
  10
 223.884
  20
 135.000
  30
0.0
  11
 223.884
  21
 120.000
  31
0.0
   0
LINE
   8
LEVEL001
   6
CONTINUOUS
  62
7
  10
 227.500
  20
 135.000
  30
0.0
  11
 227.500
  21
 120.000
  31
0.0
   0
LINE
   8
LEVEL001
   6
CONTINUOUS
  62
7
  10
 228.984
  20
 120.000
  30
0.0
  11
 228.984
  21
 135.000
  31
0.0
   0
LINE
   8
LEVEL001
   6
CONTINUOUS
  62
7
  10
 223.500
  20
 136.019
  30
0.0
  11
 217.500
  21
 135.831
  31
0.0
   0
LINE
   8
LEVEL001
   6
CONTINUOUS
  62
3
  10
 223.500
  20
 135.163
  30
0.0
  11
 217.500
  21
 134.975
  31
0.0
   0
LINE
   8
LEVEL001
   6
CONTINUOUS
  62
3
  10
 223.495
  20
 119.838
  30
0.0
  11
 217.500
  21
 120.025
  31
0.0
   0
LINE
   8
LEVEL001
   6
CONTINUOUS
  62
7
  10
 223.500
  20
 118.981
  30
0.0
  11
 217.500
  21
 119.169
  31
0.0
   0
LINE
   8
LEVEL001
   6
CONTINUOUS
  62
7
  10
 140.000
  20
 237.000
  30
0.0
  11
 165.500
  21
 237.000
  31
0.0
   0
LINE
   8
LEVEL001
   6
CONTINUOUS
  62
7
  10
 115.000
  20
 219.500
  30
0.0
  11
 140.000
  21
 219.500
  31
0.0
   0
LINE
   8
LEVEL001
   6
CONTINUOUS
  62
7
  10
 115.000
  20
 242.500
  30
0.0
  11
 140.000
  21
 242.500
  31
0.0
   0
LINE
   8
LEVEL001
   6
CONTINUOUS
  62
7
  10
 89.5000
  20
 226.000
  30
0.0
  11
 115.000
  21
 226.000
  31
0.0
   0
LINE
   8
LEVEL001
   6
CONTINUOUS
  62
7
  10
 140.000
  20
 226.000
  30
0.0
  11
 165.500
  21
 226.000
  31
0.0
   0
LINE
   8
LEVEL001
   6
CONTINUOUS
  62
7
  10
 89.5000
  20
 237.000
  30
0.0
  11
 115.000
  21
 237.000
  31
0.0
   0
LINE
   8
LEVEL001
   6
DASHDOT
  62
1
  10
 77.5000
  20
 231.500
  30
0.0
  11
 177.500
  21
 231.500
  31
0.0
   0
ARC
   8
LEVEL001
   6
CONTINUOUS
  62
7
  10
 89.5000
  20
 231.500
  30
0.0
  40
 5.50000
  50
 90.0000
  51
 270.000
   0
ARC
   8
LEVEL001
   6
CONTINUOUS
  62
7
  10
 165.500
  20
 231.500
  30
0.0
  40
 5.50000
  50
 270.000
  51
 90.0000
   0
LINE
   8
LEVEL001
   6
CONTINUOUS
  62
7
  10
 135.000
  20
 217.500
  30
0.0
  11
 120.000
  21
 217.500
  31
0.0
   0
LINE
   8
LEVEL001
   6
CONTINUOUS
  62
7
  10
 120.000
  20
 217.500
  30
0.0
  11
 115.000
  21
 219.500
  31
0.0
   0
LINE
   8
LEVEL001
   6
CONTINUOUS
  62
7
  10
 115.000
  20
 219.500
  30
0.0
  11
 115.000
  21
 242.500
  31
0.0
   0
LINE
   8
LEVEL001
   6
CONTINUOUS
  62
7
  10
 115.000
  20
 242.500
  30
0.0
  11
 116.000
  21
 243.500
  31
0.0
   0
LINE
   8
LEVEL001
   6
CONTINUOUS
  62
7
  10
 116.000
  20
 243.500
  30
0.0
  11
 139.000
  21
 243.500
  31
0.0
   0
LINE
   8
LEVEL001
   6
CONTINUOUS
  62
7
  10
 139.000
  20
 243.500
  30
0.0
  11
 140.000
  21
 242.500
  31
0.0
   0
LINE
   8
LEVEL001
   6
CONTINUOUS
  62
7
  10
 140.000
  20
 242.500
  30
0.0
  11
 140.000
  21
 219.500
  31
0.0
   0
LINE
   8
LEVEL001
   6
CONTINUOUS
  62
7
  10
 140.000
  20
 219.500
  30
0.0
  11
 135.000
  21
 217.500
  31
0.0
   0
LINE
   8
LEVEL001
   6
DASHDOT
  62
1
  10
 127.500
  20
 3.74568
  30
0.0
  11
 127.500
  21
 251.254
  31
0.0
   0
LINE
   8
LEVEL001
   6
CONTINUOUS
  62
7
  10
 217.500
  20
 289.500
  30
0.0
  11
 37.5000
  21
 289.500
  31
0.0
   0
LINE
   8
LEVEL001
   6
CONTINUOUS
  62
7
  10
 227.500
  20
 338.856
  30
0.0
  11
 217.500
  21
 339.169
  31
0.0
   0
LINE
   8
LEVEL001
   6
CONTINUOUS
  62
7
  10
 227.500
  20
 356.143
  30
0.0
  11
 217.500
  21
 355.831
  31
0.0
   0
LINE
   8
LEVEL001
   6
CONTINUOUS
  62
3
  10
 223.884
  20
 355.174
  30
0.0
  11
 217.500
  21
 354.975
  31
0.0
   0
LINE
   8
LEVEL001
   6
CONTINUOUS
  62
3
  10
 223.884
  20
 339.825
  30
0.0
  11
 217.500
  21
 340.025
  31
0.0
   0
LINE
   8
LEVEL004
   6
DOT
  62
3
  10
 206.000
  20
 287.500
  30
0.0
  11
 205.125
  21
 288.375
  31
0.0
   0
LINE
   8
LEVEL004
   6
DOT
  62
3
  10
 205.125
  20
 288.375
  30
0.0
  11
 205.125
  21
 308.766
  31
0.0
   0
LINE
   8
LEVEL004
   6
DOT
  62
3
  10
 205.125
  20
 308.766
  30
0.0
  11
 200.000
  21
 311.724
  31
0.0
   0
LINE
   8
LEVEL004
   6
DOT
  62
3
  10
 200.000
  20
 311.724
  30
0.0
  11
 194.875
  21
 308.766
  31
0.0
   0
LINE
   8
LEVEL004
   6
DOT
  62
3
  10
 194.875
  20
 308.766
  30
0.0
  11
 194.875
  21
 288.375
  31
0.0
   0
LINE
   8
LEVEL004
   6
DOT
  62
3
  10
 194.875
  20
 288.375
  30
0.0
  11
 194.000
  21
 287.500
  31
0.0
   0
LINE
   8
LEVEL004
   6
DOT
  62
3
  10
 205.125
  20
 288.375
  30
0.0
  11
 194.875
  21
 288.375
  31
0.0
   0
LINE
   8
LEVEL004
   6
DOT
  62
3
  10
 205.125
  20
 308.766
  30
0.0
  11
 194.875
  21
 308.766
  31
0.0
   0
LINE
   8
LEVEL004
   6
DOT
  62
3
  10
 206.000
  20
 287.500
  30
0.0
  11
 206.000
  21
 305.500
  31
0.0
   0
LINE
   8
LEVEL004
   6
DOT
  62
3
  10
 206.000
  20
 305.500
  30
0.0
  11
 205.125
  21
 308.766
  31
0.0
   0
LINE
   8
LEVEL004
   6
DOT
  62
3
  10
 194.875
  20
 308.766
  30
0.0
  11
 194.000
  21
 305.500
  31
0.0
   0
LINE
   8
LEVEL004
   6
DOT
  62
3
  10
 194.000
  20
 305.500
  30
0.0
  11
 194.000
  21
 287.500
  31
0.0
   0
LINE
   8
LEVEL004
   6
DOT
  62
3
  10
 206.000
  20
 305.500
  30
0.0
  11
 194.000
  21
 305.500
  31
0.0
   0
LINE
   8
LEVEL004
   6
DASHDOT
  62
1
  10
 200.000
  20
 284.500
  30
0.0
  11
 200.000
  21
 314.724
  31
0.0
   0
LINE
   8
LEVEL004
   6
DASHDOT
  62
1
  10
 55.0000
  20
 284.500
  30
0.0
  11
 55.0000
  21
 307.500
  31
0.0
   0
ARC
   8
LEVEL001
   6
CONTINUOUS
  62
7
  10
 246.000
  20
 140.500
  30
0.0
  40
 1.50000
  50
 90.0000
  51
 180.000
   0
LINE
   8
LEVEL001
   6
CONTINUOUS
  62
7
  10
 246.000
  20
 142.000
  30
0.0
  11
 251.000
  21
 142.000
  31
0.0
   0
ARC
   8
LEVEL001
   6
CONTINUOUS
  62
7
  10
 246.000
  20
 114.500
  30
0.0
  40
 1.50000
  50
 180.000
  51
 270.000
   0
LINE
   8
LEVEL001
   6
CONTINUOUS
  62
7
  10
 244.500
  20
 114.500
  30
0.0
  11
 244.500
  21
 140.500
  31
0.0
   0
LINE
   8
LEVEL001
   6
CONTINUOUS
  62
7
  10
 246.000
  20
 113.000
  30
0.0
  11
 251.000
  21
 113.000
  31
0.0
   0
ARC
   8
LEVEL001
   6
CONTINUOUS
  62
7
  10
 267.000
  20
 140.500
  30
0.0
  40
 1.50000
  50
0.0
  51
 90.0000
   0
LINE
   8
LEVEL001
   6
CONTINUOUS
  62
7
  10
 262.000
  20
 142.000
  30
0.0
  11
 267.000
  21
 142.000
  31
0.0
   0
ARC
   8
LEVEL001
   6
CONTINUOUS
  62
7
  10
 267.000
  20
 114.500
  30
0.0
  40
 1.50000
  50
 270.000
  51
0.0
   0
LINE
   8
LEVEL001
   6
CONTINUOUS
  62
7
  10
 262.000
  20
 113.000
  30
0.0
  11
 267.000
  21
 113.000
  31
0.0
   0
LINE
   8
LEVEL001
   6
CONTINUOUS
  62
7
  10
 268.500
  20
 140.500
  30
0.0
  11
 268.500
  21
 114.500
  31
0.0
   0
ARC
   8
LEVEL001
   6
DASHDOT
  62
1
  10
 277.500
  20
 140.500
  30
0.0
  40
 1.00000
  50
0.0
  51
 90.0000
   0
LINE
   8
LEVEL001
   6
DASHDOT
  62
1
  10
 269.500
  20
 141.500
  30
0.0
  11
 277.500
  21
 141.500
  31
0.0
   0
ARC
   8
LEVEL001
   6
DASHDOT
  62
1
  10
 277.500
  20
 114.500
  30
0.0
  40
 1.00000
  50
 270.000
  51
0.0
   0
LINE
   8
LEVEL001
   6
DASHDOT
  62
1
  10
 269.500
  20
 113.500
  30
0.0
  11
 277.500
  21
 113.500
  31
0.0
   0
LINE
   8
LEVEL001
   6
DASHDOT
  62
1
  10
 278.500
  20
 140.500
  30
0.0
  11
 278.500
  21
 114.500
  31
0.0
   0
ARC
   8
LEVEL001
   6
DASHDOT
  62
1
  10
 269.500
  20
 114.500
  30
0.0
  40
 1.00000
  50
 180.000
  51
 270.000
   0
ARC
   8
LEVEL001
   6
DASHDOT
  62
1
  10
 269.500
  20
 140.500
  30
0.0
  40
 1.00000
  50
 90.0000
  51
 180.000
   0
LINE
   8
LEVEL001
   6
CONTINUOUS
  62
3
  10
 251.000
  20
 114.500
  30
0.0
  11
 262.000
  21
 114.500
  31
0.0
   0
LINE
   8
LEVEL001
   6
CONTINUOUS
  62
3
  10
 251.000
  20
 116.500
  30
0.0
  11
 262.000
  21
 116.500
  31
0.0
   0
LINE
   8
LEVEL001
   6
CONTINUOUS
  62
3
  10
 251.000
  20
 118.500
  30
0.0
  11
 262.000
  21
 118.500
  31
0.0
   0
LINE
   8
LEVEL001
   6
CONTINUOUS
  62
3
  10
 251.000
  20
 120.500
  30
0.0
  11
 262.000
  21
 120.500
  31
0.0
   0
LINE
   8
LEVEL001
   6
CONTINUOUS
  62
3
  10
 251.000
  20
 122.500
  30
0.0
  11
 262.000
  21
 122.500
  31
0.0
   0
LINE
   8
LEVEL001
   6
CONTINUOUS
  62
3
  10
 251.000
  20
 124.500
  30
0.0
  11
 262.000
  21
 124.500
  31
0.0
   0
LINE
   8
LEVEL001
   6
CONTINUOUS
  62
3
  10
 251.000
  20
 126.500
  30
0.0
  11
 262.000
  21
 126.500
  31
0.0
   0
LINE
   8
LEVEL001
   6
CONTINUOUS
  62
3
  10
 251.000
  20
 128.500
  30
0.0
  11
 262.000
  21
 128.500
  31
0.0
   0
LINE
   8
LEVEL001
   6
CONTINUOUS
  62
3
  10
 251.000
  20
 130.500
  30
0.0
  11
 262.000
  21
 130.500
  31
0.0
   0
LINE
   8
LEVEL001
   6
CONTINUOUS
  62
3
  10
 251.000
  20
 132.500
  30
0.0
  11
 262.000
  21
 132.500
  31
0.0
   0
LINE
   8
LEVEL001
   6
CONTINUOUS
  62
3
  10
 251.000
  20
 134.500
  30
0.0
  11
 262.000
  21
 134.500
  31
0.0
   0
LINE
   8
LEVEL001
   6
CONTINUOUS
  62
3
  10
 251.000
  20
 136.500
  30
0.0
  11
 262.000
  21
 136.500
  31
0.0
   0
LINE
   8
LEVEL001
   6
CONTINUOUS
  62
3
  10
 251.000
  20
 138.500
  30
0.0
  11
 262.000
  21
 138.500
  31
0.0
   0
LINE
   8
LEVEL001
   6
CONTINUOUS
  62
3
  10
 251.000
  20
 140.500
  30
0.0
  11
 262.000
  21
 140.500
  31
0.0
   0
LINE
   8
LEVEL001
   6
DASHDOT
  62
1
  10
 278.500
  20
 129.500
  30
0.0
  11
 284.500
  21
 129.500
  31
0.0
   0
LINE
   8
LEVEL001
   6
DASHDOT
  62
1
  10
 284.500
  20
 129.500
  30
0.0
  11
 284.500
  21
 125.500
  31
0.0
   0
LINE
   8
LEVEL001
   6
DASHDOT
  62
1
  10
 284.500
  20
 125.500
  30
0.0
  11
 278.500
  21
 125.500
  31
0.0
   0
LINE
   8
LEVEL001
   6
CONTINUOUS
  62
7
  10
 223.500
  20
 136.019
  30
0.0
  11
 223.500
  21
 135.000
  31
0.0
   0
LINE
   8
LEVEL001
   6
CONTINUOUS
  62
7
  10
 223.500
  20
 135.000
  30
0.0
  11
 237.500
  21
 135.000
  31
0.0
   0
LINE
   8
LEVEL001
   6
CONTINUOUS
  62
7
  10
 237.500
  20
 135.000
  30
0.0
  11
 237.500
  21
 137.000
  31
0.0
   0
LINE
   8
LEVEL001
   6
CONTINUOUS
  62
7
  10
 237.500
  20
 137.000
  30
0.0
  11
 244.500
  21
 137.000
  31
0.0
   0
LINE
   8
LEVEL001
   6
CONTINUOUS
  62
7
  10
 223.500
  20
 118.981
  30
0.0
  11
 223.500
  21
 120.000
  31
0.0
   0
LINE
   8
LEVEL001
   6
CONTINUOUS
  62
7
  10
 223.500
  20
 120.000
  30
0.0
  11
 237.500
  21
 120.000
  31
0.0
   0
LINE
   8
LEVEL001
   6
CONTINUOUS
  62
7
  10
 237.500
  20
 120.000
  30
0.0
  11
 237.500
  21
 118.000
  31
0.0
   0
LINE
   8
LEVEL001
   6
CONTINUOUS
  62
7
  10
 237.500
  20
 118.000
  30
0.0
  11
 244.500
  21
 118.000
  31
0.0
   0
LINE
   8
LEVEL001
   6
CONTINUOUS
  62
7
  10
 251.000
  20
 112.500
  30
0.0
  11
 251.000
  21
 142.500
  31
0.0
   0
LINE
   8
LEVEL001
   6
CONTINUOUS
  62
7
  10
 251.000
  20
 142.500
  30
0.0
  11
 262.000
  21
 142.500
  31
0.0
   0
LINE
   8
LEVEL001
   6
CONTINUOUS
  62
7
  10
 262.000
  20
 142.500
  30
0.0
  11
 262.000
  21
 112.500
  31
0.0
   0
LINE
   8
LEVEL001
   6
CONTINUOUS
  62
7
  10
 262.000
  20
 112.500
  30
0.0
  11
 251.000
  21
 112.500
  31
0.0
   0
LINE
   8
LEVEL001
   6
DASHDOT
  62
1
  10
 287.500
  20
 127.500
  30
0.0
  11
 30.1332
  21
 127.500
  31
0.0
   0
LINE
   8
LEVEL001
   6
DASHDOT
  62
1
  10
 287.500
  20
 347.500
  30
0.0
  11
 202.500
  21
 347.500
  31
0.0
   0
TEXT
   8
LEVEL003
  62
3
  10
 225.000
  20
 262.500
  30
0.0
  40
 6.00000
   1
４－Ｍ１２×１８Ｌ
   7
STANDARD
   0
LINE
   8
LEVEL003
   6
CONTINUOUS
  62
3
  10
 200.000
  20
 287.500
  30
0.0
  11
 217.500
  21
 262.500
  31
0.0
   0
LINE
   8
LEVEL003
   6
CONTINUOUS
  62
3
  10
 200.000
  20
 287.500
  30
0.0
  11
 201.931
  21
 283.358
  31
0.0
   0
LINE
   8
LEVEL003
   6
CONTINUOUS
  62
3
  10
 200.000
  20
 287.500
  30
0.0
  11
 203.231
  21
 284.268
  31
0.0
   0
TEXT
   8
LEVEL003
  62
7
  10
 239.191
  20
 20.2200
  30
0.0
  40
 10.0000
   1
ＯＳＡＫＡ ＪＡＣＫ
   7
STANDARD
   0
CIRCLE
   8
LEVEL003
   6
CONTINUOUS
  62
7
  10
 227.218
  20
 27.2707
  30
0.0
  40
 3.00000
   0
LINE
   8
LEVEL003
   6
CONTINUOUS
  62
7
  10
 233.106
  20
 30.2707
  30
0.0
  11
 229.297
  21
 23.6707
  31
0.0
   0
LINE
   8
LEVEL003
   6
CONTINUOUS
  62
7
  10
 229.297
  20
 23.6707
  30
0.0
  11
 221.676
  21
 23.6707
  31
0.0
   0
LINE
   8
LEVEL003
   6
CONTINUOUS
  62
7
  10
 220.809
  20
 22.1707
  30
0.0
  11
 234.430
  21
 22.1707
  31
0.0
   0
LINE
   8
LEVEL003
   6
CONTINUOUS
  62
7
  10
 234.430
  20
 22.1707
  30
0.0
  11
 239.106
  21
 30.2707
  31
0.0
   0
LINE
   8
LEVEL003
   6
CONTINUOUS
  62
7
  10
 239.106
  20
 30.2707
  30
0.0
  11
 233.106
  21
 30.2707
  31
0.0
   0
LINE
   8
LEVEL003
   6
CONTINUOUS
  62
7
  10
 221.676
  20
 23.6707
  30
0.0
  11
 220.809
  21
 22.1707
  31
0.0
   0
LINE
   8
LEVEL003
   6
CONTINUOUS
  62
3
  10
 217.500
  20
 262.500
  30
0.0
  11
 289.062
  21
 262.500
  31
0.0
   0
LINE
   8
LEVEL003
   6
CONTINUOUS
  62
3
  10
 225.000
  20
 315.000
  30
0.0
  11
 266.685
  21
 315.000
  31
0.0
   0
LINE
   8
LEVEL001
   6
CONTINUOUS
  62
7
  10
 184.250
  20
 660.500
  30
0.0
  11
 185.000
  21
 657.500
  31
0.0
   0
LINE
   8
LEVEL001
   6
CONTINUOUS
  62
7
  10
 177.500
  20
 660.500
  30
0.0
  11
 175.500
  21
 662.500
  31
0.0
   0
LINE
   8
LEVEL001
   6
CONTINUOUS
  62
7
  10
 40.5000
  20
 657.500
  30
0.0
  11
 39.5000
  21
 656.500
  31
0.0
   0
LINE
   8
LEVEL001
   6
CONTINUOUS
  62
7
  10
 39.5000
  20
 652.500
  30
0.0
  11
 39.5000
  21
 656.500
  31
0.0
   0
LINE
   8
LEVEL001
   6
CONTINUOUS
  62
7
  10
 39.0000
  20
 652.500
  30
0.0
  11
 37.5000
  21
 651.000
  31
0.0
   0
LINE
   8
LEVEL001
   6
CONTINUOUS
  62
7
  10
 37.5000
  20
 651.000
  30
0.0
  11
 37.5000
  21
 581.902
  31
0.0
   0
LINE
   8
LEVEL001
   6
CONTINUOUS
  62
3
  10
 39.0000
  20
 587.500
  30
0.0
  11
 37.5000
  21
 581.902
  31
0.0
   0
LINE
   8
LEVEL001
   6
CONTINUOUS
  62
7
  10
 70.7500
  20
 660.500
  30
0.0
  11
 70.0000
  21
 657.500
  31
0.0
   0
LINE
   8
LEVEL001
   6
CONTINUOUS
  62
7
  10
 77.5000
  20
 660.500
  30
0.0
  11
 79.5000
  21
 662.500
  31
0.0
   0
LINE
   8
LEVEL001
   6
DASHDOT
  62
1
  10
 34.5000
  20
 652.500
  30
0.0
  11
 34.5000
  21
 587.500
  31
0.0
   0
LINE
   8
LEVEL001
   6
DASHDOT
  62
1
  10
 39.0000
  20
 652.500
  30
0.0
  11
 34.5000
  21
 652.500
  31
0.0
   0
LINE
   8
LEVEL001
   6
DASHDOT
  62
1
  10
 37.5000
  20
 587.500
  30
0.0
  11
 34.5000
  21
 587.500
  31
0.0
   0
LINE
   8
LEVEL001
   6
CONTINUOUS
  62
7
  10
 175.500
  20
 662.500
  30
0.0
  11
 79.5000
  21
 662.500
  31
0.0
   0
LINE
   8
LEVEL003
   6
CONTINUOUS
  62
3
  10
 77.5000
  20
 662.000
  30
0.0
  11
 77.5000
  21
 695.500
  31
0.0
   0
LINE
   8
LEVEL003
   6
CONTINUOUS
  62
3
  10
 177.500
  20
 662.000
  30
0.0
  11
 177.500
  21
 695.500
  31
0.0
   0
LINE
   8
LEVEL003
   6
CONTINUOUS
  62
3
  10
 77.5000
  20
 692.500
  30
0.0
  11
 177.500
  21
 692.500
  31
0.0
   0
LINE
   8
LEVEL003
   6
CONTINUOUS
  62
3
  10
 77.5000
  20
 692.500
  30
0.0
  11
 82.0000
  21
 691.707
  31
0.0
   0
LINE
   8
LEVEL003
   6
CONTINUOUS
  62
3
  10
 77.5000
  20
 692.500
  30
0.0
  11
 82.0000
  21
 693.293
  31
0.0
   0
LINE
   8
LEVEL003
   6
CONTINUOUS
  62
3
  10
 177.500
  20
 692.500
  30
0.0
  11
 173.000
  21
 693.293
  31
0.0
   0
LINE
   8
LEVEL003
   6
CONTINUOUS
  62
3
  10
 177.500
  20
 692.500
  30
0.0
  11
 173.000
  21
 691.707
  31
0.0
   0
TEXT
   8
LEVEL003
  62
3
  10
 120.000
  20
 693.700
  30
0.0
  40
 6.00000
   1
%%c100
   7
STANDARD
  72
1
  11
 127.500
  21
 693.700
  31
0.0
   0
LINE
   8
LEVEL001
   6
CONTINUOUS
  62
7
  10
 214.500
  20
 657.500
  30
0.0
  11
 215.500
  21
 656.500
  31
0.0
   0
LINE
   8
LEVEL001
   6
CONTINUOUS
  62
7
  10
 215.500
  20
 652.500
  30
0.0
  11
 215.500
  21
 656.500
  31
0.0
   0
LINE
   8
LEVEL001
   6
CONTINUOUS
  62
7
  10
 216.000
  20
 652.500
  30
0.0
  11
 217.500
  21
 651.000
  31
0.0
   0
LINE
   8
LEVEL001
   6
CONTINUOUS
  62
7
  10
 217.500
  20
 651.000
  30
0.0
  11
 217.500
  21
 581.902
  31
0.0
   0
LINE
   8
LEVEL001
   6
CONTINUOUS
  62
3
  10
 216.000
  20
 587.500
  30
0.0
  11
 217.500
  21
 581.902
  31
0.0
   0
LINE
   8
LEVEL001
   6
DASHDOT
  62
1
  10
 220.500
  20
 652.500
  30
0.0
  11
 220.500
  21
 587.500
  31
0.0
   0
LINE
   8
LEVEL001
   6
DASHDOT
  62
1
  10
 216.000
  20
 652.500
  30
0.0
  11
 220.500
  21
 652.500
  31
0.0
   0
LINE
   8
LEVEL001
   6
DASHDOT
  62
1
  10
 217.500
  20
 587.500
  30
0.0
  11
 220.500
  21
 587.500
  31
0.0
   0
TEXT
   8
LEVEL003
  62
3
  10
 232.500
  20
 602.500
  30
0.0
  40
 6.00000
   1
Ｍ１８０×３
   7
STANDARD
   0
LINE
   8
LEVEL003
   6
CONTINUOUS
  62
3
  10
 217.500
  20
 617.500
  30
0.0
  11
 232.500
  21
 602.500
  31
0.0
   0
LINE
   8
LEVEL003
   6
CONTINUOUS
  62
3
  10
 217.500
  20
 617.500
  30
0.0
  11
 220.121
  21
 613.757
  31
0.0
   0
LINE
   8
LEVEL003
   6
CONTINUOUS
  62
3
  10
 217.500
  20
 617.500
  30
0.0
  11
 221.243
  21
 614.879
  31
0.0
   0
LINE
   8
LEVEL003
   6
CONTINUOUS
  62
3
  10
 177.000
  20
 662.500
  30
0.0
  11
 348.000
  21
 662.500
  31
0.0
   0
LINE
   8
LEVEL003
   6
CONTINUOUS
  62
3
  10
 345.000
  20
 662.500
  30
0.0
  11
 345.000
  21
 287.500
  31
0.0
   0
LINE
   8
LEVEL003
   6
CONTINUOUS
  62
3
  10
 345.000
  20
 662.500
  30
0.0
  11
 344.207
  21
 658.000
  31
0.0
   0
LINE
   8
LEVEL003
   6
CONTINUOUS
  62
3
  10
 345.000
  20
 662.500
  30
0.0
  11
 345.793
  21
 658.000
  31
0.0
   0
LINE
   8
LEVEL001
   6
DASHDOT
  62
1
  10
 127.500
  20
 670.000
  30
0.0
  11
 127.500
  21
 277.500
  31
0.0
   0
LINE
   8
LEVEL001
   6
CONTINUOUS
  62
7
  10
 184.250
  20
 660.500
  30
0.0
  11
 70.7500
  21
 660.500
  31
0.0
   0
LINE
   8
LEVEL001
   6
CONTINUOUS
  62
7
  10
 215.500
  20
 656.500
  30
0.0
  11
 39.5000
  21
 656.500
  31
0.0
   0
LINE
   8
LEVEL001
   6
CONTINUOUS
  62
7
  10
 214.500
  20
 657.500
  30
0.0
  11
 40.5000
  21
 657.500
  31
0.0
   0
LINE
   8
LEVEL001
   6
CONTINUOUS
  62
7
  10
 216.000
  20
 652.500
  30
0.0
  11
 39.0000
  21
 652.500
  31
0.0
   0
LINE
   8
LEVEL001
   6
CONTINUOUS
  62
3
  10
 216.000
  20
 652.500
  30
0.0
  11
 216.000
  21
 587.500
  31
0.0
   0
LINE
   8
LEVEL001
   6
CONTINUOUS
  62
3
  10
 39.0000
  20
 652.500
  30
0.0
  11
 39.0000
  21
 587.500
  31
0.0
   0
LINE
   8
LEVEL001
   6
CONTINUOUS
  62
3
  10
 37.5000
  20
 587.500
  30
0.0
  11
 217.500
  21
 587.500
  31
0.0
   0
LINE
   8
LEVEL001
   6
CONTINUOUS
  62
7
  10
 217.500
  20
 581.902
  30
0.0
  11
 37.5000
  21
 581.902
  31
0.0
   0
LINE
   8
LEVEL001
   6
CONTINUOUS
  62
3
  10
 37.5000
  20
 651.000
  30
0.0
  11
 217.500
  21
 651.000
  31
0.0
   0
LINE
   8
LEVEL001
   6
CONTINUOUS
  62
7
  10
 37.5000
  20
 289.500
  30
0.0
  11
 37.5000
  21
 581.902
  31
0.0
   0
LINE
   8
LEVEL001
   6
CONTINUOUS
  62
7
  10
 217.500
  20
 289.500
  30
0.0
  11
 217.500
  21
 581.902
  31
0.0
   0
LINE
   8
LEVEL004
   6
DOT
  62
3
  10
 157.500
  20
 660.000
  30
0.0
  11
 173.500
  21
 660.000
  31
0.0
   0
LINE
   8
LEVEL004
   6
DOT
  62
3
  10
 156.500
  20
 650.500
  30
0.0
  11
 157.500
  21
 650.500
  31
0.0
   0
LINE
   8
LEVEL004
   6
DOT
  62
3
  10
 173.500
  20
 650.500
  30
0.0
  11
 174.500
  21
 650.500
  31
0.0
   0
LINE
   8
LEVEL004
   6
DOT
  62
3
  10
 171.000
  20
 650.500
  30
0.0
  11
 171.000
  21
 645.500
  31
0.0
   0
LINE
   8
LEVEL004
   6
DOT
  62
3
  10
 160.000
  20
 650.500
  30
0.0
  11
 160.000
  21
 645.500
  31
0.0
   0
LINE
   8
LEVEL004
   6
DOT
  62
3
  10
 156.500
  20
 662.500
  30
0.0
  11
 156.500
  21
 650.500
  31
0.0
   0
LINE
   8
LEVEL004
   6
DOT
  62
3
  10
 174.500
  20
 662.500
  30
0.0
  11
 174.500
  21
 650.500
  31
0.0
   0
LINE
   8
LEVEL004
   6
DOT
  62
3
  10
 157.500
  20
 650.500
  30
0.0
  11
 173.500
  21
 650.500
  31
0.0
   0
LINE
   8
LEVEL004
   6
DOT
  62
3
  10
 173.500
  20
 650.500
  30
0.0
  11
 173.500
  21
 660.000
  31
0.0
   0
LINE
   8
LEVEL004
   6
DOT
  62
3
  10
 173.500
  20
 660.000
  30
0.0
  11
 172.634
  21
 660.500
  31
0.0
   0
LINE
   8
LEVEL004
   6
DOT
  62
3
  10
 172.634
  20
 660.500
  30
0.0
  11
 158.366
  21
 660.500
  31
0.0
   0
LINE
   8
LEVEL004
   6
DOT
  62
3
  10
 158.366
  20
 660.500
  30
0.0
  11
 157.500
  21
 660.000
  31
0.0
   0
LINE
   8
LEVEL004
   6
DOT
  62
3
  10
 157.500
  20
 660.000
  30
0.0
  11
 157.500
  21
 650.500
  31
0.0
   0
LINE
   8
LEVEL004
   6
DOT
  62
3
  10
 170.500
  20
 631.250
  30
0.0
  11
 170.500
  21
 629.500
  31
0.0
   0
LINE
   8
LEVEL004
   6
DOT
  62
3
  10
 170.500
  20
 629.500
  30
0.0
  11
 169.750
  21
 626.701
  31
0.0
   0
LINE
   8
LEVEL004
   6
DOT
  62
3
  10
 169.750
  20
 630.500
  30
0.0
  11
 169.750
  21
 650.500
  31
0.0
   0
LINE
   8
LEVEL004
   6
DOT
  62
3
  10
 160.500
  20
 631.250
  30
0.0
  11
 160.500
  21
 629.500
  31
0.0
   0
LINE
   8
LEVEL004
   6
DOT
  62
3
  10
 160.500
  20
 629.500
  30
0.0
  11
 161.250
  21
 626.701
  31
0.0
   0
LINE
   8
LEVEL004
   6
DOT
  62
3
  10
 161.250
  20
 630.500
  30
0.0
  11
 161.250
  21
 650.500
  31
0.0
   0
LINE
   8
LEVEL004
   6
DOT
  62
3
  10
 161.250
  20
 630.500
  30
0.0
  11
 161.250
  21
 626.701
  31
0.0
   0
LINE
   8
LEVEL004
   6
DOT
  62
3
  10
 161.250
  20
 626.701
  30
0.0
  11
 165.500
  21
 624.247
  31
0.0
   0
LINE
   8
LEVEL004
   6
DOT
  62
3
  10
 165.500
  20
 624.247
  30
0.0
  11
 169.750
  21
 626.701
  31
0.0
   0
LINE
   8
LEVEL004
   6
DOT
  62
3
  10
 169.750
  20
 626.701
  30
0.0
  11
 169.750
  21
 630.500
  31
0.0
   0
LINE
   8
LEVEL004
   6
DOT
  62
3
  10
 161.250
  20
 626.701
  30
0.0
  11
 169.750
  21
 626.701
  31
0.0
   0
LINE
   8
LEVEL004
   6
DOT
  62
3
  10
 160.500
  20
 629.500
  30
0.0
  11
 170.500
  21
 629.500
  31
0.0
   0
LINE
   8
LEVEL004
   6
DOT
  62
3
  10
 160.500
  20
 631.250
  30
0.0
  11
 170.500
  21
 631.250
  31
0.0
   0
LINE
   8
LEVEL004
   6
DOT
  62
3
  10
 160.500
  20
 650.500
  30
0.0
  11
 160.500
  21
 631.250
  31
0.0
   0
LINE
   8
LEVEL004
   6
DOT
  62
3
  10
 160.500
  20
 631.250
  30
0.0
  11
 161.250
  21
 630.500
  31
0.0
   0
LINE
   8
LEVEL004
   6
DOT
  62
3
  10
 161.250
  20
 630.500
  30
0.0
  11
 169.750
  21
 630.500
  31
0.0
   0
LINE
   8
LEVEL004
   6
DOT
  62
3
  10
 169.750
  20
 630.500
  30
0.0
  11
 170.500
  21
 631.250
  31
0.0
   0
LINE
   8
LEVEL004
   6
DOT
  62
3
  10
 170.500
  20
 631.250
  30
0.0
  11
 170.500
  21
 650.500
  31
0.0
   0
ARC
   8
LEVEL004
   6
DOT
  62
3
  10
 92.5000
  20
 662.497
  30
0.0
  40
 1.00000
  50
 179.841
  51
 0.158876
   0
ARC
   8
LEVEL004
   6
DOT
  62
3
  10
 110.000
  20
 662.497
  30
0.0
  40
 1.00000
  50
 179.841
  51
 0.158876
   0
ARC
   8
LEVEL004
   6
DOT
  62
3
  10
 145.000
  20
 662.497
  30
0.0
  40
 1.00000
  50
 179.841
  51
 0.158876
   0
ARC
   8
LEVEL004
   6
DOT
  62
3
  10
 162.500
  20
 662.497
  30
0.0
  40
 1.00000
  50
 179.841
  51
 0.158876
   0
LINE
   8
LEVEL004
   6
DOT
  62
3
  10
 77.5000
  20
 647.000
  30
0.0
  11
 79.0000
  21
 645.500
  31
0.0
   0
ARC
   8
LEVEL004
   6
DOT
  62
3
  10
 78.5000
  20
 646.500
  30
0.0
  40
 1.00000
  50
 179.998
  51
 270.000
   0
ARC
   8
LEVEL004
   6
DOT
  62
3
  10
 119.500
  20
 651.000
  30
0.0
  40
 1.00000
  50
 89.9996
  51
 179.999
   0
LINE
   8
LEVEL004
   6
DOT
  62
3
  10
 118.500
  20
 646.500
  30
0.0
  11
 117.500
  21
 645.500
  31
0.0
   0
LINE
   8
LEVEL004
   6
DOT
  62
3
  10
 118.500
  20
 646.500
  30
0.0
  11
 118.500
  21
 651.000
  31
0.0
   0
LINE
   8
LEVEL004
   6
DOT
  62
3
  10
 118.500
  20
 645.500
  30
0.0
  11
 78.5000
  21
 645.500
  31
0.0
   0
ARC
   8
LEVEL004
   6
DOT
  62
3
  10
 135.500
  20
 651.000
  30
0.0
  40
 1.00000
  50
 0.875970E-3
  51
 90.0004
   0
LINE
   8
LEVEL004
   6
DOT
  62
3
  10
 136.500
  20
 646.500
  30
0.0
  11
 137.500
  21
 645.500
  31
0.0
   0
LINE
   8
LEVEL004
   6
DOT
  62
3
  10
 136.500
  20
 646.500
  30
0.0
  11
 136.500
  21
 651.000
  31
0.0
   0
LINE
   8
LEVEL004
   6
DOT
  62
3
  10
 161.250
  20
 645.500
  30
0.0
  11
 136.500
  21
 645.500
  31
0.0
   0
LINE
   8
LEVEL004
   6
DOT
  62
3
  10
 135.500
  20
 652.000
  30
0.0
  11
 119.500
  21
 652.000
  31
0.0
   0
LINE
   8
LEVEL004
   6
DOT
  62
3
  10
 177.500
  20
 647.000
  30
0.0
  11
 176.000
  21
 645.500
  31
0.0
   0
ARC
   8
LEVEL004
   6
DOT
  62
3
  10
 176.500
  20
 646.500
  30
0.0
  40
 1.00000
  50
 270.001
  51
 0.174683E-2
   0
LINE
   8
LEVEL004
   6
DOT
  62
3
  10
 176.500
  20
 645.500
  30
0.0
  11
 169.750
  21
 645.500
  31
0.0
   0
LINE
   8
LEVEL004
   6
DOT
  62
3
  10
 177.500
  20
 660.000
  30
0.0
  11
 178.000
  21
 660.500
  31
0.0
   0
LINE
   8
LEVEL004
   6
DOT
  62
3
  10
 177.500
  20
 660.500
  30
0.0
  11
 177.500
  21
 646.500
  31
0.0
   0
LINE
   8
LEVEL004
   6
DOT
  62
3
  10
 77.5000
  20
 660.000
  30
0.0
  11
 77.0000
  21
 660.500
  31
0.0
   0
LINE
   8
LEVEL004
   6
DOT
  62
3
  10
 77.5000
  20
 660.500
  30
0.0
  11
 77.5000
  21
 646.500
  31
0.0
   0
LINE
   8
LEVEL004
   6
DOT
  62
3
  10
 70.0000
  20
 496.500
  30
0.0
  11
 70.0000
  21
 657.500
  31
0.0
   0
LINE
   8
LEVEL004
   6
DOT
  62
3
  10
 60.0000
  20
 588.500
  30
0.0
  11
 60.0000
  21
 339.500
  31
0.0
   0
LINE
   8
LEVEL004
   6
DOT
  62
3
  10
 195.000
  20
 588.500
  30
0.0
  11
 195.000
  21
 339.500
  31
0.0
   0
LINE
   8
LEVEL004
   6
DOT
  62
3
  10
 185.000
  20
 496.500
  30
0.0
  11
 185.000
  21
 657.500
  31
0.0
   0
LINE
   8
LEVEL004
   6
DASHDOT
  62
1
  10
 165.500
  20
 663.500
  30
0.0
  11
 165.500
  21
 621.247
  31
0.0
   0
LINE
   8
LEVEL003
   6
CONTINUOUS
  62
3
  10
 232.500
  20
 602.500
  30
0.0
  11
 274.822
  21
 602.500
  31
0.0
   0
TEXT
   8
LEVEL003
  62
3
  10
 343.800
  20
 473.500
  30
0.0
  40
 6.00000
   1
375
  50
 90.0000
  41
 0.500000
   7
STANDARD
  72
1
  11
 343.800
  21
 478.000
  31
0.0
   0
CIRCLE
   8
LEVEL004
   6
DOT
  62
3
  10
 127.500
  20
 537.500
  30
0.0
  40
 12.5000
   0
CIRCLE
   8
LEVEL004
   6
DOT
  62
3
  10
 127.500
  20
 537.500
  30
0.0
  40
 11.5000
   0
ARC
   8
LEVEL004
   6
DOT
  62
3
  10
 127.500
  20
 499.500
  30
0.0
  40
 43.5000
  50
 105.869
  51
 74.1306
   0
ARC
   8
LEVEL004
   6
DOT
  62
3
  10
 127.500
  20
 499.500
  30
0.0
  40
 32.5000
  50
 108.380
  51
 71.6203
   0
CIRCLE
   8
LEVEL004
   6
DASHDOT
  62
1
  10
 127.500
  20
 499.500
  30
0.0
  40
 38.0000
   0
LINE
   8
LEVEL003
   6
CONTINUOUS
  62
3
  10
 129.000
  20
 537.500
  30
0.0
  11
 325.500
  21
 537.500
  31
0.0
   0
LINE
   8
LEVEL003
   6
CONTINUOUS
  62
3
  10
 322.500
  20
 537.500
  30
0.0
  11
 322.500
  21
 287.500
  31
0.0
   0
LINE
   8
LEVEL003
   6
CONTINUOUS
  62
3
  10
 322.500
  20
 537.500
  30
0.0
  11
 321.707
  21
 533.000
  31
0.0
   0
LINE
   8
LEVEL003
   6
CONTINUOUS
  62
3
  10
 322.500
  20
 537.500
  30
0.0
  11
 323.293
  21
 533.000
  31
0.0
   0
TEXT
   8
LEVEL003
  62
3
  10
 321.300
  20
 409.000
  30
0.0
  40
 6.00000
   1
250
  50
 90.0000
  41
 0.500000
   7
STANDARD
  72
1
  11
 321.300
  21
 413.500
  31
0.0
   0
LINE
   8
LEVEL003
   6
CONTINUOUS
  62
3
  10
 70.0000
  20
 514.000
  30
0.0
  11
 185.000
  21
 514.000
  31
0.0
   0
LINE
   8
LEVEL003
   6
CONTINUOUS
  62
3
  10
 70.0000
  20
 514.000
  30
0.0
  11
 74.5000
  21
 513.207
  31
0.0
   0
LINE
   8
LEVEL003
   6
CONTINUOUS
  62
3
  10
 70.0000
  20
 514.000
  30
0.0
  11
 74.5000
  21
 514.793
  31
0.0
   0
LINE
   8
LEVEL003
   6
CONTINUOUS
  62
3
  10
 185.000
  20
 514.000
  30
0.0
  11
 180.500
  21
 514.793
  31
0.0
   0
LINE
   8
LEVEL003
   6
CONTINUOUS
  62
3
  10
 185.000
  20
 514.000
  30
0.0
  11
 180.500
  21
 513.207
  31
0.0
   0
TEXT
   8
LEVEL003
  62
3
  10
 120.000
  20
 515.200
  30
0.0
  40
 6.00000
   1
%%c115
   7
STANDARD
  72
1
  11
 127.500
  21
 515.200
  31
0.0
   0
LINE
   8
LEVEL003
   6
CONTINUOUS
  62
3
  10
 60.0000
  20
 499.000
  30
0.0
  11
 195.000
  21
 499.000
  31
0.0
   0
LINE
   8
LEVEL003
   6
CONTINUOUS
  62
3
  10
 60.0000
  20
 499.000
  30
0.0
  11
 64.5000
  21
 498.207
  31
0.0
   0
LINE
   8
LEVEL003
   6
CONTINUOUS
  62
3
  10
 60.0000
  20
 499.000
  30
0.0
  11
 64.5000
  21
 499.793
  31
0.0
   0
LINE
   8
LEVEL003
   6
CONTINUOUS
  62
3
  10
 195.000
  20
 499.000
  30
0.0
  11
 190.500
  21
 499.793
  31
0.0
   0
LINE
   8
LEVEL003
   6
CONTINUOUS
  62
3
  10
 195.000
  20
 499.000
  30
0.0
  11
 190.500
  21
 498.207
  31
0.0
   0
TEXT
   8
LEVEL003
  62
3
  10
 120.000
  20
 500.200
  30
0.0
  40
 6.00000
   1
%%c135
   7
STANDARD
  72
1
  11
 127.500
  21
 500.200
  31
0.0
   0
LINE
   8
LEVEL003
   6
CONTINUOUS
  62
3
  10
 37.5000
  20
 484.000
  30
0.0
  11
 217.500
  21
 484.000
  31
0.0
   0
LINE
   8
LEVEL003
   6
CONTINUOUS
  62
3
  10
 37.5000
  20
 484.000
  30
0.0
  11
 42.0000
  21
 483.207
  31
0.0
   0
LINE
   8
LEVEL003
   6
CONTINUOUS
  62
3
  10
 37.5000
  20
 484.000
  30
0.0
  11
 42.0000
  21
 484.793
  31
0.0
   0
LINE
   8
LEVEL003
   6
CONTINUOUS
  62
3
  10
 217.500
  20
 484.000
  30
0.0
  11
 213.000
  21
 484.793
  31
0.0
   0
LINE
   8
LEVEL003
   6
CONTINUOUS
  62
3
  10
 217.500
  20
 484.000
  30
0.0
  11
 213.000
  21
 483.207
  31
0.0
   0
TEXT
   8
LEVEL003
  62
3
  10
 120.000
  20
 485.200
  30
0.0
  40
 6.00000
   1
%%c180
   7
STANDARD
  72
1
  11
 127.500
  21
 485.200
  31
0.0
   0
TEXT
   8
LEVEL003
  62
7
  10
 242.102
  20
 37.1134
  30
0.0
  40
 6.00000
   1
Model : Ｅ１００Ｓ２０
   7
STANDARD
   0
LINE
   8
LEVEL003
   6
CONTINUOUS
  62
3
  10
 215.500
  20
 657.500
  30
0.0
  11
 324.500
  21
 657.500
  31
0.0
   0
LINE
   8
LEVEL003
   6
CONTINUOUS
  62
3
  10
 221.500
  20
 587.500
  30
0.0
  11
 324.500
  21
 587.500
  31
0.0
   0
LINE
   8
LEVEL003
   6
CONTINUOUS
  62
3
  10
 322.500
  20
 657.500
  30
0.0
  11
 322.500
  21
 587.500
  31
0.0
   0
LINE
   8
LEVEL003
   6
CONTINUOUS
  62
3
  10
 322.500
  20
 657.500
  30
0.0
  11
 321.971
  21
 654.500
  31
0.0
   0
LINE
   8
LEVEL003
   6
CONTINUOUS
  62
3
  10
 322.500
  20
 657.500
  30
0.0
  11
 323.029
  21
 654.500
  31
0.0
   0
LINE
   8
LEVEL003
   6
CONTINUOUS
  62
3
  10
 322.500
  20
 587.500
  30
0.0
  11
 323.029
  21
 590.500
  31
0.0
   0
LINE
   8
LEVEL003
   6
CONTINUOUS
  62
3
  10
 322.500
  20
 587.500
  30
0.0
  11
 321.971
  21
 590.500
  31
0.0
   0
TEXT
   8
LEVEL003
  62
3
  10
 321.700
  20
 618.500
  30
0.0
  40
 4.00000
   1
70
  50
 90.0000
   7
STANDARD
  72
1
  11
 321.700
  21
 622.500
  31
0.0
   0
LINE
   8
LEVEL003
   6
CONTINUOUS
  62
3
  10
 215.500
  20
 657.500
  30
0.0
  11
 295.398
  21
 657.500
  31
0.0
   0
LINE
   8
LEVEL003
   6
CONTINUOUS
  62
3
  10
 221.500
  20
 652.500
  30
0.0
  11
 295.398
  21
 652.500
  31
0.0
   0
LINE
   8
LEVEL003
   6
CONTINUOUS
  62
3
  10
 293.398
  20
 657.500
  30
0.0
  11
 293.398
  21
 652.500
  31
0.0
   0
LINE
   8
LEVEL003
   6
CONTINUOUS
  62
3
  10
 293.398
  20
 652.500
  30
0.0
  11
 293.398
  21
 643.000
  31
0.0
   0
LINE
   8
LEVEL003
   6
CONTINUOUS
  62
3
  10
 293.398
  20
 657.500
  30
0.0
  11
 293.927
  21
 660.500
  31
0.0
   0
LINE
   8
LEVEL003
   6
CONTINUOUS
  62
3
  10
 293.398
  20
 657.500
  30
0.0
  11
 292.869
  21
 660.500
  31
0.0
   0
LINE
   8
LEVEL003
   6
CONTINUOUS
  62
3
  10
 293.398
  20
 652.500
  30
0.0
  11
 292.869
  21
 649.500
  31
0.0
   0
LINE
   8
LEVEL003
   6
CONTINUOUS
  62
3
  10
 293.398
  20
 652.500
  30
0.0
  11
 293.927
  21
 649.500
  31
0.0
   0
LINE
   8
LEVEL003
   6
CONTINUOUS
  62
3
  10
 293.398
  20
 657.500
  30
0.0
  11
 293.398
  21
 661.250
  31
0.0
   0
LINE
   8
LEVEL003
   6
CONTINUOUS
  62
3
  10
 293.398
  20
 652.500
  30
0.0
  11
 293.398
  21
 643.000
  31
0.0
   0
TEXT
   8
LEVEL003
  62
3
  10
 292.598
  20
 643.000
  30
0.0
  40
 4.00000
   1
5
  50
 90.0000
   7
STANDARD
  72
1
  11
 292.598
  21
 645.000
  31
0.0
   0
LINE
   8
LEVEL003
   6
CONTINUOUS
  62
3
  10
 176.500
  20
 662.500
  30
0.0
  11
 295.398
  21
 662.500
  31
0.0
   0
LINE
   8
LEVEL003
   6
CONTINUOUS
  62
3
  10
 215.500
  20
 657.500
  30
0.0
  11
 295.398
  21
 657.500
  31
0.0
   0
LINE
   8
LEVEL003
   6
CONTINUOUS
  62
3
  10
 293.398
  20
 662.500
  30
0.0
  11
 293.398
  21
 657.500
  31
0.0
   0
LINE
   8
LEVEL003
   6
CONTINUOUS
  62
3
  10
 293.398
  20
 662.500
  30
0.0
  11
 293.398
  21
 667.000
  31
0.0
   0
LINE
   8
LEVEL003
   6
CONTINUOUS
  62
3
  10
 293.398
  20
 662.500
  30
0.0
  11
 293.927
  21
 665.500
  31
0.0
   0
LINE
   8
LEVEL003
   6
CONTINUOUS
  62
3
  10
 293.398
  20
 662.500
  30
0.0
  11
 292.869
  21
 665.500
  31
0.0
   0
LINE
   8
LEVEL003
   6
CONTINUOUS
  62
3
  10
 293.398
  20
 657.500
  30
0.0
  11
 292.869
  21
 654.500
  31
0.0
   0
LINE
   8
LEVEL003
   6
CONTINUOUS
  62
3
  10
 293.398
  20
 657.500
  30
0.0
  11
 293.927
  21
 654.500
  31
0.0
   0
LINE
   8
LEVEL003
   6
CONTINUOUS
  62
3
  10
 293.398
  20
 662.500
  30
0.0
  11
 293.398
  21
 667.000
  31
0.0
   0
LINE
   8
LEVEL003
   6
CONTINUOUS
  62
3
  10
 293.398
  20
 657.500
  30
0.0
  11
 293.398
  21
 653.750
  31
0.0
   0
TEXT
   8
LEVEL003
  62
3
  10
 292.598
  20
 663.000
  30
0.0
  40
 4.00000
   1
5
  50
 90.0000
   7
STANDARD
  72
1
  11
 292.598
  21
 665.000
  31
0.0
   0
ENDSEC
   0
EOF
