   0
SECTION
   2
HEADER
   9
$LIMMIN
  10
0.0
  20
0.0
   9
$LIMMAX
  10
 420.000
  20
 297.000
   9
$EXTMIN
  10
0.0
  20
0.0
   9
$EXTMAX
  10
 420.000
  20
 297.000
   9
$LTSCALE
  40
 8.40000
   0
ENDSEC
   0
SECTION
   2
TABLES
  0
TABLE
  2
LTYPE
 70
    25
  0
LTYPE
  2
CONTINUOUS
 70
    64
  3
Solid line
 72
    65
 73
     0
 40
0.0
  0
LTYPE
  2
BORDER
 70
    64
  3
__ __ . __ __ . __ __ . __ __ . __ __ . __ __ .
 72
    65
 73
     6
 40
1.75
 49
0.5
 49
-0.25
 49
0.5
 49
-0.25
 49
0.0
 49
-0.25
  0
LTYPE
  2
BORDER2
 70
    64
  3
__.__.__.__.__.__.__.__.__.__.__.__.__.__.__.__
 72
    65
 73
     6
 40
0.875
 49
0.25
 49
-0.125
 49
0.25
 49
-0.125
 49
0.0
 49
-0.125
  0
LTYPE
  2
BORDERX2
 70
    64
  3
____  ____  .  ____  ____  .  ____  ____  .  __
 72
    65
 73
     6
 40
3.5
 49
1.0
 49
-0.5
 49
1.0
 49
-0.5
 49
0.0
 49
-0.5
  0
LTYPE
  2
CENTER
 70
    64
  3
____ _ ____ _ ____ _ ____ _ ____ _ ____ _ ____ 
 72
    65
 73
     4
 40
2.0
 49
1.25
 49
-0.25
 49
0.25
 49
-0.25
  0
LTYPE
  2
CENTER2
 70
    64
  3
___ _ ___ _ ___ _ ___ _ ___ _ ___ _ ___ _ ___ _
 72
    65
 73
     4
 40
1.125
 49
0.75
 49
-0.125
 49
0.125
 49
-0.125
  0
LTYPE
  2
CENTERX2
 70
    64
  3
________  __  ________  __  ________  __  _____
 72
    65
 73
     4
 40
4.0
 49
2.5
 49
-0.5
 49
0.5
 49
-0.5
  0
LTYPE
  2
DASHDOT
 70
    64
  3
__ . __ . __ . __ . __ . __ . __ . __ . __ . __
 72
    65
 73
     4
 40
1.0
 49
0.5
 49
-0.25
 49
0.0
 49
-0.25
  0
LTYPE
  2
DASHDOT2
 70
    64
  3
_._._._._._._._._._._._._._._._._._._._._._._._
 72
    65
 73
     4
 40
0.5
 49
0.25
 49
-0.125
 49
0.0
 49
-0.125
  0
LTYPE
  2
DASHDOTX2
 70
    64
  3
____  .  ____  .  ____  .  ____  .  ____  .  __
 72
    65
 73
     4
 40
2.0
 49
1.0
 49
-0.5
 49
0.0
 49
-0.5
  0
LTYPE
  2
DASHED
 70
    64
  3
__ __ __ __ __ __ __ __ __ __ __ __ __ __ __ __
 72
    65
 73
     2
 40
0.75
 49
0.5
 49
-0.25
  0
LTYPE
  2
DASHED2
 70
    64
  3
_ _ _ _ _ _ _ _ _ _ _ _ _ _ _ _ _ _ _ _ _ _ _ _
 72
    65
 73
     2
 40
0.375
 49
0.25
 49
-0.125
  0
LTYPE
  2
DASHEDX2
 70
    64
  3
____  ____  ____  ____  ____  ____  ____  ____ 
 72
    65
 73
     2
 40
1.5
 49
1.0
 49
-0.5
  0
LTYPE
  2
DIVIDE
 70
    64
  3
____ . . ____ . . ____ . . ____ . . ____ . . __
 72
    65
 73
     6
 40
1.25
 49
0.5
 49
-0.25
 49
0.0
 49
-0.25
 49
0.0
 49
-0.25
  0
LTYPE
  2
DIVIDE2
 70
    64
  3
__..__..__..__..__..__..__..__..__..__..__..__.
 72
    65
 73
     6
 40
0.625
 49
0.25
 49
-0.125
 49
0.0
 49
-0.125
 49
0.0
 49
-0.125
  0
LTYPE
  2
DIVIDEX2
 70
    64
  3
________  .  .  ________  .  .  ________  .  . 
 72
    65
 73
     6
 40
2.5
 49
1.0
 49
-0.5
 49
0.0
 49
-0.5
 49
0.0
 49
-0.5
  0
LTYPE
  2
DOT
 70
    64
  3
. . . . . . . . . . . . . . . . . . . . . . . .
 72
    65
 73
     2
 40
0.25
 49
0.0
 49
-0.25
  0
LTYPE
  2
DOT2
 70
    64
  3
...............................................
 72
    65
 73
     2
 40
0.125
 49
0.0
 49
-0.125
  0
LTYPE
  2
DOTX2
 70
    64
  3
.  .  .  .  .  .  .  .  .  .  .  .  .  .  .  . 
 72
    65
 73
     2
 40
0.5
 49
0.0
 49
-0.5
  0
LTYPE
  2
HIDDEN
 70
    64
  3
__ __ __ __ __ __ __ __ __ __ __ __ __ __ __ __
 72
    65
 73
     2
 40
0.375
 49
0.25
 49
-0.125
  0
LTYPE
  2
HIDDEN2
 70
    64
  3
_ _ _ _ _ _ _ _ _ _ _ _ _ _ _ _ _ _ _ _ _ _ _ _
 72
    65
 73
     2
 40
0.1875
 49
0.125
 49
-0.0625
  0
LTYPE
  2
HIDDENX2
 70
    64
  3
____ ____ ____ ____ ____ ____ ____ ____ ____ __
 72
    65
 73
     2
 40
0.75
 49
0.5
 49
-0.25
  0
LTYPE
  2
PHANTOM
 70
    64
  3
______  __  __  ______  __  __  ______  __  __ 
 72
    65
 73
     6
 40
2.5
 49
1.25
 49
-0.25
 49
0.25
 49
-0.25
 49
0.25
 49
-0.25
  0
LTYPE
  2
PHANTOM2
 70
    64
  3
___ _ _ ___ _ _ ___ _ _ ___ _ _ ___ _ _ ___ _ _
 72
    65
 73
     6
 40
1.25
 49
0.625
 49
-0.125
 49
0.125
 49
-0.125
 49
0.125
 49
-0.125
  0
LTYPE
  2
PHANTOMX2
 70
    64
  3
____________    ____    ____    ____________   
 72
    65
 73
     6
 40
5.0
 49
2.5
 49
-0.5
 49
0.5
 49
-0.5
 49
0.5
 49
-0.5
  0
ENDTAB
  0
TABLE
  2
STYLE
 70
     2
  0
STYLE
  2
STANDARD
 70
0
 40
0.0
 41
1.0
 50
0.0
 71
0
 42
0.2
  3
TXT
  4
BIGFONT
  0
STYLE
  2
STANDARD1
 70
     4
 40
0.0
 41
1.0
 50
0.0
 71
     0
 42
0.2
  3
TXT
  4
BIGFONT
  0
ENDTAB
   0
TABLE
   2
LAYER
  70
4
   0
LAYER
   2
0
  70
0
  62
7
   6
CONTINUOUS
   0
LAYER
   2
LEVEL001
  70
0
  62
7
   6
CONTINUOUS
   0
LAYER
   2
LEVEL003
  70
0
  62
7
   6
CONTINUOUS
   0
LAYER
   2
LEVEL004
  70
0
  62
7
   6
CONTINUOUS
   0
ENDTAB
   0
ENDSEC
   0
SECTION
   2
ENTITIES
   0
LINE
   8
LEVEL001
   6
CONTINUOUS
  62
7
  10
 102.250
  20
 254.000
  30
0.0
  11
 102.250
  21
 256.000
  31
0.0
   0
LINE
   8
LEVEL001
   6
CONTINUOUS
  62
7
  10
 102.750
  20
 254.000
  30
0.0
  11
 103.500
  21
 253.250
  31
0.0
   0
LINE
   8
LEVEL001
   6
CONTINUOUS
  62
7
  10
 103.500
  20
 253.250
  30
0.0
  11
 103.500
  21
 227.201
  31
0.0
   0
LINE
   8
LEVEL001
   6
CONTINUOUS
  62
3
  10
 102.750
  20
 230.000
  30
0.0
  11
 103.500
  21
 227.201
  31
0.0
   0
LINE
   8
LEVEL001
   6
CONTINUOUS
  62
7
  10
 47.7500
  20
 256.000
  30
0.0
  11
 48.7500
  21
 257.000
  31
0.0
   0
LINE
   8
LEVEL001
   6
CONTINUOUS
  62
7
  10
 47.7500
  20
 254.000
  30
0.0
  11
 47.7500
  21
 256.000
  31
0.0
   0
LINE
   8
LEVEL001
   6
CONTINUOUS
  62
7
  10
 47.2500
  20
 254.000
  30
0.0
  11
 46.5000
  21
 253.250
  31
0.0
   0
LINE
   8
LEVEL001
   6
CONTINUOUS
  62
7
  10
 46.5000
  20
 253.250
  30
0.0
  11
 46.5000
  21
 227.201
  31
0.0
   0
LINE
   8
LEVEL001
   6
CONTINUOUS
  62
3
  10
 47.2500
  20
 230.000
  30
0.0
  11
 46.5000
  21
 227.201
  31
0.0
   0
LINE
   8
LEVEL001
   6
DASHDOT
  62
1
  10
 106.500
  20
 254.000
  30
0.0
  11
 106.500
  21
 230.000
  31
0.0
   0
LINE
   8
LEVEL001
   6
DASHDOT
  62
1
  10
 102.750
  20
 254.000
  30
0.0
  11
 106.500
  21
 254.000
  31
0.0
   0
LINE
   8
LEVEL001
   6
DASHDOT
  62
1
  10
 103.500
  20
 230.000
  30
0.0
  11
 106.500
  21
 230.000
  31
0.0
   0
LINE
   8
LEVEL001
   6
DASHDOT
  62
1
  10
 43.5000
  20
 254.000
  30
0.0
  11
 43.5000
  21
 230.000
  31
0.0
   0
LINE
   8
LEVEL001
   6
DASHDOT
  62
1
  10
 47.2500
  20
 254.000
  30
0.0
  11
 43.5000
  21
 254.000
  31
0.0
   0
LINE
   8
LEVEL001
   6
DASHDOT
  62
1
  10
 46.5000
  20
 230.000
  30
0.0
  11
 43.5000
  21
 230.000
  31
0.0
   0
POINT
   8
LEVEL001
  62
7
  10
 102.504
  20
 103.913
  30
0.0
   0
LINE
   8
LEVEL001
   6
CONTINUOUS
  62
7
  10
 103.500
  20
 87.0000
  30
0.0
  11
 101.500
  21
 85.0000
  31
0.0
   0
LINE
   8
LEVEL001
   6
CONTINUOUS
  62
7
  10
 46.5000
  20
 87.0000
  30
0.0
  11
 48.5000
  21
 85.0000
  31
0.0
   0
LINE
   8
LEVEL001
   6
CONTINUOUS
  62
7
  10
 48.5000
  20
 85.0000
  30
0.0
  11
 101.500
  21
 85.0000
  31
0.0
   0
LINE
   8
LEVEL001
   6
CONTINUOUS
  62
7
  10
 46.5000
  20
 87.0000
  30
0.0
  11
 46.5000
  21
 227.201
  31
0.0
   0
TEXT
   8
LEVEL003
  62
3
  10
 115.000
  20
 75.0000
  30
0.0
  40
 4.00000
   1
ＮＰＴ３／８
   7
STANDARD
   0
LINE
   8
LEVEL003
   6
CONTINUOUS
  62
3
  10
 106.375
  20
 95.7899
  30
0.0
  11
 115.000
  21
 75.0000
  31
0.0
   0
LINE
   8
LEVEL003
   6
CONTINUOUS
  62
3
  10
 106.375
  20
 95.7899
  30
0.0
  11
 107.036
  21
 92.8162
  31
0.0
   0
LINE
   8
LEVEL003
   6
CONTINUOUS
  62
3
  10
 106.375
  20
 95.7899
  30
0.0
  11
 108.013
  21
 93.2216
  31
0.0
   0
LINE
   8
LEVEL003
   6
CONTINUOUS
  62
3
  10
 56.0000
  20
 185.000
  30
0.0
  11
 94.0000
  21
 185.000
  31
0.0
   0
LINE
   8
LEVEL003
   6
CONTINUOUS
  62
3
  10
 56.0000
  20
 185.000
  30
0.0
  11
 59.0000
  21
 184.471
  31
0.0
   0
LINE
   8
LEVEL003
   6
CONTINUOUS
  62
3
  10
 56.0000
  20
 185.000
  30
0.0
  11
 59.0000
  21
 185.529
  31
0.0
   0
LINE
   8
LEVEL003
   6
CONTINUOUS
  62
3
  10
 94.0000
  20
 185.000
  30
0.0
  11
 91.0000
  21
 185.529
  31
0.0
   0
LINE
   8
LEVEL003
   6
CONTINUOUS
  62
3
  10
 94.0000
  20
 185.000
  30
0.0
  11
 91.0000
  21
 184.471
  31
0.0
   0
TEXT
   8
LEVEL003
  62
3
  10
 71.0000
  20
 185.800
  30
0.0
  40
 4.00000
   1
%%c38
   7
STANDARD
  72
1
  11
 75.0000
  21
 185.800
  31
0.0
   0
LINE
   8
LEVEL003
   6
CONTINUOUS
  62
3
  10
 53.5000
  20
 175.000
  30
0.0
  11
 96.5000
  21
 175.000
  31
0.0
   0
LINE
   8
LEVEL003
   6
CONTINUOUS
  62
3
  10
 53.5000
  20
 175.000
  30
0.0
  11
 56.5000
  21
 174.471
  31
0.0
   0
LINE
   8
LEVEL003
   6
CONTINUOUS
  62
3
  10
 53.5000
  20
 175.000
  30
0.0
  11
 56.5000
  21
 175.529
  31
0.0
   0
LINE
   8
LEVEL003
   6
CONTINUOUS
  62
3
  10
 96.5000
  20
 175.000
  30
0.0
  11
 93.5000
  21
 175.529
  31
0.0
   0
LINE
   8
LEVEL003
   6
CONTINUOUS
  62
3
  10
 96.5000
  20
 175.000
  30
0.0
  11
 93.5000
  21
 174.471
  31
0.0
   0
TEXT
   8
LEVEL003
  62
3
  10
 71.0000
  20
 175.800
  30
0.0
  40
 4.00000
   1
%%c43
   7
STANDARD
  72
1
  11
 75.0000
  21
 175.800
  31
0.0
   0
LINE
   8
LEVEL003
   6
CONTINUOUS
  62
3
  10
 46.5000
  20
 165.000
  30
0.0
  11
 103.500
  21
 165.000
  31
0.0
   0
LINE
   8
LEVEL003
   6
CONTINUOUS
  62
3
  10
 46.5000
  20
 165.000
  30
0.0
  11
 49.5000
  21
 164.471
  31
0.0
   0
LINE
   8
LEVEL003
   6
CONTINUOUS
  62
3
  10
 46.5000
  20
 165.000
  30
0.0
  11
 49.5000
  21
 165.529
  31
0.0
   0
LINE
   8
LEVEL003
   6
CONTINUOUS
  62
3
  10
 103.500
  20
 165.000
  30
0.0
  11
 100.500
  21
 165.529
  31
0.0
   0
LINE
   8
LEVEL003
   6
CONTINUOUS
  62
3
  10
 103.500
  20
 165.000
  30
0.0
  11
 100.500
  21
 164.471
  31
0.0
   0
TEXT
   8
LEVEL003
  62
3
  10
 71.0000
  20
 165.800
  30
0.0
  40
 4.00000
   1
%%c57
   7
STANDARD
  72
1
  11
 75.0000
  21
 165.800
  31
0.0
   0
TEXT
   8
LEVEL003
  62
3
  10
 135.000
  20
 235.000
  30
0.0
  40
 4.00000
   1
Ｍ５７×１．５
   7
STANDARD
   0
LINE
   8
LEVEL003
   6
CONTINUOUS
  62
3
  10
 103.500
  20
 245.000
  30
0.0
  11
 125.000
  21
 235.000
  31
0.0
   0
LINE
   8
LEVEL003
   6
CONTINUOUS
  62
3
  10
 125.000
  20
 235.000
  30
0.0
  11
 165.000
  21
 235.000
  31
0.0
   0
LINE
   8
LEVEL003
   6
CONTINUOUS
  62
3
  10
 103.500
  20
 245.000
  30
0.0
  11
 105.997
  21
 243.255
  31
0.0
   0
LINE
   8
LEVEL003
   6
CONTINUOUS
  62
3
  10
 103.500
  20
 245.000
  30
0.0
  11
 106.443
  21
 244.214
  31
0.0
   0
TEXT
   8
LEVEL003
  62
3
  10
 100.000
  20
 270.000
  30
0.0
  40
 4.00000
   1
Ｍ２７×２
   7
STANDARD
   0
LINE
   8
LEVEL003
   6
CONTINUOUS
  62
3
  10
 57.5000
  20
 263.500
  30
0.0
  11
 57.5000
  21
 277.000
  31
0.0
   0
LINE
   8
LEVEL003
   6
CONTINUOUS
  62
3
  10
 92.5000
  20
 263.500
  30
0.0
  11
 92.5000
  21
 277.000
  31
0.0
   0
LINE
   8
LEVEL003
   6
CONTINUOUS
  62
3
  10
 57.5000
  20
 275.000
  30
0.0
  11
 92.5000
  21
 275.000
  31
0.0
   0
LINE
   8
LEVEL003
   6
CONTINUOUS
  62
3
  10
 57.5000
  20
 275.000
  30
0.0
  11
 60.5000
  21
 274.471
  31
0.0
   0
LINE
   8
LEVEL003
   6
CONTINUOUS
  62
3
  10
 57.5000
  20
 275.000
  30
0.0
  11
 60.5000
  21
 275.529
  31
0.0
   0
LINE
   8
LEVEL003
   6
CONTINUOUS
  62
3
  10
 92.5000
  20
 275.000
  30
0.0
  11
 89.5000
  21
 275.529
  31
0.0
   0
LINE
   8
LEVEL003
   6
CONTINUOUS
  62
3
  10
 92.5000
  20
 275.000
  30
0.0
  11
 89.5000
  21
 274.471
  31
0.0
   0
TEXT
   8
LEVEL003
  62
3
  10
 71.0000
  20
 275.800
  30
0.0
  40
 4.00000
   1
%%c35
   7
STANDARD
  72
1
  11
 75.0000
  21
 275.800
  31
0.0
   0
LINE
   8
LEVEL003
   6
CONTINUOUS
  62
3
  10
 88.5000
  20
 250.000
  30
0.0
  11
 100.000
  21
 270.000
  31
0.0
   0
LINE
   8
LEVEL003
   6
CONTINUOUS
  62
3
  10
 100.000
  20
 270.000
  30
0.0
  11
 120.000
  21
 270.000
  31
0.0
   0
LINE
   8
LEVEL003
   6
CONTINUOUS
  62
3
  10
 88.5000
  20
 250.000
  30
0.0
  11
 90.4540
  21
 252.337
  31
0.0
   0
LINE
   8
LEVEL003
   6
CONTINUOUS
  62
3
  10
 88.5000
  20
 250.000
  30
0.0
  11
 89.5368
  21
 252.864
  31
0.0
   0
LINE
   8
LEVEL001
   6
CONTINUOUS
  62
3
  10
 111.712
  20
 113.395
  30
0.0
  11
 108.194
  21
 112.115
  31
0.0
   0
LINE
   8
LEVEL001
   6
CONTINUOUS
  62
3
  10
 113.219
  20
 96.1738
  30
0.0
  11
 109.532
  21
 96.8239
  31
0.0
   0
LINE
   8
LEVEL001
   6
CONTINUOUS
  62
7
  10
 111.712
  20
 113.395
  30
0.0
  11
 113.116
  21
 114.378
  31
0.0
   0
LINE
   8
LEVEL001
   6
CONTINUOUS
  62
7
  10
 128.573
  20
 115.730
  30
0.0
  11
 113.116
  21
 114.378
  31
0.0
   0
LINE
   8
LEVEL001
   6
CONTINUOUS
  62
7
  10
 113.219
  20
 96.1738
  30
0.0
  11
 114.772
  21
 95.4498
  31
0.0
   0
LINE
   8
LEVEL001
   6
CONTINUOUS
  62
7
  10
 130.229
  20
 96.8022
  30
0.0
  11
 114.772
  21
 95.4498
  31
0.0
   0
ARC
   8
LEVEL001
   6
CONTINUOUS
  62
7
  10
 129.762
  20
 119.347
  30
0.0
  40
 1.50000
  50
 95.0001
  51
 185.000
   0
LINE
   8
LEVEL001
   6
CONTINUOUS
  62
7
  10
 129.632
  20
 120.842
  30
0.0
  11
 134.613
  21
 121.277
  31
0.0
   0
ARC
   8
LEVEL001
   6
CONTINUOUS
  62
7
  10
 132.028
  20
 93.4462
  30
0.0
  40
 1.50000
  50
 185.000
  51
 275.000
   0
LINE
   8
LEVEL001
   6
CONTINUOUS
  62
7
  10
 130.534
  20
 93.3155
  30
0.0
  11
 128.268
  21
 119.217
  31
0.0
   0
LINE
   8
LEVEL001
   6
CONTINUOUS
  62
7
  10
 132.159
  20
 91.9519
  30
0.0
  11
 137.140
  21
 92.3877
  31
0.0
   0
ARC
   8
LEVEL001
   6
CONTINUOUS
  62
7
  10
 150.682
  20
 121.178
  30
0.0
  40
 1.50000
  50
 4.99979
  51
 95.0002
   0
LINE
   8
LEVEL001
   6
CONTINUOUS
  62
7
  10
 145.571
  20
 122.236
  30
0.0
  11
 150.552
  21
 122.672
  31
0.0
   0
ARC
   8
LEVEL001
   6
CONTINUOUS
  62
7
  10
 152.948
  20
 95.2765
  30
0.0
  40
 1.50000
  50
 275.000
  51
 4.99990
   0
LINE
   8
LEVEL001
   6
CONTINUOUS
  62
7
  10
 148.098
  20
 93.3464
  30
0.0
  11
 153.079
  21
 93.7822
  31
0.0
   0
LINE
   8
LEVEL001
   6
CONTINUOUS
  62
7
  10
 152.177
  20
 121.308
  30
0.0
  11
 154.443
  21
 95.4072
  31
0.0
   0
ARC
   8
LEVEL001
   6
DASHDOT
  62
1
  10
 161.142
  20
 122.093
  30
0.0
  40
 1.00000
  50
 4.99976
  51
 95.0005
   0
LINE
   8
LEVEL001
   6
DASHDOT
  62
1
  10
 153.086
  20
 122.392
  30
0.0
  11
 161.055
  21
 123.089
  31
0.0
   0
ARC
   8
LEVEL001
   6
DASHDOT
  62
1
  10
 163.409
  20
 96.1916
  30
0.0
  40
 1.00000
  50
 275.000
  51
 5.00002
   0
LINE
   8
LEVEL001
   6
DASHDOT
  62
1
  10
 155.526
  20
 94.4982
  30
0.0
  11
 163.496
  21
 95.1954
  31
0.0
   0
LINE
   8
LEVEL001
   6
DASHDOT
  62
1
  10
 162.139
  20
 122.180
  30
0.0
  11
 164.405
  21
 96.2788
  31
0.0
   0
CIRCLE
   8
LEVEL001
   6
DASHDOT
  62
1
  10
 166.260
  20
 109.491
  30
0.0
  40
 1.50000
   0
ARC
   8
LEVEL001
   6
DASHDOT
  62
1
  10
 155.439
  20
 95.4944
  30
0.0
  40
 1.00000
  50
 185.000
  51
 275.000
   0
ARC
   8
LEVEL001
   6
DASHDOT
  62
1
  10
 153.173
  20
 121.395
  30
0.0
  40
 1.00000
  50
 95.0007
  51
 185.000
   0
ARC
   8
LEVEL001
   6
DASHDOT
  62
1
  10
 164.785
  20
 114.883
  30
0.0
  40
 2.00000
  50
 185.000
  51
 275.000
   0
ARC
   8
LEVEL001
   6
DASHDOT
  62
1
  10
 165.743
  20
 103.925
  30
0.0
  40
 2.00000
  50
 95.0002
  51
 185.000
   0
LINE
   8
LEVEL001
   6
DASHDOT
  62
1
  10
 164.959
  20
 112.890
  30
0.0
  11
 165.457
  21
 112.934
  31
0.0
   0
LINE
   8
LEVEL001
   6
DASHDOT
  62
1
  10
 165.569
  20
 105.917
  30
0.0
  11
 166.067
  21
 105.961
  31
0.0
   0
ARC
   8
LEVEL001
   6
DASHDOT
  62
1
  10
 165.758
  20
 109.447
  30
0.0
  40
 3.50000
  50
 275.065
  51
 94.9347
   0
LINE
   8
LEVEL001
   6
CONTINUOUS
  62
7
  10
 114.772
  20
 95.4498
  30
0.0
  11
 114.452
  21
 99.1049
  31
0.0
   0
LINE
   8
LEVEL001
   6
CONTINUOUS
  62
7
  10
 113.435
  20
 110.722
  30
0.0
  11
 113.116
  21
 114.378
  31
0.0
   0
LINE
   8
LEVEL001
   6
CONTINUOUS
  62
7
  10
 108.833
  20
 100.412
  30
0.0
  11
 121.919
  21
 111.465
  31
0.0
   0
LINE
   8
LEVEL001
   6
CONTINUOUS
  62
7
  10
 108.129
  20
 108.460
  30
0.0
  11
 122.936
  21
 99.8472
  31
0.0
   0
LINE
   8
LEVEL001
   6
CONTINUOUS
  62
3
  10
 108.194
  20
 112.114
  30
0.0
  11
 108.511
  21
 108.493
  31
0.0
   0
LINE
   8
LEVEL001
   6
CONTINUOUS
  62
3
  10
 109.215
  20
 100.445
  30
0.0
  11
 109.532
  21
 96.8239
  31
0.0
   0
LINE
   8
LEVEL001
   6
CONTINUOUS
  62
7
  10
 111.712
  20
 113.395
  30
0.0
  11
 112.091
  21
 109.065
  31
0.0
   0
LINE
   8
LEVEL001
   6
CONTINUOUS
  62
7
  10
 112.840
  20
 100.504
  30
0.0
  11
 113.219
  21
 96.1738
  31
0.0
   0
LINE
   8
LEVEL001
   6
CONTINUOUS
  62
3
  10
 137.009
  20
 93.8820
  30
0.0
  11
 147.967
  21
 94.8407
  31
0.0
   0
LINE
   8
LEVEL001
   6
CONTINUOUS
  62
3
  10
 136.835
  20
 95.8744
  30
0.0
  11
 147.793
  21
 96.8331
  31
0.0
   0
LINE
   8
LEVEL001
   6
CONTINUOUS
  62
3
  10
 136.661
  20
 97.8668
  30
0.0
  11
 147.619
  21
 98.8255
  31
0.0
   0
LINE
   8
LEVEL001
   6
CONTINUOUS
  62
3
  10
 136.486
  20
 99.8592
  30
0.0
  11
 147.445
  21
 100.818
  31
0.0
   0
LINE
   8
LEVEL001
   6
CONTINUOUS
  62
3
  10
 136.312
  20
 101.852
  30
0.0
  11
 147.270
  21
 102.810
  31
0.0
   0
LINE
   8
LEVEL001
   6
CONTINUOUS
  62
3
  10
 136.138
  20
 103.844
  30
0.0
  11
 147.096
  21
 104.803
  31
0.0
   0
LINE
   8
LEVEL001
   6
CONTINUOUS
  62
3
  10
 135.963
  20
 105.836
  30
0.0
  11
 146.922
  21
 106.795
  31
0.0
   0
LINE
   8
LEVEL001
   6
CONTINUOUS
  62
3
  10
 135.789
  20
 107.829
  30
0.0
  11
 146.747
  21
 108.787
  31
0.0
   0
LINE
   8
LEVEL001
   6
CONTINUOUS
  62
3
  10
 135.615
  20
 109.821
  30
0.0
  11
 146.573
  21
 110.780
  31
0.0
   0
LINE
   8
LEVEL001
   6
CONTINUOUS
  62
3
  10
 135.441
  20
 111.814
  30
0.0
  11
 146.399
  21
 112.772
  31
0.0
   0
LINE
   8
LEVEL001
   6
CONTINUOUS
  62
3
  10
 135.266
  20
 113.806
  30
0.0
  11
 146.224
  21
 114.765
  31
0.0
   0
LINE
   8
LEVEL001
   6
CONTINUOUS
  62
3
  10
 135.092
  20
 115.798
  30
0.0
  11
 146.050
  21
 116.757
  31
0.0
   0
LINE
   8
LEVEL001
   6
CONTINUOUS
  62
3
  10
 134.918
  20
 117.791
  30
0.0
  11
 145.876
  21
 118.749
  31
0.0
   0
LINE
   8
LEVEL001
   6
CONTINUOUS
  62
3
  10
 134.743
  20
 119.783
  30
0.0
  11
 145.701
  21
 120.742
  31
0.0
   0
LINE
   8
LEVEL001
   6
CONTINUOUS
  62
7
  10
 108.833
  20
 100.412
  30
0.0
  11
 108.129
  21
 108.460
  31
0.0
   0
LINE
   8
LEVEL001
   6
CONTINUOUS
  62
7
  10
 108.129
  20
 108.460
  30
0.0
  11
 112.091
  21
 109.065
  31
0.0
   0
LINE
   8
LEVEL001
   6
CONTINUOUS
  62
7
  10
 112.091
  20
 109.065
  30
0.0
  11
 113.435
  21
 110.722
  31
0.0
   0
LINE
   8
LEVEL001
   6
CONTINUOUS
  62
7
  10
 113.435
  20
 110.722
  30
0.0
  11
 121.919
  21
 111.465
  31
0.0
   0
LINE
   8
LEVEL001
   6
CONTINUOUS
  62
7
  10
 121.919
  20
 111.465
  30
0.0
  11
 122.936
  21
 99.8472
  31
0.0
   0
LINE
   8
LEVEL001
   6
CONTINUOUS
  62
7
  10
 122.936
  20
 99.8472
  30
0.0
  11
 114.452
  21
 99.1049
  31
0.0
   0
LINE
   8
LEVEL001
   6
CONTINUOUS
  62
7
  10
 114.452
  20
 99.1049
  30
0.0
  11
 112.840
  21
 100.504
  31
0.0
   0
LINE
   8
LEVEL001
   6
CONTINUOUS
  62
7
  10
 112.840
  20
 100.504
  30
0.0
  11
 108.833
  21
 100.412
  31
0.0
   0
LINE
   8
LEVEL001
   6
CONTINUOUS
  62
7
  10
 137.184
  20
 91.8896
  30
0.0
  11
 134.569
  21
 121.775
  31
0.0
   0
LINE
   8
LEVEL001
   6
CONTINUOUS
  62
7
  10
 134.569
  20
 121.775
  30
0.0
  11
 145.527
  21
 122.734
  31
0.0
   0
LINE
   8
LEVEL001
   6
CONTINUOUS
  62
7
  10
 145.527
  20
 122.734
  30
0.0
  11
 148.142
  21
 92.8483
  31
0.0
   0
LINE
   8
LEVEL001
   6
CONTINUOUS
  62
7
  10
 148.142
  20
 92.8483
  30
0.0
  11
 137.184
  21
 91.8896
  31
0.0
   0
LINE
   8
LEVEL003
   6
CONTINUOUS
  62
3
  10
 92.5000
  20
 263.000
  30
0.0
  11
 207.000
  21
 263.000
  31
0.0
   0
LINE
   8
LEVEL003
   6
CONTINUOUS
  62
3
  10
 102.500
  20
 85.0000
  30
0.0
  11
 207.000
  21
 85.0000
  31
0.0
   0
LINE
   8
LEVEL003
   6
CONTINUOUS
  62
3
  10
 205.000
  20
 263.000
  30
0.0
  11
 205.000
  21
 85.0000
  31
0.0
   0
LINE
   8
LEVEL003
   6
CONTINUOUS
  62
3
  10
 205.000
  20
 263.000
  30
0.0
  11
 204.471
  21
 260.000
  31
0.0
   0
LINE
   8
LEVEL003
   6
CONTINUOUS
  62
3
  10
 205.000
  20
 263.000
  30
0.0
  11
 205.529
  21
 260.000
  31
0.0
   0
LINE
   8
LEVEL003
   6
CONTINUOUS
  62
3
  10
 205.000
  20
 85.0000
  30
0.0
  11
 205.529
  21
 88.0000
  31
0.0
   0
LINE
   8
LEVEL003
   6
CONTINUOUS
  62
3
  10
 205.000
  20
 85.0000
  30
0.0
  11
 204.471
  21
 88.0000
  31
0.0
   0
TEXT
   8
LEVEL003
  62
3
  10
 204.200
  20
 171.000
  30
0.0
  40
 4.00000
   1
178
  50
 90.0000
  41
 0.500000
   7
STANDARD
  72
1
  11
 204.200
  21
 174.000
  31
0.0
   0
LINE
   8
LEVEL001
   6
CONTINUOUS
  62
7
  10
 48.7500
  20
 257.000
  30
0.0
  11
 50.7500
  21
 257.000
  31
0.0
   0
LINE
   8
LEVEL001
   6
CONTINUOUS
  62
7
  10
 57.5000
  20
 262.000
  30
0.0
  11
 58.5000
  21
 263.000
  31
0.0
   0
LINE
   8
LEVEL001
   6
CONTINUOUS
  62
7
  10
 57.5000
  20
 262.000
  30
0.0
  11
 57.5000
  21
 257.000
  31
0.0
   0
LINE
   8
LEVEL001
   6
CONTINUOUS
  62
7
  10
 91.5000
  20
 263.000
  30
0.0
  11
 92.5000
  21
 262.000
  31
0.0
   0
LINE
   8
LEVEL001
   6
CONTINUOUS
  62
7
  10
 58.5000
  20
 263.000
  30
0.0
  11
 91.5000
  21
 263.000
  31
0.0
   0
LINE
   8
LEVEL001
   6
CONTINUOUS
  62
7
  10
 92.5000
  20
 262.000
  30
0.0
  11
 92.5000
  21
 257.000
  31
0.0
   0
LINE
   8
LEVEL001
   6
CONTINUOUS
  62
7
  10
 87.5000
  20
 254.000
  30
0.0
  11
 87.2500
  21
 254.000
  31
0.0
   0
LINE
   8
LEVEL001
   6
CONTINUOUS
  62
7
  10
 62.7500
  20
 254.000
  30
0.0
  11
 62.5000
  21
 254.000
  31
0.0
   0
LINE
   8
LEVEL001
   6
DASHDOT
  62
1
  10
 75.0000
  20
 190.000
  30
0.0
  11
 75.0000
  21
 269.000
  31
0.0
   0
LINE
   8
LEVEL001
   6
DASHDOT
  62
1
  10
 75.0000
  20
 170.000
  30
0.0
  11
 75.0000
  21
 175.000
  31
0.0
   0
LINE
   8
LEVEL001
   6
DASHDOT
  62
1
  10
 75.0000
  20
 82.0000
  30
0.0
  11
 75.0000
  21
 165.000
  31
0.0
   0
LINE
   8
LEVEL001
   6
DASHDOT
  62
1
  10
 75.0000
  20
 180.000
  30
0.0
  11
 75.0000
  21
 185.000
  31
0.0
   0
LINE
   8
LEVEL003
   6
CONTINUOUS
  62
3
  10
 57.5000
  20
 81.0000
  30
0.0
  11
 57.5000
  21
 73.0000
  31
0.0
   0
LINE
   8
LEVEL003
   6
CONTINUOUS
  62
3
  10
 92.5000
  20
 81.0000
  30
0.0
  11
 92.5000
  21
 73.0000
  31
0.0
   0
LINE
   8
LEVEL003
   6
CONTINUOUS
  62
3
  10
 57.5000
  20
 75.0000
  30
0.0
  11
 92.5000
  21
 75.0000
  31
0.0
   0
LINE
   8
LEVEL003
   6
CONTINUOUS
  62
3
  10
 57.5000
  20
 75.0000
  30
0.0
  11
 60.5000
  21
 74.4710
  31
0.0
   0
LINE
   8
LEVEL003
   6
CONTINUOUS
  62
3
  10
 57.5000
  20
 75.0000
  30
0.0
  11
 60.5000
  21
 75.5290
  31
0.0
   0
LINE
   8
LEVEL003
   6
CONTINUOUS
  62
3
  10
 92.5000
  20
 75.0000
  30
0.0
  11
 89.5000
  21
 75.5290
  31
0.0
   0
LINE
   8
LEVEL003
   6
CONTINUOUS
  62
3
  10
 92.5000
  20
 75.0000
  30
0.0
  11
 89.5000
  21
 74.4710
  31
0.0
   0
TEXT
   8
LEVEL003
  62
3
  10
 71.0000
  20
 75.8000
  30
0.0
  40
 4.00000
   1
%%c35
   7
STANDARD
  72
1
  11
 75.0000
  21
 75.8000
  31
0.0
   0
CIRCLE
   8
LEVEL001
   6
CONTINUOUS
  62
7
  10
 75.0000
  20
 35.0000
  30
0.0
  40
 28.5000
   0
CIRCLE
   8
LEVEL001
   6
CONTINUOUS
  62
7
  10
 75.0000
  20
 35.0000
  30
0.0
  40
 26.5000
   0
CIRCLE
   8
LEVEL001
   6
CONTINUOUS
  62
7
  10
 75.0000
  20
 52.5000
  30
0.0
  40
 3.37500
   0
CIRCLE
   8
LEVEL001
   6
CONTINUOUS
  62
3
  10
 75.0000
  20
 52.5000
  30
0.0
  40
 4.00000
   0
LINE
   8
LEVEL001
   6
DASHDOT
  62
1
  10
 82.0000
  20
 52.5000
  30
0.0
  11
 68.0000
  21
 52.5000
  31
0.0
   0
CIRCLE
   8
LEVEL001
   6
CONTINUOUS
  62
7
  10
 75.0000
  20
 17.5000
  30
0.0
  40
 3.37500
   0
CIRCLE
   8
LEVEL001
   6
CONTINUOUS
  62
3
  10
 75.0000
  20
 17.5000
  30
0.0
  40
 4.00000
   0
LINE
   8
LEVEL001
   6
DASHDOT
  62
1
  10
 82.0000
  20
 17.5000
  30
0.0
  11
 68.0000
  21
 17.5000
  31
0.0
   0
LINE
   8
LEVEL001
   6
DASHDOT
  62
1
  10
 75.0000
  20
0.0
  30
0.0
  11
 75.0000
  21
 70.0000
  31
0.0
   0
POINT
   8
LEVEL001
  62
7
  10
 102.504
  20
 35.0000
  30
0.0
   0
LINE
   8
LEVEL001
   6
CONTINUOUS
  62
3
  10
 108.887
  20
 42.5000
  30
0.0
  11
 108.887
  21
 27.5000
  31
0.0
   0
LINE
   8
LEVEL001
   6
CONTINUOUS
  62
7
  10
 112.504
  20
 42.5000
  30
0.0
  11
 112.504
  21
 27.5000
  31
0.0
   0
LINE
   8
LEVEL001
   6
CONTINUOUS
  62
7
  10
 113.987
  20
 27.5000
  30
0.0
  11
 113.987
  21
 42.5000
  31
0.0
   0
LINE
   8
LEVEL001
   6
CONTINUOUS
  62
3
  10
 108.504
  20
 42.6625
  30
0.0
  11
 102.504
  21
 42.4750
  31
0.0
   0
LINE
   8
LEVEL001
   6
CONTINUOUS
  62
3
  10
 108.499
  20
 27.3376
  30
0.0
  11
 102.504
  21
 27.5250
  31
0.0
   0
LINE
   8
LEVEL001
   6
CONTINUOUS
  62
7
  10
 108.504
  20
 43.5185
  30
0.0
  11
 102.258
  21
 43.3233
  31
0.0
   0
LINE
   8
LEVEL001
   6
CONTINUOUS
  62
7
  10
 108.504
  20
 26.4815
  30
0.0
  11
 102.258
  21
 26.6767
  31
0.0
   0
LINE
   8
LEVEL001
   6
CONTINUOUS
  62
7
  10
 75.0000
  20
 39.6188
  30
0.0
  11
 79.0000
  21
 37.3094
  31
0.0
   0
LINE
   8
LEVEL001
   6
CONTINUOUS
  62
7
  10
 79.0000
  20
 37.3094
  30
0.0
  11
 79.0000
  21
 32.6906
  31
0.0
   0
LINE
   8
LEVEL001
   6
CONTINUOUS
  62
7
  10
 79.0000
  20
 32.6906
  30
0.0
  11
 75.0000
  21
 30.3812
  31
0.0
   0
LINE
   8
LEVEL001
   6
CONTINUOUS
  62
7
  10
 75.0000
  20
 30.3812
  30
0.0
  11
 71.0000
  21
 32.6906
  31
0.0
   0
LINE
   8
LEVEL001
   6
CONTINUOUS
  62
7
  10
 71.0000
  20
 32.6906
  30
0.0
  11
 71.0000
  21
 37.3094
  31
0.0
   0
LINE
   8
LEVEL001
   6
CONTINUOUS
  62
7
  10
 71.0000
  20
 37.3094
  30
0.0
  11
 75.0000
  21
 39.6188
  31
0.0
   0
CIRCLE
   8
LEVEL001
   6
CONTINUOUS
  62
7
  10
 75.0000
  20
 35.0000
  30
0.0
  40
 8.33100
   0
CIRCLE
   8
LEVEL001
   6
CONTINUOUS
  62
3
  10
 75.0000
  20
 35.0000
  30
0.0
  40
 7.47500
   0
CIRCLE
   8
LEVEL001
   6
CONTINUOUS
  62
7
  10
 75.0000
  20
 35.0000
  30
0.0
  40
 9.33096
   0
LINE
   8
LEVEL003
   6
CONTINUOUS
  62
3
  10
 57.5000
  20
 85.0000
  30
0.0
  11
 45.0000
  21
 70.0000
  31
0.0
   0
LINE
   8
LEVEL003
   6
CONTINUOUS
  62
3
  10
 57.5000
  20
 85.0000
  30
0.0
  11
 55.1731
  21
 83.0340
  31
0.0
   0
LINE
   8
LEVEL003
   6
CONTINUOUS
  62
3
  10
 57.5000
  20
 85.0000
  30
0.0
  11
 55.9858
  21
 82.3567
  31
0.0
   0
ARC
   8
LEVEL001
   6
CONTINUOUS
  62
7
  10
 131.004
  20
 48.0000
  30
0.0
  40
 1.50000
  50
 90.0000
  51
 180.000
   0
LINE
   8
LEVEL001
   6
CONTINUOUS
  62
7
  10
 131.004
  20
 49.5000
  30
0.0
  11
 136.004
  21
 49.5000
  31
0.0
   0
ARC
   8
LEVEL001
   6
CONTINUOUS
  62
7
  10
 131.004
  20
 22.0000
  30
0.0
  40
 1.50000
  50
 180.000
  51
 270.000
   0
LINE
   8
LEVEL001
   6
CONTINUOUS
  62
7
  10
 129.504
  20
 22.0000
  30
0.0
  11
 129.504
  21
 48.0000
  31
0.0
   0
LINE
   8
LEVEL001
   6
CONTINUOUS
  62
7
  10
 131.004
  20
 20.5000
  30
0.0
  11
 136.004
  21
 20.5000
  31
0.0
   0
ARC
   8
LEVEL001
   6
CONTINUOUS
  62
7
  10
 152.004
  20
 48.0000
  30
0.0
  40
 1.50000
  50
0.0
  51
 90.0000
   0
LINE
   8
LEVEL001
   6
CONTINUOUS
  62
7
  10
 147.004
  20
 49.5000
  30
0.0
  11
 152.004
  21
 49.5000
  31
0.0
   0
ARC
   8
LEVEL001
   6
CONTINUOUS
  62
7
  10
 152.004
  20
 22.0000
  30
0.0
  40
 1.50000
  50
 270.000
  51
 0.279550E-10
   0
LINE
   8
LEVEL001
   6
CONTINUOUS
  62
7
  10
 147.004
  20
 20.5000
  30
0.0
  11
 152.004
  21
 20.5000
  31
0.0
   0
LINE
   8
LEVEL001
   6
CONTINUOUS
  62
7
  10
 153.504
  20
 48.0000
  30
0.0
  11
 153.504
  21
 22.0000
  31
0.0
   0
ARC
   8
LEVEL001
   6
DASHDOT
  62
1
  10
 162.504
  20
 48.0000
  30
0.0
  40
 1.00000
  50
0.0
  51
 90.0000
   0
LINE
   8
LEVEL001
   6
DASHDOT
  62
1
  10
 154.504
  20
 49.0000
  30
0.0
  11
 162.504
  21
 49.0000
  31
0.0
   0
ARC
   8
LEVEL001
   6
DASHDOT
  62
1
  10
 162.504
  20
 22.0000
  30
0.0
  40
 1.00000
  50
 270.000
  51
 0.112363E-9
   0
LINE
   8
LEVEL001
   6
DASHDOT
  62
1
  10
 154.504
  20
 21.0000
  30
0.0
  11
 162.504
  21
 21.0000
  31
0.0
   0
LINE
   8
LEVEL001
   6
DASHDOT
  62
1
  10
 163.504
  20
 48.0000
  30
0.0
  11
 163.504
  21
 22.0000
  31
0.0
   0
ARC
   8
LEVEL001
   6
DASHDOT
  62
1
  10
 154.504
  20
 22.0000
  30
0.0
  40
 1.00000
  50
 180.000
  51
 270.000
   0
ARC
   8
LEVEL001
   6
DASHDOT
  62
1
  10
 154.504
  20
 48.0000
  30
0.0
  40
 1.00000
  50
 90.0000
  51
 180.000
   0
LINE
   8
LEVEL001
   6
CONTINUOUS
  62
3
  10
 136.004
  20
 22.0000
  30
0.0
  11
 147.004
  21
 22.0000
  31
0.0
   0
LINE
   8
LEVEL001
   6
CONTINUOUS
  62
3
  10
 136.004
  20
 24.0000
  30
0.0
  11
 147.004
  21
 24.0000
  31
0.0
   0
LINE
   8
LEVEL001
   6
CONTINUOUS
  62
3
  10
 136.004
  20
 26.0000
  30
0.0
  11
 147.004
  21
 26.0000
  31
0.0
   0
LINE
   8
LEVEL001
   6
CONTINUOUS
  62
3
  10
 136.004
  20
 28.0000
  30
0.0
  11
 147.004
  21
 28.0000
  31
0.0
   0
LINE
   8
LEVEL001
   6
CONTINUOUS
  62
3
  10
 136.004
  20
 30.0000
  30
0.0
  11
 147.004
  21
 30.0000
  31
0.0
   0
LINE
   8
LEVEL001
   6
CONTINUOUS
  62
3
  10
 136.004
  20
 32.0000
  30
0.0
  11
 147.004
  21
 32.0000
  31
0.0
   0
LINE
   8
LEVEL001
   6
CONTINUOUS
  62
3
  10
 136.004
  20
 34.0000
  30
0.0
  11
 147.004
  21
 34.0000
  31
0.0
   0
LINE
   8
LEVEL001
   6
CONTINUOUS
  62
3
  10
 136.004
  20
 36.0000
  30
0.0
  11
 147.004
  21
 36.0000
  31
0.0
   0
LINE
   8
LEVEL001
   6
CONTINUOUS
  62
3
  10
 136.004
  20
 38.0000
  30
0.0
  11
 147.004
  21
 38.0000
  31
0.0
   0
LINE
   8
LEVEL001
   6
CONTINUOUS
  62
3
  10
 136.004
  20
 40.0000
  30
0.0
  11
 147.004
  21
 40.0000
  31
0.0
   0
LINE
   8
LEVEL001
   6
CONTINUOUS
  62
3
  10
 136.004
  20
 42.0000
  30
0.0
  11
 147.004
  21
 42.0000
  31
0.0
   0
LINE
   8
LEVEL001
   6
CONTINUOUS
  62
3
  10
 136.004
  20
 44.0000
  30
0.0
  11
 147.004
  21
 44.0000
  31
0.0
   0
LINE
   8
LEVEL001
   6
CONTINUOUS
  62
3
  10
 136.004
  20
 46.0000
  30
0.0
  11
 147.004
  21
 46.0000
  31
0.0
   0
LINE
   8
LEVEL001
   6
CONTINUOUS
  62
3
  10
 136.004
  20
 48.0000
  30
0.0
  11
 147.004
  21
 48.0000
  31
0.0
   0
LINE
   8
LEVEL001
   6
DASHDOT
  62
1
  10
 163.504
  20
 37.0000
  30
0.0
  11
 169.504
  21
 37.0000
  31
0.0
   0
LINE
   8
LEVEL001
   6
DASHDOT
  62
1
  10
 169.504
  20
 37.0000
  30
0.0
  11
 169.504
  21
 33.0000
  31
0.0
   0
LINE
   8
LEVEL001
   6
DASHDOT
  62
1
  10
 169.504
  20
 33.0000
  30
0.0
  11
 163.504
  21
 33.0000
  31
0.0
   0
LINE
   8
LEVEL001
   6
CONTINUOUS
  62
7
  10
 108.504
  20
 43.5185
  30
0.0
  11
 108.504
  21
 42.5000
  31
0.0
   0
LINE
   8
LEVEL001
   6
CONTINUOUS
  62
7
  10
 108.504
  20
 42.5000
  30
0.0
  11
 122.504
  21
 42.5000
  31
0.0
   0
LINE
   8
LEVEL001
   6
CONTINUOUS
  62
7
  10
 122.504
  20
 42.5000
  30
0.0
  11
 122.504
  21
 44.5000
  31
0.0
   0
LINE
   8
LEVEL001
   6
CONTINUOUS
  62
7
  10
 122.504
  20
 44.5000
  30
0.0
  11
 129.504
  21
 44.5000
  31
0.0
   0
LINE
   8
LEVEL001
   6
CONTINUOUS
  62
7
  10
 108.504
  20
 26.4815
  30
0.0
  11
 108.504
  21
 27.5000
  31
0.0
   0
LINE
   8
LEVEL001
   6
CONTINUOUS
  62
7
  10
 108.504
  20
 27.5000
  30
0.0
  11
 122.504
  21
 27.5000
  31
0.0
   0
LINE
   8
LEVEL001
   6
CONTINUOUS
  62
7
  10
 122.504
  20
 27.5000
  30
0.0
  11
 122.504
  21
 25.5000
  31
0.0
   0
LINE
   8
LEVEL001
   6
CONTINUOUS
  62
7
  10
 122.504
  20
 25.5000
  30
0.0
  11
 129.504
  21
 25.5000
  31
0.0
   0
LINE
   8
LEVEL001
   6
CONTINUOUS
  62
7
  10
 136.004
  20
 20.0000
  30
0.0
  11
 136.004
  21
 50.0000
  31
0.0
   0
LINE
   8
LEVEL001
   6
CONTINUOUS
  62
7
  10
 136.004
  20
 50.0000
  30
0.0
  11
 147.004
  21
 50.0000
  31
0.0
   0
LINE
   8
LEVEL001
   6
CONTINUOUS
  62
7
  10
 147.004
  20
 50.0000
  30
0.0
  11
 147.004
  21
 20.0000
  31
0.0
   0
LINE
   8
LEVEL001
   6
CONTINUOUS
  62
7
  10
 147.004
  20
 20.0000
  30
0.0
  11
 136.004
  21
 20.0000
  31
0.0
   0
LINE
   8
LEVEL001
   6
DASHDOT
  62
1
  10
 172.504
  20
 35.0000
  30
0.0
  11
 40.0000
  21
 35.0000
  31
0.0
   0
LINE
   8
LEVEL001
   6
CONTINUOUS
  62
7
  10
 103.500
  20
 87.0000
  30
0.0
  11
 103.500
  21
 227.201
  31
0.0
   0
LINE
   8
LEVEL001
   6
CONTINUOUS
  62
7
  10
 111.712
  20
 113.395
  30
0.0
  11
 103.500
  21
 112.417
  31
0.0
   0
LINE
   8
LEVEL001
   6
CONTINUOUS
  62
3
  10
 108.194
  20
 112.114
  30
0.0
  11
 103.500
  21
 111.556
  31
0.0
   0
LINE
   8
LEVEL001
   6
CONTINUOUS
  62
3
  10
 109.532
  20
 96.8239
  30
0.0
  11
 103.500
  21
 96.4856
  31
0.0
   0
LINE
   8
LEVEL001
   6
CONTINUOUS
  62
7
  10
 113.219
  20
 96.1738
  30
0.0
  11
 103.500
  21
 95.6287
  31
0.0
   0
LINE
   8
LEVEL001
   6
CONTINUOUS
  62
7
  10
 102.250
  20
 256.000
  30
0.0
  11
 101.250
  21
 257.000
  31
0.0
   0
LINE
   8
LEVEL001
   6
CONTINUOUS
  62
7
  10
 50.7500
  20
 257.000
  30
0.0
  11
 101.250
  21
 257.000
  31
0.0
   0
LINE
   8
LEVEL001
   6
CONTINUOUS
  62
7
  10
 102.250
  20
 256.000
  30
0.0
  11
 47.7500
  21
 256.000
  31
0.0
   0
LINE
   8
LEVEL001
   6
CONTINUOUS
  62
7
  10
 47.2500
  20
 254.000
  30
0.0
  11
 102.750
  21
 254.000
  31
0.0
   0
LINE
   8
LEVEL001
   6
CONTINUOUS
  62
7
  10
 57.5000
  20
 262.000
  30
0.0
  11
 92.5000
  21
 262.000
  31
0.0
   0
LINE
   8
LEVEL001
   6
CONTINUOUS
  62
3
  10
 47.2500
  20
 254.000
  30
0.0
  11
 47.2500
  21
 230.000
  31
0.0
   0
LINE
   8
LEVEL001
   6
CONTINUOUS
  62
3
  10
 102.750
  20
 254.000
  30
0.0
  11
 102.750
  21
 230.000
  31
0.0
   0
LINE
   8
LEVEL001
   6
CONTINUOUS
  62
7
  10
 46.5000
  20
 227.201
  30
0.0
  11
 103.500
  21
 227.201
  31
0.0
   0
LINE
   8
LEVEL001
   6
CONTINUOUS
  62
3
  10
 103.500
  20
 230.000
  30
0.0
  11
 46.5000
  21
 230.000
  31
0.0
   0
LINE
   8
LEVEL001
   6
CONTINUOUS
  62
3
  10
 103.500
  20
 253.250
  30
0.0
  11
 46.5000
  21
 253.250
  31
0.0
   0
ARC
   8
LEVEL004
   6
DOT
  62
3
  10
 69.0000
  20
 263.000
  30
0.0
  40
 1.00000
  50
 180.000
  51
0.0
   0
ARC
   8
LEVEL004
   6
DOT
  62
3
  10
 63.0000
  20
 263.000
  30
0.0
  40
 1.00000
  50
 180.000
  51
0.0
   0
ARC
   8
LEVEL004
   6
DOT
  62
3
  10
 81.0000
  20
 263.000
  30
0.0
  40
 1.00000
  50
 180.000
  51
0.0
   0
ARC
   8
LEVEL004
   6
DOT
  62
3
  10
 87.0000
  20
 263.000
  30
0.0
  40
 1.00000
  50
 180.000
  51
0.0
   0
LINE
   8
LEVEL004
   6
DOT
  62
3
  10
 88.5000
  20
 256.500
  30
0.0
  11
 89.0000
  21
 257.000
  31
0.0
   0
ARC
   8
LEVEL004
   6
DOT
  62
3
  10
 88.7500
  20
 255.500
  30
0.0
  40
 1.50000
  50
 90.0000
  51
 180.000
   0
LINE
   8
LEVEL004
   6
DOT
  62
3
  10
 88.5000
  20
 255.000
  30
0.0
  11
 88.5000
  21
 256.500
  31
0.0
   0
LINE
   8
LEVEL004
   6
DOT
  62
3
  10
 87.2500
  20
 255.000
  30
0.0
  11
 88.5000
  21
 255.000
  31
0.0
   0
LINE
   8
LEVEL004
   6
DOT
  62
3
  10
 88.5000
  20
 255.000
  30
0.0
  11
 87.5000
  21
 254.000
  31
0.0
   0
LINE
   8
LEVEL004
   6
DOT
  62
3
  10
 87.5000
  20
 254.000
  30
0.0
  11
 87.5000
  21
 243.000
  31
0.0
   0
LINE
   8
LEVEL004
   6
DOT
  62
3
  10
 88.5000
  20
 255.000
  30
0.0
  11
 88.5000
  21
 242.000
  31
0.0
   0
LINE
   8
LEVEL004
   6
DOT
  62
3
  10
 87.2500
  20
 255.500
  30
0.0
  11
 87.2500
  21
 243.000
  31
0.0
   0
ARC
   8
LEVEL004
   6
DOT
  62
3
  10
 87.5000
  20
 242.000
  30
0.0
  40
 1.00000
  50
0.0
  51
 90.0000
   0
ARC
   8
LEVEL004
   6
DOT
  62
3
  10
 87.5000
  20
 241.000
  30
0.0
  40
 1.00000
  50
 270.000
  51
0.0
   0
LINE
   8
LEVEL004
   6
DOT
  62
3
  10
 88.5000
  20
 242.000
  30
0.0
  11
 88.5000
  21
 241.000
  31
0.0
   0
LINE
   8
LEVEL004
   6
DOT
  62
3
  10
 86.2500
  20
 242.000
  30
0.0
  11
 87.2500
  21
 243.000
  31
0.0
   0
LINE
   8
LEVEL004
   6
DOT
  62
3
  10
 87.5000
  20
 243.000
  30
0.0
  11
 87.2500
  21
 243.000
  31
0.0
   0
LINE
   8
LEVEL004
   6
DOT
  62
3
  10
 63.7500
  20
 242.000
  30
0.0
  11
 86.2500
  21
 242.000
  31
0.0
   0
LINE
   8
LEVEL004
   6
DOT
  62
3
  10
 62.5000
  20
 240.000
  30
0.0
  11
 87.5000
  21
 240.000
  31
0.0
   0
LINE
   8
LEVEL004
   6
DASHDOT
  62
1
  10
 59.7500
  20
 248.000
  30
0.0
  11
 78.9047
  21
 248.000
  31
0.0
   0
LINE
   8
LEVEL004
   6
DASHDOT
  62
1
  10
 75.0387
  20
 246.500
  30
0.0
  11
 74.6180
  21
 249.500
  31
0.0
   0
LINE
   8
LEVEL004
   6
DASHDOT
  62
1
  10
 74.6180
  20
 249.500
  30
0.0
  11
 74.1973
  21
 246.500
  31
0.0
   0
LINE
   8
LEVEL004
   6
DASHDOT
  62
1
  10
 74.1973
  20
 246.500
  30
0.0
  11
 73.7766
  21
 249.500
  31
0.0
   0
LINE
   8
LEVEL004
   6
DASHDOT
  62
1
  10
 73.7766
  20
 249.500
  30
0.0
  11
 73.3559
  21
 246.500
  31
0.0
   0
LINE
   8
LEVEL004
   6
DASHDOT
  62
1
  10
 73.3559
  20
 246.500
  30
0.0
  11
 72.9352
  21
 249.500
  31
0.0
   0
LINE
   8
LEVEL004
   6
DASHDOT
  62
1
  10
 72.9352
  20
 249.500
  30
0.0
  11
 72.5145
  21
 246.500
  31
0.0
   0
LINE
   8
LEVEL004
   6
DASHDOT
  62
1
  10
 72.5145
  20
 246.500
  30
0.0
  11
 72.0938
  21
 249.500
  31
0.0
   0
LINE
   8
LEVEL004
   6
DASHDOT
  62
1
  10
 72.0938
  20
 249.500
  30
0.0
  11
 71.6732
  21
 246.500
  31
0.0
   0
LINE
   8
LEVEL004
   6
DASHDOT
  62
1
  10
 71.6732
  20
 246.500
  30
0.0
  11
 71.2525
  21
 249.500
  31
0.0
   0
LINE
   8
LEVEL004
   6
DASHDOT
  62
1
  10
 71.2525
  20
 249.500
  30
0.0
  11
 70.8318
  21
 246.500
  31
0.0
   0
LINE
   8
LEVEL004
   6
DASHDOT
  62
1
  10
 70.8318
  20
 246.500
  30
0.0
  11
 70.4111
  21
 249.500
  31
0.0
   0
LINE
   8
LEVEL004
   6
DASHDOT
  62
1
  10
 70.4111
  20
 249.500
  30
0.0
  11
 69.9904
  21
 246.500
  31
0.0
   0
LINE
   8
LEVEL004
   6
DASHDOT
  62
1
  10
 69.9904
  20
 246.500
  30
0.0
  11
 69.5697
  21
 249.500
  31
0.0
   0
LINE
   8
LEVEL004
   6
DASHDOT
  62
1
  10
 69.5697
  20
 249.500
  30
0.0
  11
 69.1490
  21
 246.500
  31
0.0
   0
LINE
   8
LEVEL004
   6
DASHDOT
  62
1
  10
 69.1490
  20
 246.500
  30
0.0
  11
 68.7283
  21
 249.500
  31
0.0
   0
LINE
   8
LEVEL004
   6
DASHDOT
  62
1
  10
 68.7283
  20
 249.500
  30
0.0
  11
 68.3076
  21
 246.500
  31
0.0
   0
LINE
   8
LEVEL004
   6
DASHDOT
  62
1
  10
 68.3076
  20
 246.500
  30
0.0
  11
 67.8870
  21
 249.500
  31
0.0
   0
LINE
   8
LEVEL004
   6
DASHDOT
  62
1
  10
 67.8870
  20
 249.500
  30
0.0
  11
 67.4662
  21
 246.500
  31
0.0
   0
LINE
   8
LEVEL004
   6
DASHDOT
  62
1
  10
 67.4662
  20
 246.500
  30
0.0
  11
 67.0456
  21
 249.500
  31
0.0
   0
LINE
   8
LEVEL004
   6
DASHDOT
  62
1
  10
 67.0456
  20
 249.500
  30
0.0
  11
 66.6249
  21
 246.500
  31
0.0
   0
LINE
   8
LEVEL004
   6
DASHDOT
  62
1
  10
 66.6249
  20
 246.500
  30
0.0
  11
 66.2042
  21
 249.500
  31
0.0
   0
CIRCLE
   8
LEVEL004
   6
DOT
  62
3
  10
 64.4844
  20
 248.000
  30
0.0
  40
 1.98438
   0
LINE
   8
LEVEL004
   6
DOT
  62
3
  10
 62.7500
  20
 255.500
  30
0.0
  11
 62.7500
  21
 248.964
  31
0.0
   0
LINE
   8
LEVEL004
   6
DOT
  62
3
  10
 62.7500
  20
 246.000
  30
0.0
  11
 74.7500
  21
 246.000
  31
0.0
   0
LINE
   8
LEVEL004
   6
DOT
  62
3
  10
 74.7500
  20
 246.000
  30
0.0
  11
 75.9047
  21
 248.000
  31
0.0
   0
LINE
   8
LEVEL004
   6
DOT
  62
3
  10
 75.9047
  20
 248.000
  30
0.0
  11
 74.7500
  21
 250.000
  31
0.0
   0
LINE
   8
LEVEL004
   6
DOT
  62
3
  10
 74.7500
  20
 250.000
  30
0.0
  11
 62.7500
  21
 250.000
  31
0.0
   0
ARC
   8
LEVEL004
   6
DOT
  62
3
  10
 62.5000
  20
 242.000
  30
0.0
  40
 1.00000
  50
 90.0000
  51
 180.000
   0
ARC
   8
LEVEL004
   6
DOT
  62
3
  10
 62.5000
  20
 241.000
  30
0.0
  40
 1.00000
  50
 180.000
  51
 270.000
   0
LINE
   8
LEVEL004
   6
DOT
  62
3
  10
 61.5000
  20
 242.000
  30
0.0
  11
 61.5000
  21
 241.000
  31
0.0
   0
LINE
   8
LEVEL004
   6
DOT
  62
3
  10
 62.7500
  20
 243.000
  30
0.0
  11
 63.7500
  21
 242.000
  31
0.0
   0
LINE
   8
LEVEL004
   6
DOT
  62
3
  10
 62.7500
  20
 243.000
  30
0.0
  11
 62.5000
  21
 243.000
  31
0.0
   0
LINE
   8
LEVEL004
   6
DOT
  62
3
  10
 62.7500
  20
 247.036
  30
0.0
  11
 62.7500
  21
 243.000
  31
0.0
   0
LINE
   8
LEVEL004
   6
DOT
  62
3
  10
 61.5000
  20
 255.000
  30
0.0
  11
 62.5000
  21
 254.000
  31
0.0
   0
LINE
   8
LEVEL004
   6
DOT
  62
3
  10
 62.5000
  20
 254.000
  30
0.0
  11
 62.5000
  21
 243.000
  31
0.0
   0
LINE
   8
LEVEL004
   6
DOT
  62
3
  10
 61.5000
  20
 255.000
  30
0.0
  11
 61.5000
  21
 242.000
  31
0.0
   0
LINE
   8
LEVEL004
   6
DOT
  62
3
  10
 74.7500
  20
 250.000
  30
0.0
  11
 74.7500
  21
 246.000
  31
0.0
   0
LINE
   8
LEVEL004
   6
DOT
  62
3
  10
 61.0000
  20
 257.000
  30
0.0
  11
 61.5000
  21
 256.500
  31
0.0
   0
ARC
   8
LEVEL004
   6
DOT
  62
3
  10
 61.2500
  20
 255.500
  30
0.0
  40
 1.50000
  50
0.0
  51
 90.0000
   0
LINE
   8
LEVEL004
   6
DOT
  62
3
  10
 61.5000
  20
 255.000
  30
0.0
  11
 61.5000
  21
 256.500
  31
0.0
   0
LINE
   8
LEVEL004
   6
DOT
  62
3
  10
 61.5000
  20
 255.000
  30
0.0
  11
 62.7500
  21
 255.000
  31
0.0
   0
LINE
   8
LEVEL004
   6
DOT
  62
3
  10
 53.5000
  20
 237.500
  30
0.0
  11
 53.5000
  21
 118.800
  31
0.0
   0
LINE
   8
LEVEL004
   6
DOT
  62
3
  10
 56.0000
  20
 144.500
  30
0.0
  11
 56.0000
  21
 255.000
  31
0.0
   0
LINE
   8
LEVEL004
   6
DOT
  62
3
  10
 94.0000
  20
 144.500
  30
0.0
  11
 94.0000
  21
 255.000
  31
0.0
   0
LINE
   8
LEVEL004
   6
DOT
  62
3
  10
 96.5000
  20
 237.500
  30
0.0
  11
 96.5000
  21
 118.800
  31
0.0
   0
LINE
   8
LEVEL004
   6
DASHDOT
  62
1
  10
 57.5000
  20
 82.0000
  30
0.0
  11
 57.5000
  21
 97.0000
  31
0.0
   0
LINE
   8
LEVEL004
   6
DOT
  62
3
  10
 54.1250
  20
 97.0000
  30
0.0
  11
 54.1250
  21
 85.6250
  31
0.0
   0
LINE
   8
LEVEL004
   6
DOT
  62
3
  10
 54.1250
  20
 85.6250
  30
0.0
  11
 53.5000
  21
 85.0000
  31
0.0
   0
LINE
   8
LEVEL004
   6
DOT
  62
3
  10
 53.5000
  20
 97.0000
  30
0.0
  11
 53.5000
  21
 85.0000
  31
0.0
   0
LINE
   8
LEVEL004
   6
DOT
  62
3
  10
 61.5000
  20
 85.0000
  30
0.0
  11
 60.8750
  21
 85.6250
  31
0.0
   0
LINE
   8
LEVEL004
   6
DOT
  62
3
  10
 60.8750
  20
 85.6250
  30
0.0
  11
 60.8750
  21
 97.0000
  31
0.0
   0
LINE
   8
LEVEL004
   6
DOT
  62
3
  10
 61.5000
  20
 85.0000
  30
0.0
  11
 61.5000
  21
 97.0000
  31
0.0
   0
LINE
   8
LEVEL004
   6
DOT
  62
3
  10
 60.8750
  20
 85.6250
  30
0.0
  11
 54.1250
  21
 85.6250
  31
0.0
   0
LINE
   8
LEVEL004
   6
DASHDOT
  62
1
  10
 92.5000
  20
 82.0000
  30
0.0
  11
 92.5000
  21
 97.0000
  31
0.0
   0
LINE
   8
LEVEL001
   6
DASHDOT
  62
1
  10
 172.237
  20
 110.014
  30
0.0
  11
 95.1514
  21
 103.270
  31
0.0
   0
TEXT
   8
LEVEL003
  62
7
  10
 201.691
  20
 10.2200
  30
0.0
  40
 10.0000
   1
ＯＳＡＫＡ ＪＡＣＫ
   7
STANDARD
   0
CIRCLE
   8
LEVEL003
   6
CONTINUOUS
  62
7
  10
 189.718
  20
 17.2707
  30
0.0
  40
 3.00000
   0
LINE
   8
LEVEL003
   6
CONTINUOUS
  62
7
  10
 195.606
  20
 20.2707
  30
0.0
  11
 191.797
  21
 13.6707
  31
0.0
   0
LINE
   8
LEVEL003
   6
CONTINUOUS
  62
7
  10
 191.797
  20
 13.6707
  30
0.0
  11
 184.176
  21
 13.6707
  31
0.0
   0
LINE
   8
LEVEL003
   6
CONTINUOUS
  62
7
  10
 183.309
  20
 12.1707
  30
0.0
  11
 196.930
  21
 12.1707
  31
0.0
   0
LINE
   8
LEVEL003
   6
CONTINUOUS
  62
7
  10
 196.930
  20
 12.1707
  30
0.0
  11
 201.606
  21
 20.2707
  31
0.0
   0
LINE
   8
LEVEL003
   6
CONTINUOUS
  62
7
  10
 184.176
  20
 13.6707
  30
0.0
  11
 183.309
  21
 12.1707
  31
0.0
   0
LINE
   8
LEVEL003
   6
CONTINUOUS
  62
7
  10
 201.606
  20
 20.2707
  30
0.0
  11
 195.606
  21
 20.2707
  31
0.0
   0
TEXT
   8
LEVEL003
  62
7
  10
 204.602
  20
 27.1134
  30
0.0
  40
 6.00000
   1
Model : Ｅ１０Ｓ１０
   7
STANDARD
   0
LINE
   8
LEVEL001
   6
CONTINUOUS
  62
7
  10
 103.500
  20
 87.0000
  30
0.0
  11
 46.5000
  21
 87.0000
  31
0.0
   0
TEXT
   8
LEVEL003
  62
3
  10
 6.00000
  20
 70.0000
  30
0.0
  40
 4.00000
   1
２－Ｍ８×１２Ｌ
   7
STANDARD
   0
LINE
   8
LEVEL003
   6
CONTINUOUS
  62
3
  10
 45.0000
  20
 70.0000
  30
0.0
  11
 6.84848
  21
 70.0000
  31
0.0
   0
LINE
   8
LEVEL003
   6
CONTINUOUS
  62
3
  10
 115.000
  20
 75.0000
  30
0.0
  11
 142.601
  21
 75.0000
  31
0.0
   0
LINE
   8
LEVEL003
   6
CONTINUOUS
  62
3
  10
 92.5000
  20
 263.000
  30
0.0
  11
 132.000
  21
 263.000
  31
0.0
   0
LINE
   8
LEVEL003
   6
CONTINUOUS
  62
3
  10
 102.250
  20
 257.000
  30
0.0
  11
 132.000
  21
 257.000
  31
0.0
   0
LINE
   8
LEVEL003
   6
CONTINUOUS
  62
3
  10
 130.000
  20
 263.000
  30
0.0
  11
 130.000
  21
 257.000
  31
0.0
   0
LINE
   8
LEVEL003
   6
CONTINUOUS
  62
3
  10
 130.000
  20
 263.000
  30
0.0
  11
 130.529
  21
 266.000
  31
0.0
   0
LINE
   8
LEVEL003
   6
CONTINUOUS
  62
3
  10
 130.000
  20
 263.000
  30
0.0
  11
 129.471
  21
 266.000
  31
0.0
   0
LINE
   8
LEVEL003
   6
CONTINUOUS
  62
3
  10
 130.000
  20
 257.000
  30
0.0
  11
 129.471
  21
 254.000
  31
0.0
   0
LINE
   8
LEVEL003
   6
CONTINUOUS
  62
3
  10
 130.000
  20
 257.000
  30
0.0
  11
 130.529
  21
 254.000
  31
0.0
   0
LINE
   8
LEVEL003
   6
CONTINUOUS
  62
3
  10
 130.000
  20
 263.000
  30
0.0
  11
 130.000
  21
 266.750
  31
0.0
   0
LINE
   8
LEVEL003
   6
CONTINUOUS
  62
3
  10
 130.000
  20
 257.000
  30
0.0
  11
 130.000
  21
 253.250
  31
0.0
   0
TEXT
   8
LEVEL003
  62
3
  10
 129.200
  20
 258.000
  30
0.0
  40
 4.00000
   1
6
  50
 90.0000
   7
STANDARD
  72
1
  11
 129.200
  21
 260.000
  31
0.0
   0
LINE
   8
LEVEL003
   6
CONTINUOUS
  62
3
  10
 102.250
  20
 257.000
  30
0.0
  11
 132.000
  21
 257.000
  31
0.0
   0
LINE
   8
LEVEL003
   6
CONTINUOUS
  62
3
  10
 107.500
  20
 230.000
  30
0.0
  11
 132.000
  21
 230.000
  31
0.0
   0
LINE
   8
LEVEL003
   6
CONTINUOUS
  62
3
  10
 130.000
  20
 257.000
  30
0.0
  11
 130.000
  21
 230.000
  31
0.0
   0
LINE
   8
LEVEL003
   6
CONTINUOUS
  62
3
  10
 130.000
  20
 257.000
  30
0.0
  11
 129.471
  21
 254.000
  31
0.0
   0
LINE
   8
LEVEL003
   6
CONTINUOUS
  62
3
  10
 130.000
  20
 257.000
  30
0.0
  11
 130.529
  21
 254.000
  31
0.0
   0
LINE
   8
LEVEL003
   6
CONTINUOUS
  62
3
  10
 130.000
  20
 230.000
  30
0.0
  11
 130.529
  21
 233.000
  31
0.0
   0
LINE
   8
LEVEL003
   6
CONTINUOUS
  62
3
  10
 130.000
  20
 230.000
  30
0.0
  11
 129.471
  21
 233.000
  31
0.0
   0
TEXT
   8
LEVEL003
  62
3
  10
 129.200
  20
 239.500
  30
0.0
  40
 4.00000
   1
27
  50
 90.0000
   7
STANDARD
  72
1
  11
 129.200
  21
 243.500
  31
0.0
   0
LINE
   8
LEVEL003
   6
CONTINUOUS
  62
3
  10
 102.250
  20
 257.000
  30
0.0
  11
 122.000
  21
 257.000
  31
0.0
   0
LINE
   8
LEVEL003
   6
CONTINUOUS
  62
3
  10
 107.500
  20
 254.000
  30
0.0
  11
 122.000
  21
 254.000
  31
0.0
   0
LINE
   8
LEVEL003
   6
CONTINUOUS
  62
3
  10
 120.000
  20
 257.000
  30
0.0
  11
 120.000
  21
 254.000
  31
0.0
   0
LINE
   8
LEVEL003
   6
CONTINUOUS
  62
3
  10
 120.000
  20
 254.000
  30
0.0
  11
 120.000
  21
 248.000
  31
0.0
   0
LINE
   8
LEVEL003
   6
CONTINUOUS
  62
3
  10
 120.000
  20
 257.000
  30
0.0
  11
 120.529
  21
 260.000
  31
0.0
   0
LINE
   8
LEVEL003
   6
CONTINUOUS
  62
3
  10
 120.000
  20
 257.000
  30
0.0
  11
 119.471
  21
 260.000
  31
0.0
   0
LINE
   8
LEVEL003
   6
CONTINUOUS
  62
3
  10
 120.000
  20
 254.000
  30
0.0
  11
 119.471
  21
 251.000
  31
0.0
   0
LINE
   8
LEVEL003
   6
CONTINUOUS
  62
3
  10
 120.000
  20
 254.000
  30
0.0
  11
 120.529
  21
 251.000
  31
0.0
   0
LINE
   8
LEVEL003
   6
CONTINUOUS
  62
3
  10
 120.000
  20
 257.000
  30
0.0
  11
 120.000
  21
 260.750
  31
0.0
   0
LINE
   8
LEVEL003
   6
CONTINUOUS
  62
3
  10
 120.000
  20
 254.000
  30
0.0
  11
 120.000
  21
 248.000
  31
0.0
   0
TEXT
   8
LEVEL003
  62
3
  10
 119.200
  20
 248.000
  30
0.0
  40
 4.00000
   1
3
  50
 90.0000
   7
STANDARD
  72
1
  11
 119.200
  21
 250.000
  31
0.0
   0
LINE
   8
LEVEL003
   6
CONTINUOUS
  62
3
  10
 82.2792
  20
 240.000
  30
0.0
  11
 82.2792
  21
 240.000
  31
0.0
   0
LINE
   8
LEVEL003
   6
CONTINUOUS
  62
3
  10
 87.7500
  20
 257.000
  30
0.0
  11
 80.2792
  21
 257.000
  31
0.0
   0
LINE
   8
LEVEL003
   6
CONTINUOUS
  62
3
  10
 82.2792
  20
 240.000
  30
0.0
  11
 82.2792
  21
 257.000
  31
0.0
   0
LINE
   8
LEVEL003
   6
CONTINUOUS
  62
3
  10
 82.2792
  20
 240.000
  30
0.0
  11
 82.8082
  21
 243.000
  31
0.0
   0
LINE
   8
LEVEL003
   6
CONTINUOUS
  62
3
  10
 82.2792
  20
 240.000
  30
0.0
  11
 81.7503
  21
 243.000
  31
0.0
   0
LINE
   8
LEVEL003
   6
CONTINUOUS
  62
3
  10
 82.2792
  20
 257.000
  30
0.0
  11
 81.7503
  21
 254.000
  31
0.0
   0
LINE
   8
LEVEL003
   6
CONTINUOUS
  62
3
  10
 82.2792
  20
 257.000
  30
0.0
  11
 82.8082
  21
 254.000
  31
0.0
   0
TEXT
   8
LEVEL003
  62
3
  10
 81.4792
  20
 244.500
  30
0.0
  40
 4.00000
   1
17
  50
 90.0000
   7
STANDARD
  72
1
  11
 81.4792
  21
 248.500
  31
0.0
   0
ENDSEC
   0
EOF
