   0
SECTION
   2
HEADER
   9
$LIMMIN
  10
0.0
  20
0.0
   9
$LIMMAX
  10
 420.000
  20
 358.000
   9
$EXTMIN
  10
0.0
  20
0.0
   9
$EXTMAX
  10
 420.000
  20
 358.000
   9
$LTSCALE
  40
 8.40000
   0
ENDSEC
   0
SECTION
   2
TABLES
  0
TABLE
  2
LTYPE
 70
    25
  0
LTYPE
  2
CONTINUOUS
 70
    64
  3
Solid line
 72
    65
 73
     0
 40
0.0
  0
LTYPE
  2
BORDER
 70
    64
  3
__ __ . __ __ . __ __ . __ __ . __ __ . __ __ .
 72
    65
 73
     6
 40
1.75
 49
0.5
 49
-0.25
 49
0.5
 49
-0.25
 49
0.0
 49
-0.25
  0
LTYPE
  2
BORDER2
 70
    64
  3
__.__.__.__.__.__.__.__.__.__.__.__.__.__.__.__
 72
    65
 73
     6
 40
0.875
 49
0.25
 49
-0.125
 49
0.25
 49
-0.125
 49
0.0
 49
-0.125
  0
LTYPE
  2
BORDERX2
 70
    64
  3
____  ____  .  ____  ____  .  ____  ____  .  __
 72
    65
 73
     6
 40
3.5
 49
1.0
 49
-0.5
 49
1.0
 49
-0.5
 49
0.0
 49
-0.5
  0
LTYPE
  2
CENTER
 70
    64
  3
____ _ ____ _ ____ _ ____ _ ____ _ ____ _ ____ 
 72
    65
 73
     4
 40
2.0
 49
1.25
 49
-0.25
 49
0.25
 49
-0.25
  0
LTYPE
  2
CENTER2
 70
    64
  3
___ _ ___ _ ___ _ ___ _ ___ _ ___ _ ___ _ ___ _
 72
    65
 73
     4
 40
1.125
 49
0.75
 49
-0.125
 49
0.125
 49
-0.125
  0
LTYPE
  2
CENTERX2
 70
    64
  3
________  __  ________  __  ________  __  _____
 72
    65
 73
     4
 40
4.0
 49
2.5
 49
-0.5
 49
0.5
 49
-0.5
  0
LTYPE
  2
DASHDOT
 70
    64
  3
__ . __ . __ . __ . __ . __ . __ . __ . __ . __
 72
    65
 73
     4
 40
1.0
 49
0.5
 49
-0.25
 49
0.0
 49
-0.25
  0
LTYPE
  2
DASHDOT2
 70
    64
  3
_._._._._._._._._._._._._._._._._._._._._._._._
 72
    65
 73
     4
 40
0.5
 49
0.25
 49
-0.125
 49
0.0
 49
-0.125
  0
LTYPE
  2
DASHDOTX2
 70
    64
  3
____  .  ____  .  ____  .  ____  .  ____  .  __
 72
    65
 73
     4
 40
2.0
 49
1.0
 49
-0.5
 49
0.0
 49
-0.5
  0
LTYPE
  2
DASHED
 70
    64
  3
__ __ __ __ __ __ __ __ __ __ __ __ __ __ __ __
 72
    65
 73
     2
 40
0.75
 49
0.5
 49
-0.25
  0
LTYPE
  2
DASHED2
 70
    64
  3
_ _ _ _ _ _ _ _ _ _ _ _ _ _ _ _ _ _ _ _ _ _ _ _
 72
    65
 73
     2
 40
0.375
 49
0.25
 49
-0.125
  0
LTYPE
  2
DASHEDX2
 70
    64
  3
____  ____  ____  ____  ____  ____  ____  ____ 
 72
    65
 73
     2
 40
1.5
 49
1.0
 49
-0.5
  0
LTYPE
  2
DIVIDE
 70
    64
  3
____ . . ____ . . ____ . . ____ . . ____ . . __
 72
    65
 73
     6
 40
1.25
 49
0.5
 49
-0.25
 49
0.0
 49
-0.25
 49
0.0
 49
-0.25
  0
LTYPE
  2
DIVIDE2
 70
    64
  3
__..__..__..__..__..__..__..__..__..__..__..__.
 72
    65
 73
     6
 40
0.625
 49
0.25
 49
-0.125
 49
0.0
 49
-0.125
 49
0.0
 49
-0.125
  0
LTYPE
  2
DIVIDEX2
 70
    64
  3
________  .  .  ________  .  .  ________  .  . 
 72
    65
 73
     6
 40
2.5
 49
1.0
 49
-0.5
 49
0.0
 49
-0.5
 49
0.0
 49
-0.5
  0
LTYPE
  2
DOT
 70
    64
  3
. . . . . . . . . . . . . . . . . . . . . . . .
 72
    65
 73
     2
 40
0.25
 49
0.0
 49
-0.25
  0
LTYPE
  2
DOT2
 70
    64
  3
...............................................
 72
    65
 73
     2
 40
0.125
 49
0.0
 49
-0.125
  0
LTYPE
  2
DOTX2
 70
    64
  3
.  .  .  .  .  .  .  .  .  .  .  .  .  .  .  . 
 72
    65
 73
     2
 40
0.5
 49
0.0
 49
-0.5
  0
LTYPE
  2
HIDDEN
 70
    64
  3
__ __ __ __ __ __ __ __ __ __ __ __ __ __ __ __
 72
    65
 73
     2
 40
0.375
 49
0.25
 49
-0.125
  0
LTYPE
  2
HIDDEN2
 70
    64
  3
_ _ _ _ _ _ _ _ _ _ _ _ _ _ _ _ _ _ _ _ _ _ _ _
 72
    65
 73
     2
 40
0.1875
 49
0.125
 49
-0.0625
  0
LTYPE
  2
HIDDENX2
 70
    64
  3
____ ____ ____ ____ ____ ____ ____ ____ ____ __
 72
    65
 73
     2
 40
0.75
 49
0.5
 49
-0.25
  0
LTYPE
  2
PHANTOM
 70
    64
  3
______  __  __  ______  __  __  ______  __  __ 
 72
    65
 73
     6
 40
2.5
 49
1.25
 49
-0.25
 49
0.25
 49
-0.25
 49
0.25
 49
-0.25
  0
LTYPE
  2
PHANTOM2
 70
    64
  3
___ _ _ ___ _ _ ___ _ _ ___ _ _ ___ _ _ ___ _ _
 72
    65
 73
     6
 40
1.25
 49
0.625
 49
-0.125
 49
0.125
 49
-0.125
 49
0.125
 49
-0.125
  0
LTYPE
  2
PHANTOMX2
 70
    64
  3
____________    ____    ____    ____________   
 72
    65
 73
     6
 40
5.0
 49
2.5
 49
-0.5
 49
0.5
 49
-0.5
 49
0.5
 49
-0.5
  0
ENDTAB
  0
TABLE
  2
STYLE
 70
     2
  0
STYLE
  2
STANDARD
 70
0
 40
0.0
 41
1.0
 50
0.0
 71
0
 42
0.2
  3
TXT
  4
BIGFONT
  0
STYLE
  2
STANDARD1
 70
     4
 40
0.0
 41
1.0
 50
0.0
 71
     0
 42
0.2
  3
TXT
  4
BIGFONT
  0
ENDTAB
   0
TABLE
   2
LAYER
  70
4
   0
LAYER
   2
0
  70
0
  62
7
   6
CONTINUOUS
   0
LAYER
   2
LEVEL001
  70
0
  62
7
   6
CONTINUOUS
   0
LAYER
   2
LEVEL003
  70
0
  62
7
   6
CONTINUOUS
   0
LAYER
   2
LEVEL004
  70
0
  62
7
   6
CONTINUOUS
   0
ENDTAB
   0
ENDSEC
   0
SECTION
   2
ENTITIES
   0
LINE
   8
LEVEL003
   6
CONTINUOUS
  62
3
  10
 61.0000
  20
 222.500
  30
0.0
  11
 99.0000
  21
 222.500
  31
0.0
   0
LINE
   8
LEVEL003
   6
CONTINUOUS
  62
3
  10
 61.0000
  20
 222.500
  30
0.0
  11
 64.0000
  21
 221.971
  31
0.0
   0
LINE
   8
LEVEL003
   6
CONTINUOUS
  62
3
  10
 61.0000
  20
 222.500
  30
0.0
  11
 64.0000
  21
 223.029
  31
0.0
   0
LINE
   8
LEVEL003
   6
CONTINUOUS
  62
3
  10
 99.0000
  20
 222.500
  30
0.0
  11
 96.0000
  21
 223.029
  31
0.0
   0
LINE
   8
LEVEL003
   6
CONTINUOUS
  62
3
  10
 99.0000
  20
 222.500
  30
0.0
  11
 96.0000
  21
 221.971
  31
0.0
   0
TEXT
   8
LEVEL003
  62
3
  10
 76.0000
  20
 223.300
  30
0.0
  40
 4.00000
   1
%%c38
   7
STANDARD
  72
1
  11
 80.0000
  21
 223.300
  31
0.0
   0
LINE
   8
LEVEL003
   6
CONTINUOUS
  62
3
  10
 58.5000
  20
 212.500
  30
0.0
  11
 101.500
  21
 212.500
  31
0.0
   0
LINE
   8
LEVEL003
   6
CONTINUOUS
  62
3
  10
 58.5000
  20
 212.500
  30
0.0
  11
 61.5000
  21
 211.971
  31
0.0
   0
LINE
   8
LEVEL003
   6
CONTINUOUS
  62
3
  10
 58.5000
  20
 212.500
  30
0.0
  11
 61.5000
  21
 213.029
  31
0.0
   0
LINE
   8
LEVEL003
   6
CONTINUOUS
  62
3
  10
 101.500
  20
 212.500
  30
0.0
  11
 98.5000
  21
 213.029
  31
0.0
   0
LINE
   8
LEVEL003
   6
CONTINUOUS
  62
3
  10
 101.500
  20
 212.500
  30
0.0
  11
 98.5000
  21
 211.971
  31
0.0
   0
TEXT
   8
LEVEL003
  62
3
  10
 76.0000
  20
 213.300
  30
0.0
  40
 4.00000
   1
%%c43
   7
STANDARD
  72
1
  11
 80.0000
  21
 213.300
  31
0.0
   0
LINE
   8
LEVEL003
   6
CONTINUOUS
  62
3
  10
 51.5000
  20
 202.500
  30
0.0
  11
 108.500
  21
 202.500
  31
0.0
   0
LINE
   8
LEVEL003
   6
CONTINUOUS
  62
3
  10
 51.5000
  20
 202.500
  30
0.0
  11
 54.5000
  21
 201.971
  31
0.0
   0
LINE
   8
LEVEL003
   6
CONTINUOUS
  62
3
  10
 51.5000
  20
 202.500
  30
0.0
  11
 54.5000
  21
 203.029
  31
0.0
   0
LINE
   8
LEVEL003
   6
CONTINUOUS
  62
3
  10
 108.500
  20
 202.500
  30
0.0
  11
 105.500
  21
 203.029
  31
0.0
   0
LINE
   8
LEVEL003
   6
CONTINUOUS
  62
3
  10
 108.500
  20
 202.500
  30
0.0
  11
 105.500
  21
 201.971
  31
0.0
   0
TEXT
   8
LEVEL003
  62
3
  10
 76.0000
  20
 203.300
  30
0.0
  40
 4.00000
   1
%%c57
   7
STANDARD
  72
1
  11
 80.0000
  21
 203.300
  31
0.0
   0
LINE
   8
LEVEL003
   6
CONTINUOUS
  62
3
  10
 62.5000
  20
 347.500
  30
0.0
  11
 62.5000
  21
 354.500
  31
0.0
   0
LINE
   8
LEVEL003
   6
CONTINUOUS
  62
3
  10
 97.5000
  20
 347.500
  30
0.0
  11
 97.5000
  21
 354.500
  31
0.0
   0
LINE
   8
LEVEL003
   6
CONTINUOUS
  62
3
  10
 62.5000
  20
 352.500
  30
0.0
  11
 97.5000
  21
 352.500
  31
0.0
   0
LINE
   8
LEVEL003
   6
CONTINUOUS
  62
3
  10
 62.5000
  20
 352.500
  30
0.0
  11
 65.5000
  21
 351.971
  31
0.0
   0
LINE
   8
LEVEL003
   6
CONTINUOUS
  62
3
  10
 62.5000
  20
 352.500
  30
0.0
  11
 65.5000
  21
 353.029
  31
0.0
   0
LINE
   8
LEVEL003
   6
CONTINUOUS
  62
3
  10
 97.5000
  20
 352.500
  30
0.0
  11
 94.5000
  21
 353.029
  31
0.0
   0
LINE
   8
LEVEL003
   6
CONTINUOUS
  62
3
  10
 97.5000
  20
 352.500
  30
0.0
  11
 94.5000
  21
 351.971
  31
0.0
   0
TEXT
   8
LEVEL003
  62
3
  10
 76.0000
  20
 353.300
  30
0.0
  40
 4.00000
   1
%%c35
   7
STANDARD
  72
1
  11
 80.0000
  21
 353.300
  31
0.0
   0
LINE
   8
LEVEL003
   6
CONTINUOUS
  62
3
  10
 93.5000
  20
 332.500
  30
0.0
  11
 105.000
  21
 352.500
  31
0.0
   0
LINE
   8
LEVEL003
   6
CONTINUOUS
  62
3
  10
 105.000
  20
 352.500
  30
0.0
  11
 125.000
  21
 352.500
  31
0.0
   0
LINE
   8
LEVEL003
   6
CONTINUOUS
  62
3
  10
 93.5000
  20
 332.500
  30
0.0
  11
 95.4540
  21
 334.837
  31
0.0
   0
LINE
   8
LEVEL003
   6
CONTINUOUS
  62
3
  10
 93.5000
  20
 332.500
  30
0.0
  11
 94.5368
  21
 335.364
  31
0.0
   0
LINE
   8
LEVEL003
   6
CONTINUOUS
  62
3
  10
 108.500
  20
 332.500
  30
0.0
  11
 130.000
  21
 352.500
  31
0.0
   0
LINE
   8
LEVEL003
   6
CONTINUOUS
  62
3
  10
 130.000
  20
 352.500
  30
0.0
  11
 160.000
  21
 352.500
  31
0.0
   0
LINE
   8
LEVEL003
   6
CONTINUOUS
  62
3
  10
 108.500
  20
 332.500
  30
0.0
  11
 111.057
  21
 334.156
  31
0.0
   0
LINE
   8
LEVEL003
   6
CONTINUOUS
  62
3
  10
 108.500
  20
 332.500
  30
0.0
  11
 110.336
  21
 334.931
  31
0.0
   0
LINE
   8
LEVEL001
   6
CONTINUOUS
  62
7
  10
 107.250
  20
 340.500
  30
0.0
  11
 106.250
  21
 341.500
  31
0.0
   0
LINE
   8
LEVEL001
   6
CONTINUOUS
  62
7
  10
 107.250
  20
 338.500
  30
0.0
  11
 107.250
  21
 340.500
  31
0.0
   0
LINE
   8
LEVEL001
   6
CONTINUOUS
  62
7
  10
 107.750
  20
 338.500
  30
0.0
  11
 108.500
  21
 337.750
  31
0.0
   0
LINE
   8
LEVEL001
   6
CONTINUOUS
  62
7
  10
 108.500
  20
 337.750
  30
0.0
  11
 108.500
  21
 311.701
  31
0.0
   0
LINE
   8
LEVEL001
   6
CONTINUOUS
  62
3
  10
 107.750
  20
 314.500
  30
0.0
  11
 108.500
  21
 311.701
  31
0.0
   0
LINE
   8
LEVEL001
   6
CONTINUOUS
  62
7
  10
 52.7500
  20
 340.500
  30
0.0
  11
 53.7500
  21
 341.500
  31
0.0
   0
LINE
   8
LEVEL001
   6
CONTINUOUS
  62
7
  10
 52.7500
  20
 338.500
  30
0.0
  11
 52.7500
  21
 340.500
  31
0.0
   0
LINE
   8
LEVEL001
   6
CONTINUOUS
  62
7
  10
 52.2500
  20
 338.500
  30
0.0
  11
 51.5000
  21
 337.750
  31
0.0
   0
LINE
   8
LEVEL001
   6
CONTINUOUS
  62
7
  10
 51.5000
  20
 337.750
  30
0.0
  11
 51.5000
  21
 311.701
  31
0.0
   0
LINE
   8
LEVEL001
   6
CONTINUOUS
  62
3
  10
 52.2500
  20
 314.500
  30
0.0
  11
 51.5000
  21
 311.701
  31
0.0
   0
LINE
   8
LEVEL001
   6
CONTINUOUS
  62
7
  10
 53.7500
  20
 341.500
  30
0.0
  11
 55.7500
  21
 341.500
  31
0.0
   0
LINE
   8
LEVEL001
   6
DASHDOT
  62
1
  10
 111.500
  20
 338.500
  30
0.0
  11
 111.500
  21
 314.500
  31
0.0
   0
LINE
   8
LEVEL001
   6
DASHDOT
  62
1
  10
 107.750
  20
 338.500
  30
0.0
  11
 111.500
  21
 338.500
  31
0.0
   0
LINE
   8
LEVEL001
   6
DASHDOT
  62
1
  10
 108.500
  20
 314.500
  30
0.0
  11
 111.500
  21
 314.500
  31
0.0
   0
LINE
   8
LEVEL001
   6
DASHDOT
  62
1
  10
 48.5000
  20
 338.500
  30
0.0
  11
 48.5000
  21
 314.500
  31
0.0
   0
LINE
   8
LEVEL001
   6
DASHDOT
  62
1
  10
 52.2500
  20
 338.500
  30
0.0
  11
 48.5000
  21
 338.500
  31
0.0
   0
LINE
   8
LEVEL001
   6
DASHDOT
  62
1
  10
 51.5000
  20
 314.500
  30
0.0
  11
 48.5000
  21
 314.500
  31
0.0
   0
LINE
   8
LEVEL001
   6
CONTINUOUS
  62
7
  10
 62.5000
  20
 346.500
  30
0.0
  11
 63.5000
  21
 347.500
  31
0.0
   0
LINE
   8
LEVEL001
   6
CONTINUOUS
  62
7
  10
 62.5000
  20
 346.500
  30
0.0
  11
 62.5000
  21
 341.500
  31
0.0
   0
LINE
   8
LEVEL001
   6
CONTINUOUS
  62
7
  10
 96.5000
  20
 347.500
  30
0.0
  11
 97.5000
  21
 346.500
  31
0.0
   0
LINE
   8
LEVEL001
   6
CONTINUOUS
  62
7
  10
 63.5000
  20
 347.500
  30
0.0
  11
 96.5000
  21
 347.500
  31
0.0
   0
LINE
   8
LEVEL001
   6
CONTINUOUS
  62
7
  10
 97.5000
  20
 346.500
  30
0.0
  11
 97.5000
  21
 341.500
  31
0.0
   0
LINE
   8
LEVEL001
   6
CONTINUOUS
  62
7
  10
 51.5000
  20
 99.5000
  30
0.0
  11
 51.5000
  21
 311.701
  31
0.0
   0
LINE
   8
LEVEL001
   6
CONTINUOUS
  62
7
  10
 53.5000
  20
 97.5000
  30
0.0
  11
 106.500
  21
 97.5000
  31
0.0
   0
LINE
   8
LEVEL001
   6
CONTINUOUS
  62
7
  10
 108.500
  20
 99.5000
  30
0.0
  11
 106.500
  21
 97.5000
  31
0.0
   0
LINE
   8
LEVEL001
   6
CONTINUOUS
  62
7
  10
 51.5000
  20
 99.5000
  30
0.0
  11
 53.5000
  21
 97.5000
  31
0.0
   0
LINE
   8
LEVEL001
   6
DASHDOT
  62
1
  10
 80.0000
  20
 207.500
  30
0.0
  11
 80.0000
  21
 212.500
  31
0.0
   0
LINE
   8
LEVEL001
   6
DASHDOT
  62
1
  10
 80.0000
  20
 217.500
  30
0.0
  11
 80.0000
  21
 222.500
  31
0.0
   0
LINE
   8
LEVEL003
   6
CONTINUOUS
  62
3
  10
 107.500
  20
 97.5000
  30
0.0
  11
 212.000
  21
 97.5000
  31
0.0
   0
LINE
   8
LEVEL003
   6
CONTINUOUS
  62
3
  10
 97.5000
  20
 347.500
  30
0.0
  11
 212.000
  21
 347.500
  31
0.0
   0
LINE
   8
LEVEL003
   6
CONTINUOUS
  62
3
  10
 210.000
  20
 97.5000
  30
0.0
  11
 210.000
  21
 347.500
  31
0.0
   0
LINE
   8
LEVEL003
   6
CONTINUOUS
  62
3
  10
 210.000
  20
 97.5000
  30
0.0
  11
 210.529
  21
 100.500
  31
0.0
   0
LINE
   8
LEVEL003
   6
CONTINUOUS
  62
3
  10
 210.000
  20
 97.5000
  30
0.0
  11
 209.471
  21
 100.500
  31
0.0
   0
LINE
   8
LEVEL003
   6
CONTINUOUS
  62
3
  10
 210.000
  20
 347.500
  30
0.0
  11
 209.471
  21
 344.500
  31
0.0
   0
LINE
   8
LEVEL003
   6
CONTINUOUS
  62
3
  10
 210.000
  20
 347.500
  30
0.0
  11
 210.529
  21
 344.500
  31
0.0
   0
TEXT
   8
LEVEL003
  62
3
  10
 209.200
  20
 219.500
  30
0.0
  40
 4.00000
   1
250
  50
 90.0000
  41
 0.500000
   7
STANDARD
  72
1
  11
 209.200
  21
 222.500
  31
0.0
   0
LINE
   8
LEVEL001
   6
DASHDOT
  62
1
  10
 80.0000
  20
 227.500
  30
0.0
  11
 80.0000
  21
 350.638
  31
0.0
   0
LINE
   8
LEVEL001
   6
CONTINUOUS
  62
3
  10
 118.500
  20
 127.144
  30
0.0
  11
 114.884
  21
 126.175
  31
0.0
   0
LINE
   8
LEVEL001
   6
CONTINUOUS
  62
3
  10
 118.500
  20
 109.856
  30
0.0
  11
 114.884
  21
 110.826
  31
0.0
   0
LINE
   8
LEVEL001
   6
CONTINUOUS
  62
7
  10
 118.500
  20
 127.144
  30
0.0
  11
 119.984
  21
 128.000
  31
0.0
   0
LINE
   8
LEVEL001
   6
CONTINUOUS
  62
7
  10
 135.500
  20
 128.000
  30
0.0
  11
 119.984
  21
 128.000
  31
0.0
   0
LINE
   8
LEVEL001
   6
CONTINUOUS
  62
7
  10
 118.500
  20
 109.856
  30
0.0
  11
 119.984
  21
 109.000
  31
0.0
   0
LINE
   8
LEVEL001
   6
CONTINUOUS
  62
7
  10
 135.500
  20
 109.000
  30
0.0
  11
 119.984
  21
 109.000
  31
0.0
   0
ARC
   8
LEVEL001
   6
CONTINUOUS
  62
7
  10
 137.000
  20
 131.500
  30
0.0
  40
 1.50000
  50
 90.0000
  51
 180.000
   0
LINE
   8
LEVEL001
   6
CONTINUOUS
  62
7
  10
 137.000
  20
 133.000
  30
0.0
  11
 142.000
  21
 133.000
  31
0.0
   0
ARC
   8
LEVEL001
   6
CONTINUOUS
  62
7
  10
 137.000
  20
 105.500
  30
0.0
  40
 1.50000
  50
 180.000
  51
 270.000
   0
LINE
   8
LEVEL001
   6
CONTINUOUS
  62
7
  10
 135.500
  20
 105.500
  30
0.0
  11
 135.500
  21
 131.500
  31
0.0
   0
LINE
   8
LEVEL001
   6
CONTINUOUS
  62
7
  10
 137.000
  20
 104.000
  30
0.0
  11
 142.000
  21
 104.000
  31
0.0
   0
ARC
   8
LEVEL001
   6
CONTINUOUS
  62
7
  10
 158.000
  20
 131.500
  30
0.0
  40
 1.50000
  50
 0.108563E-11
  51
 90.0000
   0
LINE
   8
LEVEL001
   6
CONTINUOUS
  62
7
  10
 153.000
  20
 133.000
  30
0.0
  11
 158.000
  21
 133.000
  31
0.0
   0
ARC
   8
LEVEL001
   6
CONTINUOUS
  62
7
  10
 158.000
  20
 105.500
  30
0.0
  40
 1.50000
  50
 270.000
  51
0.0
   0
LINE
   8
LEVEL001
   6
CONTINUOUS
  62
7
  10
 153.000
  20
 104.000
  30
0.0
  11
 158.000
  21
 104.000
  31
0.0
   0
LINE
   8
LEVEL001
   6
CONTINUOUS
  62
7
  10
 159.500
  20
 131.500
  30
0.0
  11
 159.500
  21
 105.500
  31
0.0
   0
ARC
   8
LEVEL001
   6
DASHDOT
  62
1
  10
 168.500
  20
 131.500
  30
0.0
  40
 1.00000
  50
0.0
  51
 90.0000
   0
LINE
   8
LEVEL001
   6
DASHDOT
  62
1
  10
 160.500
  20
 132.500
  30
0.0
  11
 168.500
  21
 132.500
  31
0.0
   0
ARC
   8
LEVEL001
   6
DASHDOT
  62
1
  10
 168.500
  20
 105.500
  30
0.0
  40
 1.00000
  50
 270.000
  51
0.0
   0
LINE
   8
LEVEL001
   6
DASHDOT
  62
1
  10
 160.500
  20
 104.500
  30
0.0
  11
 168.500
  21
 104.500
  31
0.0
   0
LINE
   8
LEVEL001
   6
DASHDOT
  62
1
  10
 169.500
  20
 131.500
  30
0.0
  11
 169.500
  21
 105.500
  31
0.0
   0
CIRCLE
   8
LEVEL001
   6
DASHDOT
  62
1
  10
 172.500
  20
 118.500
  30
0.0
  40
 1.50000
   0
ARC
   8
LEVEL001
   6
DASHDOT
  62
1
  10
 160.500
  20
 105.500
  30
0.0
  40
 1.00000
  50
 180.000
  51
 270.000
   0
ARC
   8
LEVEL001
   6
DASHDOT
  62
1
  10
 160.500
  20
 131.500
  30
0.0
  40
 1.00000
  50
 90.0000
  51
 180.000
   0
ARC
   8
LEVEL001
   6
DASHDOT
  62
1
  10
 171.500
  20
 124.000
  30
0.0
  40
 2.00000
  50
 180.000
  51
 270.000
   0
ARC
   8
LEVEL001
   6
DASHDOT
  62
1
  10
 171.500
  20
 113.000
  30
0.0
  40
 2.00000
  50
 90.0000
  51
 180.000
   0
LINE
   8
LEVEL001
   6
DASHDOT
  62
1
  10
 171.500
  20
 122.000
  30
0.0
  11
 172.000
  21
 122.000
  31
0.0
   0
LINE
   8
LEVEL001
   6
DASHDOT
  62
1
  10
 171.500
  20
 115.000
  30
0.0
  11
 172.000
  21
 115.000
  31
0.0
   0
ARC
   8
LEVEL001
   6
DASHDOT
  62
1
  10
 172.000
  20
 118.500
  30
0.0
  40
 3.50000
  50
 270.000
  51
 90.0000
   0
LINE
   8
LEVEL001
   6
CONTINUOUS
  62
7
  10
 119.984
  20
 109.000
  30
0.0
  11
 119.984
  21
 112.669
  31
0.0
   0
LINE
   8
LEVEL001
   6
CONTINUOUS
  62
7
  10
 119.984
  20
 124.331
  30
0.0
  11
 119.984
  21
 128.000
  31
0.0
   0
LINE
   8
LEVEL001
   6
CONTINUOUS
  62
7
  10
 114.500
  20
 114.461
  30
0.0
  11
 128.500
  21
 124.331
  31
0.0
   0
LINE
   8
LEVEL001
   6
CONTINUOUS
  62
7
  10
 114.500
  20
 122.539
  30
0.0
  11
 128.500
  21
 112.669
  31
0.0
   0
LINE
   8
LEVEL001
   6
CONTINUOUS
  62
3
  10
 114.884
  20
 126.174
  30
0.0
  11
 114.884
  21
 122.539
  31
0.0
   0
LINE
   8
LEVEL001
   6
CONTINUOUS
  62
3
  10
 114.884
  20
 114.461
  30
0.0
  11
 114.884
  21
 110.826
  31
0.0
   0
LINE
   8
LEVEL001
   6
CONTINUOUS
  62
7
  10
 118.500
  20
 127.144
  30
0.0
  11
 118.500
  21
 122.797
  31
0.0
   0
LINE
   8
LEVEL001
   6
CONTINUOUS
  62
7
  10
 118.500
  20
 114.203
  30
0.0
  11
 118.500
  21
 109.856
  31
0.0
   0
LINE
   8
LEVEL001
   6
CONTINUOUS
  62
3
  10
 142.000
  20
 105.500
  30
0.0
  11
 153.000
  21
 105.500
  31
0.0
   0
LINE
   8
LEVEL001
   6
CONTINUOUS
  62
3
  10
 142.000
  20
 107.500
  30
0.0
  11
 153.000
  21
 107.500
  31
0.0
   0
LINE
   8
LEVEL001
   6
CONTINUOUS
  62
3
  10
 142.000
  20
 109.500
  30
0.0
  11
 153.000
  21
 109.500
  31
0.0
   0
LINE
   8
LEVEL001
   6
CONTINUOUS
  62
3
  10
 142.000
  20
 111.500
  30
0.0
  11
 153.000
  21
 111.500
  31
0.0
   0
LINE
   8
LEVEL001
   6
CONTINUOUS
  62
3
  10
 142.000
  20
 113.500
  30
0.0
  11
 153.000
  21
 113.500
  31
0.0
   0
LINE
   8
LEVEL001
   6
CONTINUOUS
  62
3
  10
 142.000
  20
 115.500
  30
0.0
  11
 153.000
  21
 115.500
  31
0.0
   0
LINE
   8
LEVEL001
   6
CONTINUOUS
  62
3
  10
 142.000
  20
 117.500
  30
0.0
  11
 153.000
  21
 117.500
  31
0.0
   0
LINE
   8
LEVEL001
   6
CONTINUOUS
  62
3
  10
 142.000
  20
 119.500
  30
0.0
  11
 153.000
  21
 119.500
  31
0.0
   0
LINE
   8
LEVEL001
   6
CONTINUOUS
  62
3
  10
 142.000
  20
 121.500
  30
0.0
  11
 153.000
  21
 121.500
  31
0.0
   0
LINE
   8
LEVEL001
   6
CONTINUOUS
  62
3
  10
 142.000
  20
 123.500
  30
0.0
  11
 153.000
  21
 123.500
  31
0.0
   0
LINE
   8
LEVEL001
   6
CONTINUOUS
  62
3
  10
 142.000
  20
 125.500
  30
0.0
  11
 153.000
  21
 125.500
  31
0.0
   0
LINE
   8
LEVEL001
   6
CONTINUOUS
  62
3
  10
 142.000
  20
 127.500
  30
0.0
  11
 153.000
  21
 127.500
  31
0.0
   0
LINE
   8
LEVEL001
   6
CONTINUOUS
  62
3
  10
 142.000
  20
 129.500
  30
0.0
  11
 153.000
  21
 129.500
  31
0.0
   0
LINE
   8
LEVEL001
   6
CONTINUOUS
  62
3
  10
 142.000
  20
 131.500
  30
0.0
  11
 153.000
  21
 131.500
  31
0.0
   0
LINE
   8
LEVEL001
   6
CONTINUOUS
  62
7
  10
 118.500
  20
 127.144
  30
0.0
  11
 108.500
  21
 126.831
  31
0.0
   0
LINE
   8
LEVEL001
   6
CONTINUOUS
  62
7
  10
 118.500
  20
 109.856
  30
0.0
  11
 108.500
  21
 110.169
  31
0.0
   0
LINE
   8
LEVEL001
   6
DASHDOT
  62
1
  10
 178.500
  20
 118.500
  30
0.0
  11
 98.5000
  21
 118.500
  31
0.0
   0
LINE
   8
LEVEL001
   6
CONTINUOUS
  62
7
  10
 114.500
  20
 114.461
  30
0.0
  11
 114.500
  21
 122.539
  31
0.0
   0
LINE
   8
LEVEL001
   6
CONTINUOUS
  62
7
  10
 114.500
  20
 122.539
  30
0.0
  11
 118.500
  21
 122.797
  31
0.0
   0
LINE
   8
LEVEL001
   6
CONTINUOUS
  62
7
  10
 118.500
  20
 122.797
  30
0.0
  11
 119.984
  21
 124.331
  31
0.0
   0
LINE
   8
LEVEL001
   6
CONTINUOUS
  62
7
  10
 119.984
  20
 124.331
  30
0.0
  11
 128.500
  21
 124.331
  31
0.0
   0
LINE
   8
LEVEL001
   6
CONTINUOUS
  62
7
  10
 128.500
  20
 124.331
  30
0.0
  11
 128.500
  21
 112.669
  31
0.0
   0
LINE
   8
LEVEL001
   6
CONTINUOUS
  62
7
  10
 128.500
  20
 112.669
  30
0.0
  11
 119.984
  21
 112.669
  31
0.0
   0
LINE
   8
LEVEL001
   6
CONTINUOUS
  62
7
  10
 119.984
  20
 112.669
  30
0.0
  11
 118.500
  21
 114.203
  31
0.0
   0
LINE
   8
LEVEL001
   6
CONTINUOUS
  62
7
  10
 118.500
  20
 114.203
  30
0.0
  11
 114.500
  21
 114.461
  31
0.0
   0
LINE
   8
LEVEL001
   6
CONTINUOUS
  62
7
  10
 142.000
  20
 103.500
  30
0.0
  11
 142.000
  21
 133.500
  31
0.0
   0
LINE
   8
LEVEL001
   6
CONTINUOUS
  62
7
  10
 142.000
  20
 133.500
  30
0.0
  11
 153.000
  21
 133.500
  31
0.0
   0
LINE
   8
LEVEL001
   6
CONTINUOUS
  62
7
  10
 153.000
  20
 133.500
  30
0.0
  11
 153.000
  21
 103.500
  31
0.0
   0
LINE
   8
LEVEL001
   6
CONTINUOUS
  62
7
  10
 153.000
  20
 103.500
  30
0.0
  11
 142.000
  21
 103.500
  31
0.0
   0
LINE
   8
LEVEL003
   6
CONTINUOUS
  62
3
  10
 179.500
  20
 118.500
  30
0.0
  11
 198.115
  21
 118.500
  31
0.0
   0
LINE
   8
LEVEL003
   6
CONTINUOUS
  62
3
  10
 107.500
  20
 97.5000
  30
0.0
  11
 198.115
  21
 97.5000
  31
0.0
   0
LINE
   8
LEVEL003
   6
CONTINUOUS
  62
3
  10
 196.115
  20
 118.500
  30
0.0
  11
 196.115
  21
 97.5000
  31
0.0
   0
LINE
   8
LEVEL003
   6
CONTINUOUS
  62
3
  10
 196.115
  20
 118.500
  30
0.0
  11
 195.586
  21
 115.500
  31
0.0
   0
LINE
   8
LEVEL003
   6
CONTINUOUS
  62
3
  10
 196.115
  20
 118.500
  30
0.0
  11
 196.644
  21
 115.500
  31
0.0
   0
LINE
   8
LEVEL003
   6
CONTINUOUS
  62
3
  10
 196.115
  20
 97.5000
  30
0.0
  11
 196.644
  21
 100.500
  31
0.0
   0
LINE
   8
LEVEL003
   6
CONTINUOUS
  62
3
  10
 196.115
  20
 97.5000
  30
0.0
  11
 195.586
  21
 100.500
  31
0.0
   0
TEXT
   8
LEVEL003
  62
3
  10
 195.315
  20
 106.000
  30
0.0
  40
 4.00000
   1
21
  50
 90.0000
  41
 0.500000
   7
STANDARD
  72
1
  11
 195.315
  21
 108.000
  31
0.0
   0
LINE
   8
LEVEL003
   6
CONTINUOUS
  62
3
  10
 62.5000
  20
 93.5000
  30
0.0
  11
 62.5000
  21
 89.4804
  31
0.0
   0
LINE
   8
LEVEL003
   6
CONTINUOUS
  62
3
  10
 97.5000
  20
 93.5000
  30
0.0
  11
 97.5000
  21
 89.4804
  31
0.0
   0
LINE
   8
LEVEL003
   6
CONTINUOUS
  62
3
  10
 62.5000
  20
 91.4804
  30
0.0
  11
 97.5000
  21
 91.4804
  31
0.0
   0
LINE
   8
LEVEL003
   6
CONTINUOUS
  62
3
  10
 62.5000
  20
 91.4804
  30
0.0
  11
 65.5000
  21
 90.9514
  31
0.0
   0
LINE
   8
LEVEL003
   6
CONTINUOUS
  62
3
  10
 62.5000
  20
 91.4804
  30
0.0
  11
 65.5000
  21
 92.0094
  31
0.0
   0
LINE
   8
LEVEL003
   6
CONTINUOUS
  62
3
  10
 97.5000
  20
 91.4804
  30
0.0
  11
 94.5000
  21
 92.0094
  31
0.0
   0
LINE
   8
LEVEL003
   6
CONTINUOUS
  62
3
  10
 97.5000
  20
 91.4804
  30
0.0
  11
 94.5000
  21
 90.9514
  31
0.0
   0
TEXT
   8
LEVEL003
  62
3
  10
 76.0000
  20
 92.2804
  30
0.0
  40
 4.00000
   1
%%c35
   7
STANDARD
  72
1
  11
 80.0000
  21
 92.2804
  31
0.0
   0
LINE
   8
LEVEL003
   6
CONTINUOUS
  62
3
  10
 111.180
  20
 110.085
  30
0.0
  11
 120.270
  21
 91.4804
  31
0.0
   0
LINE
   8
LEVEL003
   6
CONTINUOUS
  62
3
  10
 120.270
  20
 91.4804
  30
0.0
  11
 145.270
  21
 91.4804
  31
0.0
   0
LINE
   8
LEVEL003
   6
CONTINUOUS
  62
3
  10
 111.180
  20
 110.085
  30
0.0
  11
 112.022
  21
 107.158
  31
0.0
   0
LINE
   8
LEVEL003
   6
CONTINUOUS
  62
3
  10
 111.180
  20
 110.085
  30
0.0
  11
 112.972
  21
 107.622
  31
0.0
   0
TEXT
   8
LEVEL003
  62
3
  10
 120.270
  20
 91.4804
  30
0.0
  40
 4.00000
   1
ＮＰＴ３／８
   7
STANDARD
   0
LINE
   8
LEVEL001
   6
DASHDOT
  62
1
  10
 80.0000
  20
 96.3526
  30
0.0
  11
 80.0000
  21
 202.500
  31
0.0
   0
TEXT
   8
LEVEL003
  62
3
  10
 105.000
  20
 352.500
  30
0.0
  40
 4.00000
   1
Ｍ２７×２
   7
STANDARD
   0
TEXT
   8
LEVEL003
  62
3
  10
 130.000
  20
 352.500
  30
0.0
  40
 4.00000
   1
Ｍ５７×１．５
   7
STANDARD
   0
CIRCLE
   8
LEVEL001
   6
CONTINUOUS
  62
7
  10
 80.0000
  20
 62.5000
  30
0.0
  40
 3.37500
   0
CIRCLE
   8
LEVEL001
   6
CONTINUOUS
  62
3
  10
 80.0000
  20
 62.5000
  30
0.0
  40
 4.00000
   0
LINE
   8
LEVEL001
   6
DASHDOT
  62
1
  10
 87.0000
  20
 62.5000
  30
0.0
  11
 73.0000
  21
 62.5000
  31
0.0
   0
CIRCLE
   8
LEVEL001
   6
CONTINUOUS
  62
7
  10
 80.0000
  20
 27.5000
  30
0.0
  40
 3.37500
   0
CIRCLE
   8
LEVEL001
   6
CONTINUOUS
  62
3
  10
 80.0000
  20
 27.5000
  30
0.0
  40
 4.00000
   0
LINE
   8
LEVEL001
   6
DASHDOT
  62
1
  10
 87.0000
  20
 27.5000
  30
0.0
  11
 73.0000
  21
 27.5000
  31
0.0
   0
LINE
   8
LEVEL001
   6
DASHDOT
  62
1
  10
 80.0000
  20
 10.0000
  30
0.0
  11
 80.0000
  21
 80.0000
  31
0.0
   0
POINT
   8
LEVEL001
  62
7
  10
 107.504
  20
 45.0000
  30
0.0
   0
LINE
   8
LEVEL001
   6
CONTINUOUS
  62
3
  10
 113.887
  20
 52.5000
  30
0.0
  11
 113.887
  21
 37.5000
  31
0.0
   0
LINE
   8
LEVEL001
   6
CONTINUOUS
  62
7
  10
 117.504
  20
 52.5000
  30
0.0
  11
 117.504
  21
 37.5000
  31
0.0
   0
LINE
   8
LEVEL001
   6
CONTINUOUS
  62
7
  10
 118.987
  20
 37.5000
  30
0.0
  11
 118.987
  21
 52.5000
  31
0.0
   0
LINE
   8
LEVEL001
   6
CONTINUOUS
  62
3
  10
 113.504
  20
 52.6625
  30
0.0
  11
 107.504
  21
 52.4750
  31
0.0
   0
LINE
   8
LEVEL001
   6
CONTINUOUS
  62
3
  10
 113.499
  20
 37.3376
  30
0.0
  11
 107.504
  21
 37.5250
  31
0.0
   0
LINE
   8
LEVEL001
   6
CONTINUOUS
  62
7
  10
 113.504
  20
 53.5185
  30
0.0
  11
 107.258
  21
 53.3233
  31
0.0
   0
LINE
   8
LEVEL001
   6
CONTINUOUS
  62
7
  10
 113.504
  20
 36.4815
  30
0.0
  11
 107.258
  21
 36.6767
  31
0.0
   0
LINE
   8
LEVEL001
   6
CONTINUOUS
  62
7
  10
 80.0000
  20
 49.6188
  30
0.0
  11
 84.0000
  21
 47.3094
  31
0.0
   0
LINE
   8
LEVEL001
   6
CONTINUOUS
  62
7
  10
 84.0000
  20
 47.3094
  30
0.0
  11
 84.0000
  21
 42.6906
  31
0.0
   0
LINE
   8
LEVEL001
   6
CONTINUOUS
  62
7
  10
 84.0000
  20
 42.6906
  30
0.0
  11
 80.0000
  21
 40.3812
  31
0.0
   0
LINE
   8
LEVEL001
   6
CONTINUOUS
  62
7
  10
 80.0000
  20
 40.3812
  30
0.0
  11
 76.0000
  21
 42.6906
  31
0.0
   0
LINE
   8
LEVEL001
   6
CONTINUOUS
  62
7
  10
 76.0000
  20
 42.6906
  30
0.0
  11
 76.0000
  21
 47.3094
  31
0.0
   0
LINE
   8
LEVEL001
   6
CONTINUOUS
  62
7
  10
 76.0000
  20
 47.3094
  30
0.0
  11
 80.0000
  21
 49.6188
  31
0.0
   0
CIRCLE
   8
LEVEL001
   6
CONTINUOUS
  62
7
  10
 80.0000
  20
 45.0000
  30
0.0
  40
 8.33100
   0
CIRCLE
   8
LEVEL001
   6
CONTINUOUS
  62
3
  10
 80.0000
  20
 45.0000
  30
0.0
  40
 7.47500
   0
CIRCLE
   8
LEVEL001
   6
CONTINUOUS
  62
7
  10
 80.0000
  20
 45.0000
  30
0.0
  40
 9.33096
   0
CIRCLE
   8
LEVEL001
   6
CONTINUOUS
  62
7
  10
 80.0000
  20
 45.0000
  30
0.0
  40
 28.5000
   0
CIRCLE
   8
LEVEL001
   6
CONTINUOUS
  62
7
  10
 80.0000
  20
 45.0000
  30
0.0
  40
 26.5000
   0
ARC
   8
LEVEL001
   6
CONTINUOUS
  62
7
  10
 136.004
  20
 58.0000
  30
0.0
  40
 1.50000
  50
 90.0000
  51
 180.000
   0
LINE
   8
LEVEL001
   6
CONTINUOUS
  62
7
  10
 136.004
  20
 59.5000
  30
0.0
  11
 141.004
  21
 59.5000
  31
0.0
   0
LINE
   8
LEVEL001
   6
CONTINUOUS
  62
7
  10
 134.504
  20
 32.0000
  30
0.0
  11
 134.504
  21
 58.0000
  31
0.0
   0
ARC
   8
LEVEL001
   6
CONTINUOUS
  62
7
  10
 157.004
  20
 58.0000
  30
0.0
  40
 1.50000
  50
0.0
  51
 90.0000
   0
LINE
   8
LEVEL001
   6
CONTINUOUS
  62
7
  10
 152.004
  20
 59.5000
  30
0.0
  11
 157.004
  21
 59.5000
  31
0.0
   0
LINE
   8
LEVEL001
   6
CONTINUOUS
  62
7
  10
 158.504
  20
 58.0000
  30
0.0
  11
 158.504
  21
 32.0000
  31
0.0
   0
ARC
   8
LEVEL001
   6
DASHDOT
  62
1
  10
 167.504
  20
 58.0000
  30
0.0
  40
 1.00000
  50
0.0
  51
 90.0000
   0
LINE
   8
LEVEL001
   6
DASHDOT
  62
1
  10
 159.504
  20
 59.0000
  30
0.0
  11
 167.504
  21
 59.0000
  31
0.0
   0
LINE
   8
LEVEL001
   6
DASHDOT
  62
1
  10
 168.504
  20
 58.0000
  30
0.0
  11
 168.504
  21
 32.0000
  31
0.0
   0
ARC
   8
LEVEL001
   6
DASHDOT
  62
1
  10
 159.504
  20
 58.0000
  30
0.0
  40
 1.00000
  50
 90.0000
  51
 180.000
   0
LINE
   8
LEVEL001
   6
CONTINUOUS
  62
3
  10
 141.004
  20
 52.0000
  30
0.0
  11
 152.004
  21
 52.0000
  31
0.0
   0
LINE
   8
LEVEL001
   6
CONTINUOUS
  62
3
  10
 141.004
  20
 54.0000
  30
0.0
  11
 152.004
  21
 54.0000
  31
0.0
   0
LINE
   8
LEVEL001
   6
CONTINUOUS
  62
3
  10
 141.004
  20
 56.0000
  30
0.0
  11
 152.004
  21
 56.0000
  31
0.0
   0
LINE
   8
LEVEL001
   6
CONTINUOUS
  62
3
  10
 141.004
  20
 58.0000
  30
0.0
  11
 152.004
  21
 58.0000
  31
0.0
   0
LINE
   8
LEVEL001
   6
CONTINUOUS
  62
7
  10
 113.504
  20
 53.5185
  30
0.0
  11
 113.504
  21
 52.5000
  31
0.0
   0
LINE
   8
LEVEL001
   6
CONTINUOUS
  62
7
  10
 113.504
  20
 52.5000
  30
0.0
  11
 127.504
  21
 52.5000
  31
0.0
   0
LINE
   8
LEVEL001
   6
CONTINUOUS
  62
7
  10
 127.504
  20
 52.5000
  30
0.0
  11
 127.504
  21
 54.5000
  31
0.0
   0
LINE
   8
LEVEL001
   6
CONTINUOUS
  62
7
  10
 127.504
  20
 54.5000
  30
0.0
  11
 134.504
  21
 54.5000
  31
0.0
   0
LINE
   8
LEVEL001
   6
CONTINUOUS
  62
7
  10
 141.004
  20
 30.0000
  30
0.0
  11
 141.004
  21
 60.0000
  31
0.0
   0
LINE
   8
LEVEL001
   6
CONTINUOUS
  62
7
  10
 141.004
  20
 60.0000
  30
0.0
  11
 152.004
  21
 60.0000
  31
0.0
   0
LINE
   8
LEVEL001
   6
CONTINUOUS
  62
7
  10
 152.004
  20
 60.0000
  30
0.0
  11
 152.004
  21
 30.0000
  31
0.0
   0
LINE
   8
LEVEL001
   6
CONTINUOUS
  62
7
  10
 152.004
  20
 30.0000
  30
0.0
  11
 141.004
  21
 30.0000
  31
0.0
   0
ARC
   8
LEVEL001
   6
CONTINUOUS
  62
7
  10
 136.004
  20
 32.0000
  30
0.0
  40
 1.50000
  50
 180.000
  51
 270.000
   0
LINE
   8
LEVEL001
   6
CONTINUOUS
  62
7
  10
 136.004
  20
 30.5000
  30
0.0
  11
 141.004
  21
 30.5000
  31
0.0
   0
ARC
   8
LEVEL001
   6
CONTINUOUS
  62
7
  10
 157.004
  20
 32.0000
  30
0.0
  40
 1.50000
  50
 270.000
  51
0.0
   0
LINE
   8
LEVEL001
   6
CONTINUOUS
  62
7
  10
 152.004
  20
 30.5000
  30
0.0
  11
 157.004
  21
 30.5000
  31
0.0
   0
ARC
   8
LEVEL001
   6
DASHDOT
  62
1
  10
 167.504
  20
 32.0000
  30
0.0
  40
 1.00000
  50
 270.000
  51
 0.113584E-9
   0
LINE
   8
LEVEL001
   6
DASHDOT
  62
1
  10
 159.504
  20
 31.0000
  30
0.0
  11
 167.504
  21
 31.0000
  31
0.0
   0
ARC
   8
LEVEL001
   6
DASHDOT
  62
1
  10
 159.504
  20
 32.0000
  30
0.0
  40
 1.00000
  50
 180.000
  51
 270.000
   0
LINE
   8
LEVEL001
   6
CONTINUOUS
  62
3
  10
 141.004
  20
 32.0000
  30
0.0
  11
 152.004
  21
 32.0000
  31
0.0
   0
LINE
   8
LEVEL001
   6
CONTINUOUS
  62
3
  10
 141.004
  20
 34.0000
  30
0.0
  11
 152.004
  21
 34.0000
  31
0.0
   0
LINE
   8
LEVEL001
   6
CONTINUOUS
  62
3
  10
 141.004
  20
 36.0000
  30
0.0
  11
 152.004
  21
 36.0000
  31
0.0
   0
LINE
   8
LEVEL001
   6
CONTINUOUS
  62
3
  10
 141.004
  20
 38.0000
  30
0.0
  11
 152.004
  21
 38.0000
  31
0.0
   0
LINE
   8
LEVEL001
   6
CONTINUOUS
  62
3
  10
 141.004
  20
 40.0000
  30
0.0
  11
 152.004
  21
 40.0000
  31
0.0
   0
LINE
   8
LEVEL001
   6
CONTINUOUS
  62
3
  10
 141.004
  20
 42.0000
  30
0.0
  11
 152.004
  21
 42.0000
  31
0.0
   0
LINE
   8
LEVEL001
   6
CONTINUOUS
  62
3
  10
 141.004
  20
 44.0000
  30
0.0
  11
 152.004
  21
 44.0000
  31
0.0
   0
LINE
   8
LEVEL001
   6
CONTINUOUS
  62
3
  10
 141.004
  20
 46.0000
  30
0.0
  11
 152.004
  21
 46.0000
  31
0.0
   0
LINE
   8
LEVEL001
   6
CONTINUOUS
  62
3
  10
 141.004
  20
 48.0000
  30
0.0
  11
 152.004
  21
 48.0000
  31
0.0
   0
LINE
   8
LEVEL001
   6
CONTINUOUS
  62
3
  10
 141.004
  20
 50.0000
  30
0.0
  11
 152.004
  21
 50.0000
  31
0.0
   0
LINE
   8
LEVEL001
   6
DASHDOT
  62
1
  10
 168.504
  20
 47.0000
  30
0.0
  11
 174.504
  21
 47.0000
  31
0.0
   0
LINE
   8
LEVEL001
   6
DASHDOT
  62
1
  10
 174.504
  20
 47.0000
  30
0.0
  11
 174.504
  21
 43.0000
  31
0.0
   0
LINE
   8
LEVEL001
   6
DASHDOT
  62
1
  10
 174.504
  20
 43.0000
  30
0.0
  11
 168.504
  21
 43.0000
  31
0.0
   0
LINE
   8
LEVEL001
   6
CONTINUOUS
  62
7
  10
 113.504
  20
 36.4815
  30
0.0
  11
 113.504
  21
 37.5000
  31
0.0
   0
LINE
   8
LEVEL001
   6
CONTINUOUS
  62
7
  10
 113.504
  20
 37.5000
  30
0.0
  11
 127.504
  21
 37.5000
  31
0.0
   0
LINE
   8
LEVEL001
   6
CONTINUOUS
  62
7
  10
 127.504
  20
 37.5000
  30
0.0
  11
 127.504
  21
 35.5000
  31
0.0
   0
LINE
   8
LEVEL001
   6
CONTINUOUS
  62
7
  10
 127.504
  20
 35.5000
  30
0.0
  11
 134.504
  21
 35.5000
  31
0.0
   0
LINE
   8
LEVEL001
   6
DASHDOT
  62
1
  10
 177.504
  20
 45.0000
  30
0.0
  11
 45.0000
  21
 45.0000
  31
0.0
   0
LINE
   8
LEVEL001
   6
DOT
  62
3
  10
 67.7500
  20
 338.500
  30
0.0
  11
 67.5000
  21
 338.500
  31
0.0
   0
LINE
   8
LEVEL001
   6
DOT
  62
3
  10
 92.5000
  20
 338.500
  30
0.0
  11
 92.2500
  21
 338.500
  31
0.0
   0
LINE
   8
LEVEL001
   6
CONTINUOUS
  62
7
  10
 55.7500
  20
 341.500
  30
0.0
  11
 106.250
  21
 341.500
  31
0.0
   0
LINE
   8
LEVEL001
   6
CONTINUOUS
  62
7
  10
 62.5000
  20
 346.500
  30
0.0
  11
 97.5000
  21
 346.500
  31
0.0
   0
LINE
   8
LEVEL001
   6
CONTINUOUS
  62
7
  10
 52.7500
  20
 340.500
  30
0.0
  11
 107.250
  21
 340.500
  31
0.0
   0
LINE
   8
LEVEL001
   6
CONTINUOUS
  62
7
  10
 52.2500
  20
 338.500
  30
0.0
  11
 107.750
  21
 338.500
  31
0.0
   0
LINE
   8
LEVEL001
   6
CONTINUOUS
  62
3
  10
 107.750
  20
 338.500
  30
0.0
  11
 107.750
  21
 314.500
  31
0.0
   0
LINE
   8
LEVEL001
   6
CONTINUOUS
  62
3
  10
 52.2500
  20
 338.500
  30
0.0
  11
 52.2500
  21
 314.500
  31
0.0
   0
LINE
   8
LEVEL001
   6
CONTINUOUS
  62
7
  10
 108.500
  20
 311.701
  30
0.0
  11
 51.5000
  21
 311.701
  31
0.0
   0
LINE
   8
LEVEL001
   6
CONTINUOUS
  62
3
  10
 51.5000
  20
 314.500
  30
0.0
  11
 108.500
  21
 314.500
  31
0.0
   0
LINE
   8
LEVEL001
   6
CONTINUOUS
  62
3
  10
 108.500
  20
 337.750
  30
0.0
  11
 51.5000
  21
 337.750
  31
0.0
   0
LINE
   8
LEVEL001
   6
CONTINUOUS
  62
7
  10
 108.500
  20
 99.5000
  30
0.0
  11
 108.500
  21
 312.500
  31
0.0
   0
LINE
   8
LEVEL001
   6
CONTINUOUS
  62
3
  10
 114.884
  20
 126.174
  30
0.0
  11
 108.500
  21
 125.975
  31
0.0
   0
LINE
   8
LEVEL001
   6
CONTINUOUS
  62
3
  10
 114.884
  20
 110.826
  30
0.0
  11
 108.500
  21
 111.025
  31
0.0
   0
ARC
   8
LEVEL004
   6
DOT
  62
3
  10
 68.0000
  20
 347.500
  30
0.0
  40
 1.00000
  50
 180.000
  51
0.0
   0
ARC
   8
LEVEL004
   6
DOT
  62
3
  10
 74.0000
  20
 347.500
  30
0.0
  40
 1.00000
  50
 180.000
  51
0.0
   0
ARC
   8
LEVEL004
   6
DOT
  62
3
  10
 86.0000
  20
 347.500
  30
0.0
  40
 1.00000
  50
 180.000
  51
0.0
   0
ARC
   8
LEVEL004
   6
DOT
  62
3
  10
 92.0000
  20
 347.500
  30
0.0
  40
 1.00000
  50
 180.000
  51
0.0
   0
LINE
   8
LEVEL004
   6
DOT
  62
3
  10
 93.5000
  20
 339.500
  30
0.0
  11
 93.5000
  21
 341.000
  31
0.0
   0
ARC
   8
LEVEL004
   6
DOT
  62
3
  10
 93.7500
  20
 340.000
  30
0.0
  40
 1.50000
  50
 90.0000
  51
 180.000
   0
LINE
   8
LEVEL004
   6
DOT
  62
3
  10
 92.2500
  20
 340.000
  30
0.0
  11
 92.2500
  21
 327.500
  31
0.0
   0
LINE
   8
LEVEL004
   6
DOT
  62
3
  10
 93.5000
  20
 339.500
  30
0.0
  11
 93.5000
  21
 321.500
  31
0.0
   0
LINE
   8
LEVEL004
   6
DOT
  62
3
  10
 93.5000
  20
 339.500
  30
0.0
  11
 92.5000
  21
 338.500
  31
0.0
   0
LINE
   8
LEVEL004
   6
DOT
  62
3
  10
 92.5000
  20
 338.500
  30
0.0
  11
 92.5000
  21
 322.500
  31
0.0
   0
LINE
   8
LEVEL004
   6
DOT
  62
3
  10
 66.0000
  20
 341.500
  30
0.0
  11
 66.5000
  21
 341.000
  31
0.0
   0
LINE
   8
LEVEL004
   6
DOT
  62
3
  10
 66.5000
  20
 339.500
  30
0.0
  11
 66.5000
  21
 341.000
  31
0.0
   0
ARC
   8
LEVEL004
   6
DOT
  62
3
  10
 66.2500
  20
 340.000
  30
0.0
  40
 1.50000
  50
0.0
  51
 90.0000
   0
LINE
   8
LEVEL004
   6
DOT
  62
3
  10
 66.5000
  20
 339.500
  30
0.0
  11
 67.7500
  21
 339.500
  31
0.0
   0
LINE
   8
LEVEL004
   6
DOT
  62
3
  10
 66.5000
  20
 339.500
  30
0.0
  11
 66.5000
  21
 321.500
  31
0.0
   0
LINE
   8
LEVEL004
   6
DOT
  62
3
  10
 66.5000
  20
 339.500
  30
0.0
  11
 67.5000
  21
 338.500
  31
0.0
   0
LINE
   8
LEVEL004
   6
DOT
  62
3
  10
 67.5000
  20
 338.500
  30
0.0
  11
 67.5000
  21
 322.500
  31
0.0
   0
LINE
   8
LEVEL004
   6
DOT
  62
3
  10
 67.7500
  20
 340.000
  30
0.0
  11
 67.7500
  21
 333.464
  31
0.0
   0
LINE
   8
LEVEL004
   6
DASHDOT
  62
1
  10
 80.0387
  20
 331.000
  30
0.0
  11
 79.6180
  21
 334.000
  31
0.0
   0
LINE
   8
LEVEL004
   6
DASHDOT
  62
1
  10
 79.6180
  20
 334.000
  30
0.0
  11
 79.1973
  21
 331.000
  31
0.0
   0
LINE
   8
LEVEL004
   6
DASHDOT
  62
1
  10
 79.1973
  20
 331.000
  30
0.0
  11
 78.7766
  21
 334.000
  31
0.0
   0
LINE
   8
LEVEL004
   6
DASHDOT
  62
1
  10
 78.7766
  20
 334.000
  30
0.0
  11
 78.3559
  21
 331.000
  31
0.0
   0
LINE
   8
LEVEL004
   6
DASHDOT
  62
1
  10
 78.3559
  20
 331.000
  30
0.0
  11
 77.9352
  21
 334.000
  31
0.0
   0
LINE
   8
LEVEL004
   6
DASHDOT
  62
1
  10
 77.9352
  20
 334.000
  30
0.0
  11
 77.5145
  21
 331.000
  31
0.0
   0
LINE
   8
LEVEL004
   6
DASHDOT
  62
1
  10
 77.5145
  20
 331.000
  30
0.0
  11
 77.0938
  21
 334.000
  31
0.0
   0
LINE
   8
LEVEL004
   6
DASHDOT
  62
1
  10
 77.0938
  20
 334.000
  30
0.0
  11
 76.6732
  21
 331.000
  31
0.0
   0
LINE
   8
LEVEL004
   6
DASHDOT
  62
1
  10
 76.6732
  20
 331.000
  30
0.0
  11
 76.2525
  21
 334.000
  31
0.0
   0
LINE
   8
LEVEL004
   6
DASHDOT
  62
1
  10
 76.2525
  20
 334.000
  30
0.0
  11
 75.8318
  21
 331.000
  31
0.0
   0
LINE
   8
LEVEL004
   6
DASHDOT
  62
1
  10
 75.8318
  20
 331.000
  30
0.0
  11
 75.4111
  21
 334.000
  31
0.0
   0
LINE
   8
LEVEL004
   6
DASHDOT
  62
1
  10
 75.4111
  20
 334.000
  30
0.0
  11
 74.9904
  21
 331.000
  31
0.0
   0
LINE
   8
LEVEL004
   6
DASHDOT
  62
1
  10
 74.9904
  20
 331.000
  30
0.0
  11
 74.5697
  21
 334.000
  31
0.0
   0
LINE
   8
LEVEL004
   6
DASHDOT
  62
1
  10
 74.5697
  20
 334.000
  30
0.0
  11
 74.1490
  21
 331.000
  31
0.0
   0
LINE
   8
LEVEL004
   6
DASHDOT
  62
1
  10
 74.1490
  20
 331.000
  30
0.0
  11
 73.7283
  21
 334.000
  31
0.0
   0
LINE
   8
LEVEL004
   6
DASHDOT
  62
1
  10
 73.7283
  20
 334.000
  30
0.0
  11
 73.3076
  21
 331.000
  31
0.0
   0
LINE
   8
LEVEL004
   6
DASHDOT
  62
1
  10
 73.3076
  20
 331.000
  30
0.0
  11
 72.8870
  21
 334.000
  31
0.0
   0
LINE
   8
LEVEL004
   6
DASHDOT
  62
1
  10
 72.8870
  20
 334.000
  30
0.0
  11
 72.4662
  21
 331.000
  31
0.0
   0
LINE
   8
LEVEL004
   6
DASHDOT
  62
1
  10
 72.4662
  20
 331.000
  30
0.0
  11
 72.0456
  21
 334.000
  31
0.0
   0
LINE
   8
LEVEL004
   6
DASHDOT
  62
1
  10
 72.0456
  20
 334.000
  30
0.0
  11
 71.6249
  21
 331.000
  31
0.0
   0
LINE
   8
LEVEL004
   6
DASHDOT
  62
1
  10
 71.6249
  20
 331.000
  30
0.0
  11
 71.2042
  21
 334.000
  31
0.0
   0
LINE
   8
LEVEL004
   6
DASHDOT
  62
1
  10
 64.7500
  20
 332.500
  30
0.0
  11
 82.3248
  21
 332.500
  31
0.0
   0
CIRCLE
   8
LEVEL004
   6
DOT
  62
3
  10
 69.4844
  20
 332.500
  30
0.0
  40
 1.98438
   0
LINE
   8
LEVEL004
   6
DOT
  62
3
  10
 67.7500
  20
 331.536
  30
0.0
  11
 67.7500
  21
 327.500
  31
0.0
   0
LINE
   8
LEVEL004
   6
DOT
  62
3
  10
 67.7500
  20
 330.500
  30
0.0
  11
 79.7500
  21
 330.500
  31
0.0
   0
LINE
   8
LEVEL004
   6
DOT
  62
3
  10
 79.7500
  20
 330.500
  30
0.0
  11
 80.9047
  21
 332.500
  31
0.0
   0
LINE
   8
LEVEL004
   6
DOT
  62
3
  10
 80.9047
  20
 332.500
  30
0.0
  11
 79.7500
  21
 334.500
  31
0.0
   0
LINE
   8
LEVEL004
   6
DOT
  62
3
  10
 79.7500
  20
 334.500
  30
0.0
  11
 67.7500
  21
 334.500
  31
0.0
   0
LINE
   8
LEVEL004
   6
DOT
  62
3
  10
 61.0000
  20
 166.500
  30
0.0
  11
 61.0000
  21
 339.500
  31
0.0
   0
LINE
   8
LEVEL004
   6
DOT
  62
3
  10
 79.7500
  20
 334.500
  30
0.0
  11
 79.7500
  21
 330.500
  31
0.0
   0
LINE
   8
LEVEL004
   6
DOT
  62
3
  10
 67.7500
  20
 327.500
  30
0.0
  11
 68.7500
  21
 326.500
  31
0.0
   0
LINE
   8
LEVEL004
   6
DOT
  62
3
  10
 67.7500
  20
 327.500
  30
0.0
  11
 67.5000
  21
 327.500
  31
0.0
   0
ARC
   8
LEVEL004
   6
DOT
  62
3
  10
 67.5000
  20
 320.500
  30
0.0
  40
 1.00000
  50
 180.000
  51
 270.000
   0
ARC
   8
LEVEL004
   6
DOT
  62
3
  10
 67.5000
  20
 321.500
  30
0.0
  40
 1.00000
  50
 90.0000
  51
 180.000
   0
LINE
   8
LEVEL004
   6
DOT
  62
3
  10
 66.5000
  20
 321.500
  30
0.0
  11
 66.5000
  21
 320.500
  31
0.0
   0
LINE
   8
LEVEL004
   6
DOT
  62
3
  10
 68.7500
  20
 326.500
  30
0.0
  11
 91.2500
  21
 326.500
  31
0.0
   0
LINE
   8
LEVEL004
   6
DOT
  62
3
  10
 67.5000
  20
 322.500
  30
0.0
  11
 92.5000
  21
 322.500
  31
0.0
   0
LINE
   8
LEVEL004
   6
DOT
  62
3
  10
 67.5000
  20
 319.500
  30
0.0
  11
 92.5000
  21
 319.500
  31
0.0
   0
LINE
   8
LEVEL004
   6
DOT
  62
3
  10
 91.2500
  20
 326.500
  30
0.0
  11
 92.2500
  21
 327.500
  31
0.0
   0
LINE
   8
LEVEL004
   6
DOT
  62
3
  10
 92.5000
  20
 327.500
  30
0.0
  11
 92.2500
  21
 327.500
  31
0.0
   0
ARC
   8
LEVEL004
   6
DOT
  62
3
  10
 92.5000
  20
 320.500
  30
0.0
  40
 1.00000
  50
 270.000
  51
0.0
   0
LINE
   8
LEVEL004
   6
DOT
  62
3
  10
 93.5000
  20
 321.500
  30
0.0
  11
 93.5000
  21
 320.500
  31
0.0
   0
ARC
   8
LEVEL004
   6
DOT
  62
3
  10
 92.5000
  20
 321.500
  30
0.0
  40
 1.00000
  50
0.0
  51
 90.0000
   0
LINE
   8
LEVEL004
   6
DOT
  62
3
  10
 92.2500
  20
 339.500
  30
0.0
  11
 93.5000
  21
 339.500
  31
0.0
   0
LINE
   8
LEVEL004
   6
DOT
  62
3
  10
 93.5000
  20
 341.000
  30
0.0
  11
 94.0000
  21
 341.500
  31
0.0
   0
LINE
   8
LEVEL004
   6
DOT
  62
3
  10
 99.0000
  20
 166.500
  30
0.0
  11
 99.0000
  21
 339.500
  31
0.0
   0
LINE
   8
LEVEL004
   6
DOT
  62
3
  10
 101.500
  20
 309.500
  30
0.0
  11
 101.500
  21
 134.300
  31
0.0
   0
LINE
   8
LEVEL004
   6
DOT
  62
3
  10
 58.5000
  20
 309.500
  30
0.0
  11
 58.5000
  21
 134.300
  31
0.0
   0
LINE
   8
LEVEL004
   6
DASHDOT
  62
1
  10
 62.5000
  20
 94.5000
  30
0.0
  11
 62.5000
  21
 109.500
  31
0.0
   0
LINE
   8
LEVEL004
   6
DOT
  62
3
  10
 59.1250
  20
 109.500
  30
0.0
  11
 59.1250
  21
 98.1250
  31
0.0
   0
LINE
   8
LEVEL004
   6
DOT
  62
3
  10
 59.1250
  20
 98.1250
  30
0.0
  11
 58.5000
  21
 97.5000
  31
0.0
   0
LINE
   8
LEVEL004
   6
DOT
  62
3
  10
 58.5000
  20
 109.500
  30
0.0
  11
 58.5000
  21
 97.5000
  31
0.0
   0
LINE
   8
LEVEL004
   6
DOT
  62
3
  10
 66.5000
  20
 97.5000
  30
0.0
  11
 65.8750
  21
 98.1250
  31
0.0
   0
LINE
   8
LEVEL004
   6
DOT
  62
3
  10
 65.8750
  20
 98.1250
  30
0.0
  11
 65.8750
  21
 109.500
  31
0.0
   0
LINE
   8
LEVEL004
   6
DOT
  62
3
  10
 66.5000
  20
 97.5000
  30
0.0
  11
 66.5000
  21
 109.500
  31
0.0
   0
LINE
   8
LEVEL004
   6
DOT
  62
3
  10
 65.8750
  20
 98.1250
  30
0.0
  11
 59.1250
  21
 98.1250
  31
0.0
   0
LINE
   8
LEVEL004
   6
DASHDOT
  62
1
  10
 97.5000
  20
 94.5000
  30
0.0
  11
 97.5000
  21
 109.500
  31
0.0
   0
TEXT
   8
LEVEL003
  62
3
  10
 20.0000
  20
 91.4804
  30
0.0
  40
 4.00000
   1
２－Ｍ８×１２Ｌ
   7
STANDARD
   0
LINE
   8
LEVEL003
   6
CONTINUOUS
  62
3
  10
 62.5000
  20
 97.5000
  30
0.0
  11
 55.0000
  21
 91.4804
  31
0.0
   0
LINE
   8
LEVEL003
   6
CONTINUOUS
  62
3
  10
 55.0000
  20
 91.4804
  30
0.0
  11
 20.0000
  21
 91.4804
  31
0.0
   0
LINE
   8
LEVEL003
   6
CONTINUOUS
  62
3
  10
 62.5000
  20
 97.5000
  30
0.0
  11
 59.8293
  21
 96.0347
  31
0.0
   0
LINE
   8
LEVEL003
   6
CONTINUOUS
  62
3
  10
 62.5000
  20
 97.5000
  30
0.0
  11
 60.4915
  21
 95.2097
  31
0.0
   0
LINE
   8
LEVEL001
   6
CONTINUOUS
  62
7
  10
 51.5000
  20
 99.5000
  30
0.0
  11
 108.500
  21
 99.5000
  31
0.0
   0
TEXT
   8
LEVEL003
  62
7
  10
 196.691
  20
 10.2200
  30
0.0
  40
 10.0000
   1
ＯＳＡＫＡ ＪＡＣＫ
   7
STANDARD
   0
CIRCLE
   8
LEVEL003
   6
CONTINUOUS
  62
7
  10
 184.718
  20
 17.2707
  30
0.0
  40
 3.00000
   0
LINE
   8
LEVEL003
   6
CONTINUOUS
  62
7
  10
 190.606
  20
 20.2707
  30
0.0
  11
 186.797
  21
 13.6707
  31
0.0
   0
LINE
   8
LEVEL003
   6
CONTINUOUS
  62
7
  10
 186.797
  20
 13.6707
  30
0.0
  11
 179.176
  21
 13.6707
  31
0.0
   0
LINE
   8
LEVEL003
   6
CONTINUOUS
  62
7
  10
 178.309
  20
 12.1707
  30
0.0
  11
 191.930
  21
 12.1707
  31
0.0
   0
LINE
   8
LEVEL003
   6
CONTINUOUS
  62
7
  10
 191.930
  20
 12.1707
  30
0.0
  11
 196.606
  21
 20.2707
  31
0.0
   0
LINE
   8
LEVEL003
   6
CONTINUOUS
  62
7
  10
 179.176
  20
 13.6707
  30
0.0
  11
 178.309
  21
 12.1707
  31
0.0
   0
LINE
   8
LEVEL003
   6
CONTINUOUS
  62
7
  10
 196.606
  20
 20.2707
  30
0.0
  11
 190.606
  21
 20.2707
  31
0.0
   0
TEXT
   8
LEVEL003
  62
7
  10
 199.602
  20
 27.1134
  30
0.0
  40
 6.00000
   1
Model : Ｅ１０Ｓ１５
   7
STANDARD
   0
LINE
   8
LEVEL003
   6
CONTINUOUS
  62
3
  10
 107.250
  20
 341.500
  30
0.0
  11
 142.000
  21
 341.500
  31
0.0
   0
LINE
   8
LEVEL003
   6
CONTINUOUS
  62
3
  10
 112.500
  20
 314.500
  30
0.0
  11
 142.000
  21
 314.500
  31
0.0
   0
LINE
   8
LEVEL003
   6
CONTINUOUS
  62
3
  10
 140.000
  20
 341.500
  30
0.0
  11
 140.000
  21
 314.500
  31
0.0
   0
LINE
   8
LEVEL003
   6
CONTINUOUS
  62
3
  10
 140.000
  20
 341.500
  30
0.0
  11
 139.471
  21
 338.500
  31
0.0
   0
LINE
   8
LEVEL003
   6
CONTINUOUS
  62
3
  10
 140.000
  20
 341.500
  30
0.0
  11
 140.529
  21
 338.500
  31
0.0
   0
LINE
   8
LEVEL003
   6
CONTINUOUS
  62
3
  10
 140.000
  20
 314.500
  30
0.0
  11
 140.529
  21
 317.500
  31
0.0
   0
LINE
   8
LEVEL003
   6
CONTINUOUS
  62
3
  10
 140.000
  20
 314.500
  30
0.0
  11
 139.471
  21
 317.500
  31
0.0
   0
TEXT
   8
LEVEL003
  62
3
  10
 139.200
  20
 324.000
  30
0.0
  40
 4.00000
   1
27
  50
 90.0000
   7
STANDARD
  72
1
  11
 139.200
  21
 328.000
  31
0.0
   0
LINE
   8
LEVEL003
   6
CONTINUOUS
  62
3
  10
 97.5000
  20
 347.500
  30
0.0
  11
 142.000
  21
 347.500
  31
0.0
   0
LINE
   8
LEVEL003
   6
CONTINUOUS
  62
3
  10
 107.250
  20
 341.500
  30
0.0
  11
 142.000
  21
 341.500
  31
0.0
   0
LINE
   8
LEVEL003
   6
CONTINUOUS
  62
3
  10
 140.000
  20
 347.500
  30
0.0
  11
 140.000
  21
 341.500
  31
0.0
   0
LINE
   8
LEVEL003
   6
CONTINUOUS
  62
3
  10
 140.000
  20
 347.500
  30
0.0
  11
 140.529
  21
 350.500
  31
0.0
   0
LINE
   8
LEVEL003
   6
CONTINUOUS
  62
3
  10
 140.000
  20
 347.500
  30
0.0
  11
 139.471
  21
 350.500
  31
0.0
   0
LINE
   8
LEVEL003
   6
CONTINUOUS
  62
3
  10
 140.000
  20
 341.500
  30
0.0
  11
 139.471
  21
 338.500
  31
0.0
   0
LINE
   8
LEVEL003
   6
CONTINUOUS
  62
3
  10
 140.000
  20
 341.500
  30
0.0
  11
 140.529
  21
 338.500
  31
0.0
   0
LINE
   8
LEVEL003
   6
CONTINUOUS
  62
3
  10
 140.000
  20
 347.500
  30
0.0
  11
 140.000
  21
 351.250
  31
0.0
   0
LINE
   8
LEVEL003
   6
CONTINUOUS
  62
3
  10
 140.000
  20
 341.500
  30
0.0
  11
 140.000
  21
 337.750
  31
0.0
   0
TEXT
   8
LEVEL003
  62
3
  10
 139.200
  20
 342.500
  30
0.0
  40
 4.00000
   1
6
  50
 90.0000
   7
STANDARD
  72
1
  11
 139.200
  21
 344.500
  31
0.0
   0
LINE
   8
LEVEL003
   6
CONTINUOUS
  62
3
  10
 107.250
  20
 341.500
  30
0.0
  11
 127.000
  21
 341.500
  31
0.0
   0
LINE
   8
LEVEL003
   6
CONTINUOUS
  62
3
  10
 112.500
  20
 338.500
  30
0.0
  11
 127.000
  21
 338.500
  31
0.0
   0
LINE
   8
LEVEL003
   6
CONTINUOUS
  62
3
  10
 125.000
  20
 341.500
  30
0.0
  11
 125.000
  21
 338.500
  31
0.0
   0
LINE
   8
LEVEL003
   6
CONTINUOUS
  62
3
  10
 125.000
  20
 338.500
  30
0.0
  11
 125.000
  21
 332.500
  31
0.0
   0
LINE
   8
LEVEL003
   6
CONTINUOUS
  62
3
  10
 125.000
  20
 341.500
  30
0.0
  11
 125.529
  21
 344.500
  31
0.0
   0
LINE
   8
LEVEL003
   6
CONTINUOUS
  62
3
  10
 125.000
  20
 341.500
  30
0.0
  11
 124.471
  21
 344.500
  31
0.0
   0
LINE
   8
LEVEL003
   6
CONTINUOUS
  62
3
  10
 125.000
  20
 338.500
  30
0.0
  11
 124.471
  21
 335.500
  31
0.0
   0
LINE
   8
LEVEL003
   6
CONTINUOUS
  62
3
  10
 125.000
  20
 338.500
  30
0.0
  11
 125.529
  21
 335.500
  31
0.0
   0
LINE
   8
LEVEL003
   6
CONTINUOUS
  62
3
  10
 125.000
  20
 341.500
  30
0.0
  11
 125.000
  21
 345.250
  31
0.0
   0
LINE
   8
LEVEL003
   6
CONTINUOUS
  62
3
  10
 125.000
  20
 338.500
  30
0.0
  11
 125.000
  21
 332.500
  31
0.0
   0
TEXT
   8
LEVEL003
  62
3
  10
 124.200
  20
 332.500
  30
0.0
  40
 4.00000
   1
3
  50
 90.0000
   7
STANDARD
  72
1
  11
 124.200
  21
 334.500
  31
0.0
   0
LINE
   8
LEVEL003
   6
CONTINUOUS
  62
3
  10
 87.2792
  20
 319.500
  30
0.0
  11
 87.2792
  21
 319.500
  31
0.0
   0
LINE
   8
LEVEL003
   6
CONTINUOUS
  62
3
  10
 92.7500
  20
 341.500
  30
0.0
  11
 85.2792
  21
 341.500
  31
0.0
   0
LINE
   8
LEVEL003
   6
CONTINUOUS
  62
3
  10
 87.2792
  20
 319.500
  30
0.0
  11
 87.2792
  21
 341.500
  31
0.0
   0
LINE
   8
LEVEL003
   6
CONTINUOUS
  62
3
  10
 87.2792
  20
 319.500
  30
0.0
  11
 87.8082
  21
 322.500
  31
0.0
   0
LINE
   8
LEVEL003
   6
CONTINUOUS
  62
3
  10
 87.2792
  20
 319.500
  30
0.0
  11
 86.7503
  21
 322.500
  31
0.0
   0
LINE
   8
LEVEL003
   6
CONTINUOUS
  62
3
  10
 87.2792
  20
 341.500
  30
0.0
  11
 86.7503
  21
 338.500
  31
0.0
   0
LINE
   8
LEVEL003
   6
CONTINUOUS
  62
3
  10
 87.2792
  20
 341.500
  30
0.0
  11
 87.8082
  21
 338.500
  31
0.0
   0
TEXT
   8
LEVEL003
  62
3
  10
 86.4792
  20
 326.500
  30
0.0
  40
 4.00000
   1
22
  50
 90.0000
   7
STANDARD
  72
1
  11
 86.4792
  21
 330.500
  31
0.0
   0
ENDSEC
   0
EOF
