   0
SECTION
   2
HEADER
   9
$LIMMIN
  10
0.0
  20
0.0
   9
$LIMMAX
  10
 420.000
  20
 297.000
   9
$EXTMIN
  10
0.0
  20
0.0
   9
$EXTMAX
  10
 420.000
  20
 297.000
   9
$LTSCALE
  40
 8.40000
   0
ENDSEC
   0
SECTION
   2
TABLES
  0
TABLE
  2
LTYPE
 70
    25
  0
LTYPE
  2
CONTINUOUS
 70
    64
  3
Solid line
 72
    65
 73
     0
 40
0.0
  0
LTYPE
  2
BORDER
 70
    64
  3
__ __ . __ __ . __ __ . __ __ . __ __ . __ __ .
 72
    65
 73
     6
 40
1.75
 49
0.5
 49
-0.25
 49
0.5
 49
-0.25
 49
0.0
 49
-0.25
  0
LTYPE
  2
BORDER2
 70
    64
  3
__.__.__.__.__.__.__.__.__.__.__.__.__.__.__.__
 72
    65
 73
     6
 40
0.875
 49
0.25
 49
-0.125
 49
0.25
 49
-0.125
 49
0.0
 49
-0.125
  0
LTYPE
  2
BORDERX2
 70
    64
  3
____  ____  .  ____  ____  .  ____  ____  .  __
 72
    65
 73
     6
 40
3.5
 49
1.0
 49
-0.5
 49
1.0
 49
-0.5
 49
0.0
 49
-0.5
  0
LTYPE
  2
CENTER
 70
    64
  3
____ _ ____ _ ____ _ ____ _ ____ _ ____ _ ____ 
 72
    65
 73
     4
 40
2.0
 49
1.25
 49
-0.25
 49
0.25
 49
-0.25
  0
LTYPE
  2
CENTER2
 70
    64
  3
___ _ ___ _ ___ _ ___ _ ___ _ ___ _ ___ _ ___ _
 72
    65
 73
     4
 40
1.125
 49
0.75
 49
-0.125
 49
0.125
 49
-0.125
  0
LTYPE
  2
CENTERX2
 70
    64
  3
________  __  ________  __  ________  __  _____
 72
    65
 73
     4
 40
4.0
 49
2.5
 49
-0.5
 49
0.5
 49
-0.5
  0
LTYPE
  2
DASHDOT
 70
    64
  3
__ . __ . __ . __ . __ . __ . __ . __ . __ . __
 72
    65
 73
     4
 40
1.0
 49
0.5
 49
-0.25
 49
0.0
 49
-0.25
  0
LTYPE
  2
DASHDOT2
 70
    64
  3
_._._._._._._._._._._._._._._._._._._._._._._._
 72
    65
 73
     4
 40
0.5
 49
0.25
 49
-0.125
 49
0.0
 49
-0.125
  0
LTYPE
  2
DASHDOTX2
 70
    64
  3
____  .  ____  .  ____  .  ____  .  ____  .  __
 72
    65
 73
     4
 40
2.0
 49
1.0
 49
-0.5
 49
0.0
 49
-0.5
  0
LTYPE
  2
DASHED
 70
    64
  3
__ __ __ __ __ __ __ __ __ __ __ __ __ __ __ __
 72
    65
 73
     2
 40
0.75
 49
0.5
 49
-0.25
  0
LTYPE
  2
DASHED2
 70
    64
  3
_ _ _ _ _ _ _ _ _ _ _ _ _ _ _ _ _ _ _ _ _ _ _ _
 72
    65
 73
     2
 40
0.375
 49
0.25
 49
-0.125
  0
LTYPE
  2
DASHEDX2
 70
    64
  3
____  ____  ____  ____  ____  ____  ____  ____ 
 72
    65
 73
     2
 40
1.5
 49
1.0
 49
-0.5
  0
LTYPE
  2
DIVIDE
 70
    64
  3
____ . . ____ . . ____ . . ____ . . ____ . . __
 72
    65
 73
     6
 40
1.25
 49
0.5
 49
-0.25
 49
0.0
 49
-0.25
 49
0.0
 49
-0.25
  0
LTYPE
  2
DIVIDE2
 70
    64
  3
__..__..__..__..__..__..__..__..__..__..__..__.
 72
    65
 73
     6
 40
0.625
 49
0.25
 49
-0.125
 49
0.0
 49
-0.125
 49
0.0
 49
-0.125
  0
LTYPE
  2
DIVIDEX2
 70
    64
  3
________  .  .  ________  .  .  ________  .  . 
 72
    65
 73
     6
 40
2.5
 49
1.0
 49
-0.5
 49
0.0
 49
-0.5
 49
0.0
 49
-0.5
  0
LTYPE
  2
DOT
 70
    64
  3
. . . . . . . . . . . . . . . . . . . . . . . .
 72
    65
 73
     2
 40
0.25
 49
0.0
 49
-0.25
  0
LTYPE
  2
DOT2
 70
    64
  3
...............................................
 72
    65
 73
     2
 40
0.125
 49
0.0
 49
-0.125
  0
LTYPE
  2
DOTX2
 70
    64
  3
.  .  .  .  .  .  .  .  .  .  .  .  .  .  .  . 
 72
    65
 73
     2
 40
0.5
 49
0.0
 49
-0.5
  0
LTYPE
  2
HIDDEN
 70
    64
  3
__ __ __ __ __ __ __ __ __ __ __ __ __ __ __ __
 72
    65
 73
     2
 40
0.375
 49
0.25
 49
-0.125
  0
LTYPE
  2
HIDDEN2
 70
    64
  3
_ _ _ _ _ _ _ _ _ _ _ _ _ _ _ _ _ _ _ _ _ _ _ _
 72
    65
 73
     2
 40
0.1875
 49
0.125
 49
-0.0625
  0
LTYPE
  2
HIDDENX2
 70
    64
  3
____ ____ ____ ____ ____ ____ ____ ____ ____ __
 72
    65
 73
     2
 40
0.75
 49
0.5
 49
-0.25
  0
LTYPE
  2
PHANTOM
 70
    64
  3
______  __  __  ______  __  __  ______  __  __ 
 72
    65
 73
     6
 40
2.5
 49
1.25
 49
-0.25
 49
0.25
 49
-0.25
 49
0.25
 49
-0.25
  0
LTYPE
  2
PHANTOM2
 70
    64
  3
___ _ _ ___ _ _ ___ _ _ ___ _ _ ___ _ _ ___ _ _
 72
    65
 73
     6
 40
1.25
 49
0.625
 49
-0.125
 49
0.125
 49
-0.125
 49
0.125
 49
-0.125
  0
LTYPE
  2
PHANTOMX2
 70
    64
  3
____________    ____    ____    ____________   
 72
    65
 73
     6
 40
5.0
 49
2.5
 49
-0.5
 49
0.5
 49
-0.5
 49
0.5
 49
-0.5
  0
ENDTAB
  0
TABLE
  2
STYLE
 70
     2
  0
STYLE
  2
STANDARD
 70
0
 40
0.0
 41
1.0
 50
0.0
 71
0
 42
0.2
  3
TXT
  4
BIGFONT
  0
STYLE
  2
STANDARD1
 70
     4
 40
0.0
 41
1.0
 50
0.0
 71
     0
 42
0.2
  3
TXT
  4
BIGFONT
  0
ENDTAB
   0
TABLE
   2
LAYER
  70
4
   0
LAYER
   2
0
  70
0
  62
7
   6
CONTINUOUS
   0
LAYER
   2
LEVEL001
  70
0
  62
7
   6
CONTINUOUS
   0
LAYER
   2
LEVEL003
  70
0
  62
7
   6
CONTINUOUS
   0
LAYER
   2
LEVEL004
  70
0
  62
7
   6
CONTINUOUS
   0
ENDTAB
   0
ENDSEC
   0
SECTION
   2
ENTITIES
   0
LINE
   8
LEVEL003
   6
CONTINUOUS
  62
3
  10
 56.0000
  20
 214.000
  30
0.0
  11
 56.0000
  21
 227.000
  31
0.0
   0
LINE
   8
LEVEL003
   6
CONTINUOUS
  62
3
  10
 94.0000
  20
 214.000
  30
0.0
  11
 94.0000
  21
 227.000
  31
0.0
   0
LINE
   8
LEVEL003
   6
CONTINUOUS
  62
3
  10
 56.0000
  20
 225.000
  30
0.0
  11
 94.0000
  21
 225.000
  31
0.0
   0
LINE
   8
LEVEL003
   6
CONTINUOUS
  62
3
  10
 56.0000
  20
 225.000
  30
0.0
  11
 59.0000
  21
 224.471
  31
0.0
   0
LINE
   8
LEVEL003
   6
CONTINUOUS
  62
3
  10
 56.0000
  20
 225.000
  30
0.0
  11
 59.0000
  21
 225.529
  31
0.0
   0
LINE
   8
LEVEL003
   6
CONTINUOUS
  62
3
  10
 94.0000
  20
 225.000
  30
0.0
  11
 91.0000
  21
 225.529
  31
0.0
   0
LINE
   8
LEVEL003
   6
CONTINUOUS
  62
3
  10
 94.0000
  20
 225.000
  30
0.0
  11
 91.0000
  21
 224.471
  31
0.0
   0
TEXT
   8
LEVEL003
  62
3
  10
 71.0000
  20
 225.800
  30
0.0
  40
 4.00000
   1
%%c38
   7
STANDARD
  72
1
  11
 75.0000
  21
 225.800
  31
0.0
   0
LINE
   8
LEVEL003
   6
CONTINUOUS
  62
3
  10
 53.5000
  20
 170.000
  30
0.0
  11
 96.5000
  21
 170.000
  31
0.0
   0
LINE
   8
LEVEL003
   6
CONTINUOUS
  62
3
  10
 53.5000
  20
 170.000
  30
0.0
  11
 56.5000
  21
 169.471
  31
0.0
   0
LINE
   8
LEVEL003
   6
CONTINUOUS
  62
3
  10
 53.5000
  20
 170.000
  30
0.0
  11
 56.5000
  21
 170.529
  31
0.0
   0
LINE
   8
LEVEL003
   6
CONTINUOUS
  62
3
  10
 96.5000
  20
 170.000
  30
0.0
  11
 93.5000
  21
 170.529
  31
0.0
   0
LINE
   8
LEVEL003
   6
CONTINUOUS
  62
3
  10
 96.5000
  20
 170.000
  30
0.0
  11
 93.5000
  21
 169.471
  31
0.0
   0
TEXT
   8
LEVEL003
  62
3
  10
 71.0000
  20
 170.800
  30
0.0
  40
 4.00000
   1
%%c43
   7
STANDARD
  72
1
  11
 75.0000
  21
 170.800
  31
0.0
   0
LINE
   8
LEVEL003
   6
CONTINUOUS
  62
3
  10
 57.5000
  20
 121.000
  30
0.0
  11
 57.5000
  21
 113.000
  31
0.0
   0
LINE
   8
LEVEL003
   6
CONTINUOUS
  62
3
  10
 92.5000
  20
 121.000
  30
0.0
  11
 92.5000
  21
 113.000
  31
0.0
   0
LINE
   8
LEVEL003
   6
CONTINUOUS
  62
3
  10
 57.5000
  20
 115.000
  30
0.0
  11
 92.5000
  21
 115.000
  31
0.0
   0
LINE
   8
LEVEL003
   6
CONTINUOUS
  62
3
  10
 57.5000
  20
 115.000
  30
0.0
  11
 60.5000
  21
 114.471
  31
0.0
   0
LINE
   8
LEVEL003
   6
CONTINUOUS
  62
3
  10
 57.5000
  20
 115.000
  30
0.0
  11
 60.5000
  21
 115.529
  31
0.0
   0
LINE
   8
LEVEL003
   6
CONTINUOUS
  62
3
  10
 92.5000
  20
 115.000
  30
0.0
  11
 89.5000
  21
 115.529
  31
0.0
   0
LINE
   8
LEVEL003
   6
CONTINUOUS
  62
3
  10
 92.5000
  20
 115.000
  30
0.0
  11
 89.5000
  21
 114.471
  31
0.0
   0
TEXT
   8
LEVEL003
  62
3
  10
 71.0000
  20
 115.800
  30
0.0
  40
 4.00000
   1
%%c35
   7
STANDARD
  72
1
  11
 75.0000
  21
 115.800
  31
0.0
   0
LINE
   8
LEVEL003
   6
CONTINUOUS
  62
3
  10
 46.5000
  20
 126.000
  30
0.0
  11
 46.5000
  21
 103.000
  31
0.0
   0
LINE
   8
LEVEL003
   6
CONTINUOUS
  62
3
  10
 103.500
  20
 126.000
  30
0.0
  11
 103.500
  21
 103.000
  31
0.0
   0
LINE
   8
LEVEL003
   6
CONTINUOUS
  62
3
  10
 46.5000
  20
 105.000
  30
0.0
  11
 103.500
  21
 105.000
  31
0.0
   0
LINE
   8
LEVEL003
   6
CONTINUOUS
  62
3
  10
 46.5000
  20
 105.000
  30
0.0
  11
 49.5000
  21
 104.471
  31
0.0
   0
LINE
   8
LEVEL003
   6
CONTINUOUS
  62
3
  10
 46.5000
  20
 105.000
  30
0.0
  11
 49.5000
  21
 105.529
  31
0.0
   0
LINE
   8
LEVEL003
   6
CONTINUOUS
  62
3
  10
 103.500
  20
 105.000
  30
0.0
  11
 100.500
  21
 105.529
  31
0.0
   0
LINE
   8
LEVEL003
   6
CONTINUOUS
  62
3
  10
 103.500
  20
 105.000
  30
0.0
  11
 100.500
  21
 104.471
  31
0.0
   0
TEXT
   8
LEVEL003
  62
3
  10
 71.0000
  20
 105.800
  30
0.0
  40
 4.00000
   1
%%c57
   7
STANDARD
  72
1
  11
 75.0000
  21
 105.800
  31
0.0
   0
TEXT
   8
LEVEL003
  62
3
  10
 115.000
  20
 115.000
  30
0.0
  40
 4.00000
   1
ＮＰＴ３／８
   7
STANDARD
   0
LINE
   8
LEVEL003
   6
CONTINUOUS
  62
3
  10
 106.375
  20
 133.790
  30
0.0
  11
 115.000
  21
 115.000
  31
0.0
   0
LINE
   8
LEVEL003
   6
CONTINUOUS
  62
3
  10
 106.375
  20
 133.790
  30
0.0
  11
 107.146
  21
 130.843
  31
0.0
   0
LINE
   8
LEVEL003
   6
CONTINUOUS
  62
3
  10
 106.375
  20
 133.790
  30
0.0
  11
 108.107
  21
 131.284
  31
0.0
   0
TEXT
   8
LEVEL003
  62
3
  10
 135.000
  20
 190.000
  30
0.0
  40
 4.00000
   1
Ｍ５７×１．５
   7
STANDARD
   0
LINE
   8
LEVEL003
   6
CONTINUOUS
  62
3
  10
 103.500
  20
 200.000
  30
0.0
  11
 125.000
  21
 190.000
  31
0.0
   0
LINE
   8
LEVEL003
   6
CONTINUOUS
  62
3
  10
 125.000
  20
 190.000
  30
0.0
  11
 165.000
  21
 190.000
  31
0.0
   0
LINE
   8
LEVEL003
   6
CONTINUOUS
  62
3
  10
 103.500
  20
 200.000
  30
0.0
  11
 105.997
  21
 198.255
  31
0.0
   0
LINE
   8
LEVEL003
   6
CONTINUOUS
  62
3
  10
 103.500
  20
 200.000
  30
0.0
  11
 106.443
  21
 199.214
  31
0.0
   0
CIRCLE
   8
LEVEL001
   6
CONTINUOUS
  62
7
  10
 75.0000
  20
 60.0000
  30
0.0
  40
 28.5000
   0
CIRCLE
   8
LEVEL001
   6
CONTINUOUS
  62
7
  10
 75.0000
  20
 60.0000
  30
0.0
  40
 26.5000
   0
CIRCLE
   8
LEVEL001
   6
CONTINUOUS
  62
7
  10
 75.0000
  20
 77.5000
  30
0.0
  40
 3.37500
   0
CIRCLE
   8
LEVEL001
   6
CONTINUOUS
  62
3
  10
 75.0000
  20
 77.5000
  30
0.0
  40
 4.00000
   0
LINE
   8
LEVEL001
   6
DASHDOT
  62
1
  10
 82.0000
  20
 77.5000
  30
0.0
  11
 68.0000
  21
 77.5000
  31
0.0
   0
CIRCLE
   8
LEVEL001
   6
CONTINUOUS
  62
7
  10
 75.0000
  20
 42.5000
  30
0.0
  40
 3.37500
   0
CIRCLE
   8
LEVEL001
   6
CONTINUOUS
  62
3
  10
 75.0000
  20
 42.5000
  30
0.0
  40
 4.00000
   0
LINE
   8
LEVEL001
   6
DASHDOT
  62
1
  10
 82.0000
  20
 42.5000
  30
0.0
  11
 68.0000
  21
 42.5000
  31
0.0
   0
POINT
   8
LEVEL001
  62
7
  10
 102.504
  20
 60.0000
  30
0.0
   0
LINE
   8
LEVEL003
   6
CONTINUOUS
  62
3
  10
 94.5000
  20
 215.000
  30
0.0
  11
 207.000
  21
 215.000
  31
0.0
   0
LINE
   8
LEVEL003
   6
CONTINUOUS
  62
3
  10
 102.500
  20
 125.000
  30
0.0
  11
 207.000
  21
 125.000
  31
0.0
   0
LINE
   8
LEVEL003
   6
CONTINUOUS
  62
3
  10
 205.000
  20
 215.000
  30
0.0
  11
 205.000
  21
 125.000
  31
0.0
   0
LINE
   8
LEVEL003
   6
CONTINUOUS
  62
3
  10
 205.000
  20
 215.000
  30
0.0
  11
 204.471
  21
 212.000
  31
0.0
   0
LINE
   8
LEVEL003
   6
CONTINUOUS
  62
3
  10
 205.000
  20
 215.000
  30
0.0
  11
 205.529
  21
 212.000
  31
0.0
   0
LINE
   8
LEVEL003
   6
CONTINUOUS
  62
3
  10
 205.000
  20
 125.000
  30
0.0
  11
 205.529
  21
 128.000
  31
0.0
   0
LINE
   8
LEVEL003
   6
CONTINUOUS
  62
3
  10
 205.000
  20
 125.000
  30
0.0
  11
 204.471
  21
 128.000
  31
0.0
   0
TEXT
   8
LEVEL003
  62
3
  10
 204.200
  20
 168.000
  30
0.0
  40
 4.00000
   1
90
  50
 90.0000
  41
 0.500000
   7
STANDARD
  72
1
  11
 204.200
  21
 170.000
  31
0.0
   0
ARC
   8
LEVEL001
   6
CONTINUOUS
  62
7
  10
 131.004
  20
 73.0000
  30
0.0
  40
 1.50000
  50
 90.0000
  51
 180.000
   0
LINE
   8
LEVEL001
   6
CONTINUOUS
  62
7
  10
 131.004
  20
 74.5000
  30
0.0
  11
 136.004
  21
 74.5000
  31
0.0
   0
ARC
   8
LEVEL001
   6
CONTINUOUS
  62
7
  10
 131.004
  20
 47.0000
  30
0.0
  40
 1.50000
  50
 180.000
  51
 270.000
   0
LINE
   8
LEVEL001
   6
CONTINUOUS
  62
7
  10
 129.504
  20
 47.0000
  30
0.0
  11
 129.504
  21
 73.0000
  31
0.0
   0
LINE
   8
LEVEL001
   6
CONTINUOUS
  62
7
  10
 131.004
  20
 45.5000
  30
0.0
  11
 136.004
  21
 45.5000
  31
0.0
   0
ARC
   8
LEVEL001
   6
CONTINUOUS
  62
7
  10
 152.004
  20
 73.0000
  30
0.0
  40
 1.50000
  50
0.0
  51
 90.0000
   0
LINE
   8
LEVEL001
   6
CONTINUOUS
  62
7
  10
 147.004
  20
 74.5000
  30
0.0
  11
 152.004
  21
 74.5000
  31
0.0
   0
ARC
   8
LEVEL001
   6
CONTINUOUS
  62
7
  10
 152.004
  20
 47.0000
  30
0.0
  40
 1.50000
  50
 270.000
  51
 0.309404E-10
   0
LINE
   8
LEVEL001
   6
CONTINUOUS
  62
7
  10
 147.004
  20
 45.5000
  30
0.0
  11
 152.004
  21
 45.5000
  31
0.0
   0
LINE
   8
LEVEL001
   6
CONTINUOUS
  62
7
  10
 153.504
  20
 73.0000
  30
0.0
  11
 153.504
  21
 47.0000
  31
0.0
   0
ARC
   8
LEVEL001
   6
DASHDOT
  62
1
  10
 162.504
  20
 73.0000
  30
0.0
  40
 1.00000
  50
0.0
  51
 90.0000
   0
LINE
   8
LEVEL001
   6
DASHDOT
  62
1
  10
 154.504
  20
 74.0000
  30
0.0
  11
 162.504
  21
 74.0000
  31
0.0
   0
ARC
   8
LEVEL001
   6
DASHDOT
  62
1
  10
 162.504
  20
 47.0000
  30
0.0
  40
 1.00000
  50
 270.000
  51
 0.109106E-9
   0
LINE
   8
LEVEL001
   6
DASHDOT
  62
1
  10
 154.504
  20
 46.0000
  30
0.0
  11
 162.504
  21
 46.0000
  31
0.0
   0
LINE
   8
LEVEL001
   6
DASHDOT
  62
1
  10
 163.504
  20
 73.0000
  30
0.0
  11
 163.504
  21
 47.0000
  31
0.0
   0
ARC
   8
LEVEL001
   6
DASHDOT
  62
1
  10
 154.504
  20
 47.0000
  30
0.0
  40
 1.00000
  50
 180.000
  51
 270.000
   0
ARC
   8
LEVEL001
   6
DASHDOT
  62
1
  10
 154.504
  20
 73.0000
  30
0.0
  40
 1.00000
  50
 90.0000
  51
 180.000
   0
LINE
   8
LEVEL001
   6
CONTINUOUS
  62
3
  10
 108.887
  20
 67.5000
  30
0.0
  11
 108.887
  21
 52.5000
  31
0.0
   0
LINE
   8
LEVEL001
   6
CONTINUOUS
  62
7
  10
 112.504
  20
 67.5000
  30
0.0
  11
 112.504
  21
 52.5000
  31
0.0
   0
LINE
   8
LEVEL001
   6
CONTINUOUS
  62
7
  10
 113.987
  20
 52.5000
  30
0.0
  11
 113.987
  21
 67.5000
  31
0.0
   0
LINE
   8
LEVEL001
   6
CONTINUOUS
  62
3
  10
 136.004
  20
 47.0000
  30
0.0
  11
 147.004
  21
 47.0000
  31
0.0
   0
LINE
   8
LEVEL001
   6
CONTINUOUS
  62
3
  10
 136.004
  20
 49.0000
  30
0.0
  11
 147.004
  21
 49.0000
  31
0.0
   0
LINE
   8
LEVEL001
   6
CONTINUOUS
  62
3
  10
 136.004
  20
 51.0000
  30
0.0
  11
 147.004
  21
 51.0000
  31
0.0
   0
LINE
   8
LEVEL001
   6
CONTINUOUS
  62
3
  10
 136.004
  20
 53.0000
  30
0.0
  11
 147.004
  21
 53.0000
  31
0.0
   0
LINE
   8
LEVEL001
   6
CONTINUOUS
  62
3
  10
 136.004
  20
 55.0000
  30
0.0
  11
 147.004
  21
 55.0000
  31
0.0
   0
LINE
   8
LEVEL001
   6
CONTINUOUS
  62
3
  10
 136.004
  20
 57.0000
  30
0.0
  11
 147.004
  21
 57.0000
  31
0.0
   0
LINE
   8
LEVEL001
   6
CONTINUOUS
  62
3
  10
 136.004
  20
 59.0000
  30
0.0
  11
 147.004
  21
 59.0000
  31
0.0
   0
LINE
   8
LEVEL001
   6
CONTINUOUS
  62
3
  10
 136.004
  20
 61.0000
  30
0.0
  11
 147.004
  21
 61.0000
  31
0.0
   0
LINE
   8
LEVEL001
   6
CONTINUOUS
  62
3
  10
 136.004
  20
 63.0000
  30
0.0
  11
 147.004
  21
 63.0000
  31
0.0
   0
LINE
   8
LEVEL001
   6
CONTINUOUS
  62
3
  10
 136.004
  20
 65.0000
  30
0.0
  11
 147.004
  21
 65.0000
  31
0.0
   0
LINE
   8
LEVEL001
   6
CONTINUOUS
  62
3
  10
 136.004
  20
 67.0000
  30
0.0
  11
 147.004
  21
 67.0000
  31
0.0
   0
LINE
   8
LEVEL001
   6
CONTINUOUS
  62
3
  10
 136.004
  20
 69.0000
  30
0.0
  11
 147.004
  21
 69.0000
  31
0.0
   0
LINE
   8
LEVEL001
   6
CONTINUOUS
  62
3
  10
 136.004
  20
 71.0000
  30
0.0
  11
 147.004
  21
 71.0000
  31
0.0
   0
LINE
   8
LEVEL001
   6
CONTINUOUS
  62
3
  10
 136.004
  20
 73.0000
  30
0.0
  11
 147.004
  21
 73.0000
  31
0.0
   0
LINE
   8
LEVEL001
   6
CONTINUOUS
  62
3
  10
 108.504
  20
 67.6625
  30
0.0
  11
 102.504
  21
 67.4750
  31
0.0
   0
LINE
   8
LEVEL001
   6
CONTINUOUS
  62
3
  10
 108.499
  20
 52.3376
  30
0.0
  11
 102.504
  21
 52.5250
  31
0.0
   0
LINE
   8
LEVEL001
   6
DASHDOT
  62
1
  10
 163.504
  20
 62.0000
  30
0.0
  11
 169.504
  21
 62.0000
  31
0.0
   0
LINE
   8
LEVEL001
   6
DASHDOT
  62
1
  10
 169.504
  20
 62.0000
  30
0.0
  11
 169.504
  21
 58.0000
  31
0.0
   0
LINE
   8
LEVEL001
   6
DASHDOT
  62
1
  10
 169.504
  20
 58.0000
  30
0.0
  11
 163.504
  21
 58.0000
  31
0.0
   0
LINE
   8
LEVEL001
   6
CONTINUOUS
  62
7
  10
 108.504
  20
 68.5185
  30
0.0
  11
 108.504
  21
 67.5000
  31
0.0
   0
LINE
   8
LEVEL001
   6
CONTINUOUS
  62
7
  10
 108.504
  20
 67.5000
  30
0.0
  11
 122.504
  21
 67.5000
  31
0.0
   0
LINE
   8
LEVEL001
   6
CONTINUOUS
  62
7
  10
 122.504
  20
 67.5000
  30
0.0
  11
 122.504
  21
 69.5000
  31
0.0
   0
LINE
   8
LEVEL001
   6
CONTINUOUS
  62
7
  10
 122.504
  20
 69.5000
  30
0.0
  11
 129.504
  21
 69.5000
  31
0.0
   0
LINE
   8
LEVEL001
   6
CONTINUOUS
  62
7
  10
 108.504
  20
 51.4815
  30
0.0
  11
 108.504
  21
 52.5000
  31
0.0
   0
LINE
   8
LEVEL001
   6
CONTINUOUS
  62
7
  10
 108.504
  20
 52.5000
  30
0.0
  11
 122.504
  21
 52.5000
  31
0.0
   0
LINE
   8
LEVEL001
   6
CONTINUOUS
  62
7
  10
 122.504
  20
 52.5000
  30
0.0
  11
 122.504
  21
 50.5000
  31
0.0
   0
LINE
   8
LEVEL001
   6
CONTINUOUS
  62
7
  10
 122.504
  20
 50.5000
  30
0.0
  11
 129.504
  21
 50.5000
  31
0.0
   0
LINE
   8
LEVEL001
   6
CONTINUOUS
  62
7
  10
 136.004
  20
 45.0000
  30
0.0
  11
 136.004
  21
 75.0000
  31
0.0
   0
LINE
   8
LEVEL001
   6
CONTINUOUS
  62
7
  10
 136.004
  20
 75.0000
  30
0.0
  11
 147.004
  21
 75.0000
  31
0.0
   0
LINE
   8
LEVEL001
   6
CONTINUOUS
  62
7
  10
 147.004
  20
 75.0000
  30
0.0
  11
 147.004
  21
 45.0000
  31
0.0
   0
LINE
   8
LEVEL001
   6
CONTINUOUS
  62
7
  10
 147.004
  20
 45.0000
  30
0.0
  11
 136.004
  21
 45.0000
  31
0.0
   0
LINE
   8
LEVEL001
   6
DASHDOT
  62
1
  10
 172.504
  20
 60.0000
  30
0.0
  11
 42.5000
  21
 60.0000
  31
0.0
   0
LINE
   8
LEVEL001
   6
CONTINUOUS
  62
7
  10
 108.504
  20
 68.5185
  30
0.0
  11
 102.258
  21
 68.3233
  31
0.0
   0
LINE
   8
LEVEL001
   6
CONTINUOUS
  62
7
  10
 108.504
  20
 51.4815
  30
0.0
  11
 102.258
  21
 51.6767
  31
0.0
   0
LINE
   8
LEVEL001
   6
CONTINUOUS
  62
7
  10
 47.7500
  20
 212.000
  30
0.0
  11
 48.7500
  21
 213.000
  31
0.0
   0
LINE
   8
LEVEL001
   6
CONTINUOUS
  62
7
  10
 47.7500
  20
 210.000
  30
0.0
  11
 47.7500
  21
 212.000
  31
0.0
   0
LINE
   8
LEVEL001
   6
CONTINUOUS
  62
7
  10
 46.5000
  20
 127.000
  30
0.0
  11
 46.5000
  21
 183.201
  31
0.0
   0
LINE
   8
LEVEL001
   6
CONTINUOUS
  62
7
  10
 47.2500
  20
 210.000
  30
0.0
  11
 46.5000
  21
 209.250
  31
0.0
   0
LINE
   8
LEVEL001
   6
CONTINUOUS
  62
7
  10
 46.5000
  20
 209.250
  30
0.0
  11
 46.5000
  21
 183.201
  31
0.0
   0
LINE
   8
LEVEL001
   6
CONTINUOUS
  62
3
  10
 47.2500
  20
 186.000
  30
0.0
  11
 46.5000
  21
 183.201
  31
0.0
   0
LINE
   8
LEVEL001
   6
DASHDOT
  62
1
  10
 47.2500
  20
 210.000
  30
0.0
  11
 43.5000
  21
 210.000
  31
0.0
   0
LINE
   8
LEVEL001
   6
DASHDOT
  62
1
  10
 46.5000
  20
 186.000
  30
0.0
  11
 43.5000
  21
 186.000
  31
0.0
   0
LINE
   8
LEVEL001
   6
CONTINUOUS
  62
7
  10
 93.5000
  20
 215.000
  30
0.0
  11
 56.5000
  21
 215.000
  31
0.0
   0
LINE
   8
LEVEL001
   6
DASHDOT
  62
1
  10
 75.0000
  20
 120.000
  30
0.0
  11
 75.0000
  21
 170.000
  31
0.0
   0
LINE
   8
LEVEL001
   6
DASHDOT
  62
1
  10
 75.0000
  20
 175.000
  30
0.0
  11
 75.0000
  21
 220.000
  31
0.0
   0
LINE
   8
LEVEL001
   6
CONTINUOUS
  62
7
  10
 102.250
  20
 212.000
  30
0.0
  11
 101.250
  21
 213.000
  31
0.0
   0
LINE
   8
LEVEL001
   6
CONTINUOUS
  62
7
  10
 102.250
  20
 210.000
  30
0.0
  11
 102.250
  21
 212.000
  31
0.0
   0
LINE
   8
LEVEL001
   6
CONTINUOUS
  62
7
  10
 102.750
  20
 210.000
  30
0.0
  11
 103.500
  21
 209.250
  31
0.0
   0
LINE
   8
LEVEL001
   6
CONTINUOUS
  62
7
  10
 103.500
  20
 209.250
  30
0.0
  11
 103.500
  21
 183.201
  31
0.0
   0
LINE
   8
LEVEL001
   6
CONTINUOUS
  62
3
  10
 102.750
  20
 186.000
  30
0.0
  11
 103.500
  21
 183.201
  31
0.0
   0
LINE
   8
LEVEL001
   6
DASHDOT
  62
1
  10
 106.500
  20
 210.000
  30
0.0
  11
 106.500
  21
 186.000
  31
0.0
   0
LINE
   8
LEVEL001
   6
DASHDOT
  62
1
  10
 102.750
  20
 210.000
  30
0.0
  11
 106.500
  21
 210.000
  31
0.0
   0
LINE
   8
LEVEL001
   6
DASHDOT
  62
1
  10
 103.500
  20
 186.000
  30
0.0
  11
 106.500
  21
 186.000
  31
0.0
   0
LINE
   8
LEVEL001
   6
DASHDOT
  62
1
  10
 43.5000
  20
 210.000
  30
0.0
  11
 43.5000
  21
 186.000
  31
0.0
   0
LINE
   8
LEVEL001
   6
CONTINUOUS
  62
7
  10
 46.5000
  20
 127.000
  30
0.0
  11
 48.5000
  21
 125.000
  31
0.0
   0
LINE
   8
LEVEL001
   6
CONTINUOUS
  62
7
  10
 48.5000
  20
 125.000
  30
0.0
  11
 101.500
  21
 125.000
  31
0.0
   0
LINE
   8
LEVEL001
   6
CONTINUOUS
  62
7
  10
 103.500
  20
 127.000
  30
0.0
  11
 101.500
  21
 125.000
  31
0.0
   0
LINE
   8
LEVEL001
   6
DASHDOT
  62
1
  10
 75.0000
  20
 27.5000
  30
0.0
  11
 75.0000
  21
 92.5000
  31
0.0
   0
LINE
   8
LEVEL003
   6
CONTINUOUS
  62
3
  10
 57.5000
  20
 125.000
  30
0.0
  11
 40.0000
  21
 105.000
  31
0.0
   0
LINE
   8
LEVEL003
   6
CONTINUOUS
  62
3
  10
 57.5000
  20
 125.000
  30
0.0
  11
 55.1264
  21
 123.091
  31
0.0
   0
LINE
   8
LEVEL003
   6
CONTINUOUS
  62
3
  10
 57.5000
  20
 125.000
  30
0.0
  11
 55.9226
  21
 122.394
  31
0.0
   0
LINE
   8
LEVEL001
   6
CONTINUOUS
  62
7
  10
 103.500
  20
 127.000
  30
0.0
  11
 103.500
  21
 183.201
  31
0.0
   0
LINE
   8
LEVEL001
   6
CONTINUOUS
  62
7
  10
 50.7500
  20
 214.000
  30
0.0
  11
 50.7500
  21
 213.000
  31
0.0
   0
LINE
   8
LEVEL001
   6
CONTINUOUS
  62
7
  10
 99.2500
  20
 214.000
  30
0.0
  11
 99.2500
  21
 213.000
  31
0.0
   0
LINE
   8
LEVEL001
   6
CONTINUOUS
  62
7
  10
 50.7500
  20
 214.000
  30
0.0
  11
 99.2500
  21
 214.000
  31
0.0
   0
LINE
   8
LEVEL001
   6
CONTINUOUS
  62
7
  10
 48.7500
  20
 213.000
  30
0.0
  11
 101.250
  21
 213.000
  31
0.0
   0
LINE
   8
LEVEL001
   6
CONTINUOUS
  62
7
  10
 47.2500
  20
 210.000
  30
0.0
  11
 102.750
  21
 210.000
  31
0.0
   0
LINE
   8
LEVEL001
   6
CONTINUOUS
  62
7
  10
 102.250
  20
 212.000
  30
0.0
  11
 47.7500
  21
 212.000
  31
0.0
   0
LINE
   8
LEVEL001
   6
CONTINUOUS
  62
7
  10
 56.5000
  20
 215.000
  30
0.0
  11
 56.2500
  21
 214.000
  31
0.0
   0
LINE
   8
LEVEL001
   6
CONTINUOUS
  62
7
  10
 93.5000
  20
 215.000
  30
0.0
  11
 93.7500
  21
 214.000
  31
0.0
   0
LINE
   8
LEVEL001
   6
CONTINUOUS
  62
3
  10
 102.750
  20
 210.000
  30
0.0
  11
 102.750
  21
 186.000
  31
0.0
   0
LINE
   8
LEVEL001
   6
CONTINUOUS
  62
3
  10
 47.2500
  20
 210.000
  30
0.0
  11
 47.2500
  21
 186.000
  31
0.0
   0
LINE
   8
LEVEL001
   6
CONTINUOUS
  62
7
  10
 103.500
  20
 183.201
  30
0.0
  11
 46.5000
  21
 183.201
  31
0.0
   0
LINE
   8
LEVEL001
   6
CONTINUOUS
  62
3
  10
 46.5000
  20
 186.000
  30
0.0
  11
 103.500
  21
 186.000
  31
0.0
   0
LINE
   8
LEVEL001
   6
CONTINUOUS
  62
3
  10
 46.5000
  20
 209.250
  30
0.0
  11
 103.500
  21
 209.250
  31
0.0
   0
LINE
   8
LEVEL001
   6
CONTINUOUS
  62
7
  10
 103.500
  20
 127.000
  30
0.0
  11
 46.5000
  21
 127.000
  31
0.0
   0
LINE
   8
LEVEL004
   6
DOT
  62
3
  10
 53.5000
  20
 192.000
  30
0.0
  11
 53.5000
  21
 154.500
  31
0.0
   0
LINE
   8
LEVEL004
   6
DOT
  62
3
  10
 56.0000
  20
 173.000
  30
0.0
  11
 56.0000
  21
 213.000
  31
0.0
   0
LINE
   8
LEVEL004
   6
DOT
  62
3
  10
 96.5000
  20
 192.000
  30
0.0
  11
 96.5000
  21
 154.500
  31
0.0
   0
LINE
   8
LEVEL004
   6
DOT
  62
3
  10
 94.0000
  20
 173.000
  30
0.0
  11
 94.0000
  21
 213.000
  31
0.0
   0
LINE
   8
LEVEL004
   6
DASHDOT
  62
1
  10
 57.5000
  20
 122.000
  30
0.0
  11
 57.5000
  21
 135.000
  31
0.0
   0
LINE
   8
LEVEL004
   6
DOT
  62
3
  10
 61.5000
  20
 125.000
  30
0.0
  11
 60.8750
  21
 125.625
  31
0.0
   0
LINE
   8
LEVEL004
   6
DOT
  62
3
  10
 60.8750
  20
 125.625
  30
0.0
  11
 60.8750
  21
 135.000
  31
0.0
   0
LINE
   8
LEVEL004
   6
DOT
  62
3
  10
 54.1250
  20
 135.000
  30
0.0
  11
 54.1250
  21
 125.625
  31
0.0
   0
LINE
   8
LEVEL004
   6
DOT
  62
3
  10
 54.1250
  20
 125.625
  30
0.0
  11
 53.5000
  21
 125.000
  31
0.0
   0
LINE
   8
LEVEL004
   6
DOT
  62
3
  10
 61.5000
  20
 125.000
  30
0.0
  11
 61.5000
  21
 135.000
  31
0.0
   0
LINE
   8
LEVEL004
   6
DOT
  62
3
  10
 53.5000
  20
 135.000
  30
0.0
  11
 53.5000
  21
 125.000
  31
0.0
   0
LINE
   8
LEVEL004
   6
DOT
  62
3
  10
 60.8750
  20
 125.625
  30
0.0
  11
 54.1250
  21
 125.625
  31
0.0
   0
LINE
   8
LEVEL004
   6
DASHDOT
  62
1
  10
 92.5000
  20
 122.000
  30
0.0
  11
 92.5000
  21
 135.000
  31
0.0
   0
LINE
   8
LEVEL001
   6
CONTINUOUS
  62
3
  10
 111.712
  20
 151.395
  30
0.0
  11
 108.194
  21
 150.115
  31
0.0
   0
LINE
   8
LEVEL001
   6
CONTINUOUS
  62
7
  10
 111.712
  20
 151.395
  30
0.0
  11
 113.116
  21
 152.378
  31
0.0
   0
LINE
   8
LEVEL001
   6
CONTINUOUS
  62
7
  10
 128.573
  20
 153.730
  30
0.0
  11
 113.116
  21
 152.378
  31
0.0
   0
LINE
   8
LEVEL001
   6
CONTINUOUS
  62
7
  10
 113.219
  20
 134.174
  30
0.0
  11
 114.771
  21
 133.450
  31
0.0
   0
LINE
   8
LEVEL001
   6
CONTINUOUS
  62
7
  10
 130.229
  20
 134.802
  30
0.0
  11
 114.771
  21
 133.450
  31
0.0
   0
ARC
   8
LEVEL001
   6
CONTINUOUS
  62
7
  10
 129.762
  20
 157.347
  30
0.0
  40
 1.50000
  50
 95.0001
  51
 185.000
   0
LINE
   8
LEVEL001
   6
CONTINUOUS
  62
7
  10
 129.631
  20
 158.842
  30
0.0
  11
 134.612
  21
 159.277
  31
0.0
   0
ARC
   8
LEVEL001
   6
CONTINUOUS
  62
7
  10
 132.028
  20
 131.446
  30
0.0
  40
 1.50000
  50
 185.000
  51
 275.000
   0
LINE
   8
LEVEL001
   6
CONTINUOUS
  62
7
  10
 130.534
  20
 131.315
  30
0.0
  11
 128.268
  21
 157.217
  31
0.0
   0
LINE
   8
LEVEL001
   6
CONTINUOUS
  62
7
  10
 132.159
  20
 129.952
  30
0.0
  11
 137.140
  21
 130.388
  31
0.0
   0
ARC
   8
LEVEL001
   6
CONTINUOUS
  62
7
  10
 150.682
  20
 159.178
  30
0.0
  40
 1.50000
  50
 4.99950
  51
 95.0001
   0
LINE
   8
LEVEL001
   6
CONTINUOUS
  62
7
  10
 145.571
  20
 160.236
  30
0.0
  11
 150.552
  21
 160.672
  31
0.0
   0
ARC
   8
LEVEL001
   6
CONTINUOUS
  62
7
  10
 152.948
  20
 133.277
  30
0.0
  40
 1.50000
  50
 275.000
  51
 4.99961
   0
LINE
   8
LEVEL001
   6
CONTINUOUS
  62
7
  10
 148.098
  20
 131.346
  30
0.0
  11
 153.079
  21
 131.782
  31
0.0
   0
LINE
   8
LEVEL001
   6
CONTINUOUS
  62
7
  10
 152.177
  20
 159.308
  30
0.0
  11
 154.443
  21
 133.407
  31
0.0
   0
ARC
   8
LEVEL001
   6
DASHDOT
  62
1
  10
 161.142
  20
 160.093
  30
0.0
  40
 1.00000
  50
 5.00064
  51
 95.0005
   0
LINE
   8
LEVEL001
   6
DASHDOT
  62
1
  10
 153.086
  20
 160.392
  30
0.0
  11
 161.055
  21
 161.089
  31
0.0
   0
ARC
   8
LEVEL001
   6
DASHDOT
  62
1
  10
 163.408
  20
 134.192
  30
0.0
  40
 1.00000
  50
 275.001
  51
 5.00053
   0
LINE
   8
LEVEL001
   6
DASHDOT
  62
1
  10
 155.526
  20
 132.498
  30
0.0
  11
 163.496
  21
 133.195
  31
0.0
   0
LINE
   8
LEVEL001
   6
DASHDOT
  62
1
  10
 162.139
  20
 160.180
  30
0.0
  11
 164.405
  21
 134.279
  31
0.0
   0
CIRCLE
   8
LEVEL001
   6
DASHDOT
  62
1
  10
 166.260
  20
 147.491
  30
0.0
  40
 1.50000
   0
ARC
   8
LEVEL001
   6
DASHDOT
  62
1
  10
 155.439
  20
 133.494
  30
0.0
  40
 1.00000
  50
 185.001
  51
 275.001
   0
ARC
   8
LEVEL001
   6
DASHDOT
  62
1
  10
 153.173
  20
 159.395
  30
0.0
  40
 1.00000
  50
 95.0006
  51
 185.001
   0
ARC
   8
LEVEL001
   6
DASHDOT
  62
1
  10
 164.785
  20
 152.883
  30
0.0
  40
 2.00000
  50
 185.000
  51
 275.000
   0
ARC
   8
LEVEL001
   6
DASHDOT
  62
1
  10
 165.743
  20
 141.925
  30
0.0
  40
 2.00000
  50
 95.0002
  51
 185.000
   0
LINE
   8
LEVEL001
   6
DASHDOT
  62
1
  10
 164.959
  20
 150.890
  30
0.0
  11
 165.457
  21
 150.934
  31
0.0
   0
LINE
   8
LEVEL001
   6
DASHDOT
  62
1
  10
 165.569
  20
 143.917
  30
0.0
  11
 166.067
  21
 143.961
  31
0.0
   0
ARC
   8
LEVEL001
   6
DASHDOT
  62
1
  10
 165.758
  20
 147.447
  30
0.0
  40
 3.50000
  50
 275.065
  51
 94.9347
   0
LINE
   8
LEVEL001
   6
CONTINUOUS
  62
7
  10
 114.771
  20
 133.450
  30
0.0
  11
 114.452
  21
 137.105
  31
0.0
   0
LINE
   8
LEVEL001
   6
CONTINUOUS
  62
7
  10
 113.435
  20
 148.722
  30
0.0
  11
 113.116
  21
 152.378
  31
0.0
   0
LINE
   8
LEVEL001
   6
CONTINUOUS
  62
7
  10
 108.833
  20
 138.412
  30
0.0
  11
 121.919
  21
 149.465
  31
0.0
   0
LINE
   8
LEVEL001
   6
CONTINUOUS
  62
7
  10
 108.129
  20
 146.460
  30
0.0
  11
 122.936
  21
 137.847
  31
0.0
   0
LINE
   8
LEVEL001
   6
CONTINUOUS
  62
3
  10
 108.194
  20
 150.115
  30
0.0
  11
 108.511
  21
 146.493
  31
0.0
   0
LINE
   8
LEVEL001
   6
CONTINUOUS
  62
7
  10
 111.712
  20
 151.395
  30
0.0
  11
 112.091
  21
 147.065
  31
0.0
   0
LINE
   8
LEVEL001
   6
CONTINUOUS
  62
7
  10
 112.840
  20
 138.504
  30
0.0
  11
 113.219
  21
 134.174
  31
0.0
   0
LINE
   8
LEVEL001
   6
CONTINUOUS
  62
3
  10
 137.009
  20
 131.882
  30
0.0
  11
 147.967
  21
 132.841
  31
0.0
   0
LINE
   8
LEVEL001
   6
CONTINUOUS
  62
3
  10
 136.835
  20
 133.874
  30
0.0
  11
 147.793
  21
 134.833
  31
0.0
   0
LINE
   8
LEVEL001
   6
CONTINUOUS
  62
3
  10
 136.661
  20
 135.867
  30
0.0
  11
 147.619
  21
 136.826
  31
0.0
   0
LINE
   8
LEVEL001
   6
CONTINUOUS
  62
3
  10
 136.486
  20
 137.859
  30
0.0
  11
 147.444
  21
 138.818
  31
0.0
   0
LINE
   8
LEVEL001
   6
CONTINUOUS
  62
3
  10
 136.312
  20
 139.852
  30
0.0
  11
 147.270
  21
 140.810
  31
0.0
   0
LINE
   8
LEVEL001
   6
CONTINUOUS
  62
3
  10
 136.138
  20
 141.844
  30
0.0
  11
 147.096
  21
 142.803
  31
0.0
   0
LINE
   8
LEVEL001
   6
CONTINUOUS
  62
3
  10
 135.963
  20
 143.836
  30
0.0
  11
 146.921
  21
 144.795
  31
0.0
   0
LINE
   8
LEVEL001
   6
CONTINUOUS
  62
3
  10
 135.789
  20
 145.829
  30
0.0
  11
 146.747
  21
 146.787
  31
0.0
   0
LINE
   8
LEVEL001
   6
CONTINUOUS
  62
3
  10
 135.615
  20
 147.821
  30
0.0
  11
 146.573
  21
 148.780
  31
0.0
   0
LINE
   8
LEVEL001
   6
CONTINUOUS
  62
3
  10
 135.440
  20
 149.814
  30
0.0
  11
 146.399
  21
 150.772
  31
0.0
   0
LINE
   8
LEVEL001
   6
CONTINUOUS
  62
3
  10
 135.266
  20
 151.806
  30
0.0
  11
 146.224
  21
 152.765
  31
0.0
   0
LINE
   8
LEVEL001
   6
CONTINUOUS
  62
3
  10
 135.092
  20
 153.798
  30
0.0
  11
 146.050
  21
 154.757
  31
0.0
   0
LINE
   8
LEVEL001
   6
CONTINUOUS
  62
3
  10
 134.917
  20
 155.791
  30
0.0
  11
 145.876
  21
 156.749
  31
0.0
   0
LINE
   8
LEVEL001
   6
CONTINUOUS
  62
3
  10
 134.743
  20
 157.783
  30
0.0
  11
 145.701
  21
 158.742
  31
0.0
   0
LINE
   8
LEVEL001
   6
CONTINUOUS
  62
7
  10
 108.833
  20
 138.412
  30
0.0
  11
 108.129
  21
 146.460
  31
0.0
   0
LINE
   8
LEVEL001
   6
CONTINUOUS
  62
7
  10
 108.129
  20
 146.460
  30
0.0
  11
 112.091
  21
 147.065
  31
0.0
   0
LINE
   8
LEVEL001
   6
CONTINUOUS
  62
7
  10
 112.091
  20
 147.065
  30
0.0
  11
 113.435
  21
 148.722
  31
0.0
   0
LINE
   8
LEVEL001
   6
CONTINUOUS
  62
7
  10
 113.435
  20
 148.722
  30
0.0
  11
 121.919
  21
 149.465
  31
0.0
   0
LINE
   8
LEVEL001
   6
CONTINUOUS
  62
7
  10
 121.919
  20
 149.465
  30
0.0
  11
 122.936
  21
 137.847
  31
0.0
   0
LINE
   8
LEVEL001
   6
CONTINUOUS
  62
7
  10
 122.936
  20
 137.847
  30
0.0
  11
 114.452
  21
 137.105
  31
0.0
   0
LINE
   8
LEVEL001
   6
CONTINUOUS
  62
7
  10
 114.452
  20
 137.105
  30
0.0
  11
 112.840
  21
 138.504
  31
0.0
   0
LINE
   8
LEVEL001
   6
CONTINUOUS
  62
7
  10
 112.840
  20
 138.504
  30
0.0
  11
 108.833
  21
 138.412
  31
0.0
   0
LINE
   8
LEVEL001
   6
CONTINUOUS
  62
7
  10
 137.184
  20
 129.890
  30
0.0
  11
 134.569
  21
 159.775
  31
0.0
   0
LINE
   8
LEVEL001
   6
CONTINUOUS
  62
7
  10
 134.569
  20
 159.775
  30
0.0
  11
 145.527
  21
 160.734
  31
0.0
   0
LINE
   8
LEVEL001
   6
CONTINUOUS
  62
7
  10
 145.527
  20
 160.734
  30
0.0
  11
 148.142
  21
 130.848
  31
0.0
   0
LINE
   8
LEVEL001
   6
CONTINUOUS
  62
7
  10
 148.142
  20
 130.848
  30
0.0
  11
 137.184
  21
 129.890
  31
0.0
   0
LINE
   8
LEVEL001
   6
DASHDOT
  62
1
  10
 172.237
  20
 148.014
  30
0.0
  11
 86.0000
  21
 140.469
  31
0.0
   0
LINE
   8
LEVEL001
   6
CONTINUOUS
  62
3
  10
 113.219
  20
 134.174
  30
0.0
  11
 109.532
  21
 134.824
  31
0.0
   0
LINE
   8
LEVEL001
   6
CONTINUOUS
  62
3
  10
 109.532
  20
 134.824
  30
0.0
  11
 109.215
  21
 138.445
  31
0.0
   0
LINE
   8
LEVEL001
   6
CONTINUOUS
  62
7
  10
 111.712
  20
 151.395
  30
0.0
  11
 103.500
  21
 150.417
  31
0.0
   0
LINE
   8
LEVEL001
   6
CONTINUOUS
  62
7
  10
 113.219
  20
 134.174
  30
0.0
  11
 103.500
  21
 133.629
  31
0.0
   0
LINE
   8
LEVEL001
   6
CONTINUOUS
  62
3
  10
 109.532
  20
 134.824
  30
0.0
  11
 103.500
  21
 134.486
  31
0.0
   0
LINE
   8
LEVEL001
   6
CONTINUOUS
  62
3
  10
 108.194
  20
 150.115
  30
0.0
  11
 103.500
  21
 149.556
  31
0.0
   0
CIRCLE
   8
LEVEL003
   6
CONTINUOUS
  62
7
  10
 159.718
  20
 32.2707
  30
0.0
  40
 3.00000
   0
LINE
   8
LEVEL003
   6
CONTINUOUS
  62
7
  10
 165.606
  20
 35.2707
  30
0.0
  11
 161.797
  21
 28.6707
  31
0.0
   0
LINE
   8
LEVEL003
   6
CONTINUOUS
  62
7
  10
 161.797
  20
 28.6707
  30
0.0
  11
 154.176
  21
 28.6707
  31
0.0
   0
LINE
   8
LEVEL003
   6
CONTINUOUS
  62
7
  10
 153.309
  20
 27.1707
  30
0.0
  11
 166.930
  21
 27.1707
  31
0.0
   0
LINE
   8
LEVEL003
   6
CONTINUOUS
  62
7
  10
 166.930
  20
 27.1707
  30
0.0
  11
 171.606
  21
 35.2707
  31
0.0
   0
LINE
   8
LEVEL003
   6
CONTINUOUS
  62
7
  10
 171.606
  20
 35.2707
  30
0.0
  11
 165.606
  21
 35.2707
  31
0.0
   0
LINE
   8
LEVEL003
   6
CONTINUOUS
  62
7
  10
 154.176
  20
 28.6707
  30
0.0
  11
 153.309
  21
 27.1707
  31
0.0
   0
TEXT
   8
LEVEL003
  62
7
  10
 171.691
  20
 25.2200
  30
0.0
  40
 10.0000
   1
ＯＳＡＫＡ ＪＡＣＫ
   7
STANDARD
   0
TEXT
   8
LEVEL003
  62
7
  10
 174.602
  20
 42.1134
  30
0.0
  40
 6.00000
   1
Model : Ｅ１０Ｓ２.５
   7
STANDARD
   0
TEXT
   8
LEVEL003
  62
3
  10
 1.00000
  20
 105.000
  30
0.0
  40
 4.00000
   1
２－Ｍ８×１２Ｌ
   7
STANDARD
   0
LINE
   8
LEVEL003
   6
CONTINUOUS
  62
3
  10
 40.0000
  20
 105.000
  30
0.0
  11
 2.28904
  21
 105.000
  31
0.0
   0
LINE
   8
LEVEL003
   6
CONTINUOUS
  62
3
  10
 115.000
  20
 115.000
  30
0.0
  11
 142.317
  21
 115.000
  31
0.0
   0
LINE
   8
LEVEL003
   6
CONTINUOUS
  62
3
  10
 94.5000
  20
 215.000
  30
0.0
  11
 132.000
  21
 215.000
  31
0.0
   0
LINE
   8
LEVEL003
   6
CONTINUOUS
  62
3
  10
 102.250
  20
 213.000
  30
0.0
  11
 132.000
  21
 213.000
  31
0.0
   0
LINE
   8
LEVEL003
   6
CONTINUOUS
  62
3
  10
 130.000
  20
 215.000
  30
0.0
  11
 130.000
  21
 213.000
  31
0.0
   0
LINE
   8
LEVEL003
   6
CONTINUOUS
  62
3
  10
 130.000
  20
 215.000
  30
0.0
  11
 130.000
  21
 219.000
  31
0.0
   0
LINE
   8
LEVEL003
   6
CONTINUOUS
  62
3
  10
 130.000
  20
 215.000
  30
0.0
  11
 130.529
  21
 218.000
  31
0.0
   0
LINE
   8
LEVEL003
   6
CONTINUOUS
  62
3
  10
 130.000
  20
 215.000
  30
0.0
  11
 129.471
  21
 218.000
  31
0.0
   0
LINE
   8
LEVEL003
   6
CONTINUOUS
  62
3
  10
 130.000
  20
 213.000
  30
0.0
  11
 129.471
  21
 210.000
  31
0.0
   0
LINE
   8
LEVEL003
   6
CONTINUOUS
  62
3
  10
 130.000
  20
 213.000
  30
0.0
  11
 130.529
  21
 210.000
  31
0.0
   0
LINE
   8
LEVEL003
   6
CONTINUOUS
  62
3
  10
 130.000
  20
 215.000
  30
0.0
  11
 130.000
  21
 219.000
  31
0.0
   0
LINE
   8
LEVEL003
   6
CONTINUOUS
  62
3
  10
 130.000
  20
 213.000
  30
0.0
  11
 130.000
  21
 209.250
  31
0.0
   0
TEXT
   8
LEVEL003
  62
3
  10
 129.200
  20
 215.000
  30
0.0
  40
 4.00000
   1
2
  50
 90.0000
   7
STANDARD
  72
1
  11
 129.200
  21
 217.000
  31
0.0
   0
LINE
   8
LEVEL003
   6
CONTINUOUS
  62
3
  10
 102.250
  20
 213.000
  30
0.0
  11
 122.000
  21
 213.000
  31
0.0
   0
LINE
   8
LEVEL003
   6
CONTINUOUS
  62
3
  10
 107.500
  20
 210.000
  30
0.0
  11
 122.000
  21
 210.000
  31
0.0
   0
LINE
   8
LEVEL003
   6
CONTINUOUS
  62
3
  10
 120.000
  20
 213.000
  30
0.0
  11
 120.000
  21
 210.000
  31
0.0
   0
LINE
   8
LEVEL003
   6
CONTINUOUS
  62
3
  10
 120.000
  20
 210.000
  30
0.0
  11
 120.000
  21
 205.000
  31
0.0
   0
LINE
   8
LEVEL003
   6
CONTINUOUS
  62
3
  10
 120.000
  20
 213.000
  30
0.0
  11
 120.529
  21
 216.000
  31
0.0
   0
LINE
   8
LEVEL003
   6
CONTINUOUS
  62
3
  10
 120.000
  20
 213.000
  30
0.0
  11
 119.471
  21
 216.000
  31
0.0
   0
LINE
   8
LEVEL003
   6
CONTINUOUS
  62
3
  10
 120.000
  20
 210.000
  30
0.0
  11
 119.471
  21
 207.000
  31
0.0
   0
LINE
   8
LEVEL003
   6
CONTINUOUS
  62
3
  10
 120.000
  20
 210.000
  30
0.0
  11
 120.529
  21
 207.000
  31
0.0
   0
LINE
   8
LEVEL003
   6
CONTINUOUS
  62
3
  10
 120.000
  20
 213.000
  30
0.0
  11
 120.000
  21
 216.750
  31
0.0
   0
LINE
   8
LEVEL003
   6
CONTINUOUS
  62
3
  10
 120.000
  20
 210.000
  30
0.0
  11
 120.000
  21
 205.000
  31
0.0
   0
TEXT
   8
LEVEL003
  62
3
  10
 119.200
  20
 205.000
  30
0.0
  40
 4.00000
   1
3
  50
 90.0000
   7
STANDARD
  72
1
  11
 119.200
  21
 207.000
  31
0.0
   0
LINE
   8
LEVEL003
   6
CONTINUOUS
  62
3
  10
 102.250
  20
 213.000
  30
0.0
  11
 132.000
  21
 213.000
  31
0.0
   0
LINE
   8
LEVEL003
   6
CONTINUOUS
  62
3
  10
 107.500
  20
 186.000
  30
0.0
  11
 132.000
  21
 186.000
  31
0.0
   0
LINE
   8
LEVEL003
   6
CONTINUOUS
  62
3
  10
 130.000
  20
 213.000
  30
0.0
  11
 130.000
  21
 186.000
  31
0.0
   0
LINE
   8
LEVEL003
   6
CONTINUOUS
  62
3
  10
 130.000
  20
 213.000
  30
0.0
  11
 129.471
  21
 210.000
  31
0.0
   0
LINE
   8
LEVEL003
   6
CONTINUOUS
  62
3
  10
 130.000
  20
 213.000
  30
0.0
  11
 130.529
  21
 210.000
  31
0.0
   0
LINE
   8
LEVEL003
   6
CONTINUOUS
  62
3
  10
 130.000
  20
 186.000
  30
0.0
  11
 130.529
  21
 189.000
  31
0.0
   0
LINE
   8
LEVEL003
   6
CONTINUOUS
  62
3
  10
 130.000
  20
 186.000
  30
0.0
  11
 129.471
  21
 189.000
  31
0.0
   0
TEXT
   8
LEVEL003
  62
3
  10
 129.200
  20
 195.500
  30
0.0
  40
 4.00000
   1
27
  50
 90.0000
   7
STANDARD
  72
1
  11
 129.200
  21
 199.500
  31
0.0
   0
ENDSEC
   0
EOF
