   0
SECTION
   2
HEADER
   9
$LIMMIN
  10
0.0
  20
0.0
   9
$LIMMAX
  10
 420.000
  20
 462.000
   9
$EXTMIN
  10
0.0
  20
0.0
   9
$EXTMAX
  10
 420.000
  20
 462.000
   9
$LTSCALE
  40
 9.24000
   0
ENDSEC
   0
SECTION
   2
TABLES
  0
TABLE
  2
LTYPE
 70
    25
  0
LTYPE
  2
CONTINUOUS
 70
    64
  3
Solid line
 72
    65
 73
     0
 40
0.0
  0
LTYPE
  2
BORDER
 70
    64
  3
__ __ . __ __ . __ __ . __ __ . __ __ . __ __ .
 72
    65
 73
     6
 40
1.75
 49
0.5
 49
-0.25
 49
0.5
 49
-0.25
 49
0.0
 49
-0.25
  0
LTYPE
  2
BORDER2
 70
    64
  3
__.__.__.__.__.__.__.__.__.__.__.__.__.__.__.__
 72
    65
 73
     6
 40
0.875
 49
0.25
 49
-0.125
 49
0.25
 49
-0.125
 49
0.0
 49
-0.125
  0
LTYPE
  2
BORDERX2
 70
    64
  3
____  ____  .  ____  ____  .  ____  ____  .  __
 72
    65
 73
     6
 40
3.5
 49
1.0
 49
-0.5
 49
1.0
 49
-0.5
 49
0.0
 49
-0.5
  0
LTYPE
  2
CENTER
 70
    64
  3
____ _ ____ _ ____ _ ____ _ ____ _ ____ _ ____ 
 72
    65
 73
     4
 40
2.0
 49
1.25
 49
-0.25
 49
0.25
 49
-0.25
  0
LTYPE
  2
CENTER2
 70
    64
  3
___ _ ___ _ ___ _ ___ _ ___ _ ___ _ ___ _ ___ _
 72
    65
 73
     4
 40
1.125
 49
0.75
 49
-0.125
 49
0.125
 49
-0.125
  0
LTYPE
  2
CENTERX2
 70
    64
  3
________  __  ________  __  ________  __  _____
 72
    65
 73
     4
 40
4.0
 49
2.5
 49
-0.5
 49
0.5
 49
-0.5
  0
LTYPE
  2
DASHDOT
 70
    64
  3
__ . __ . __ . __ . __ . __ . __ . __ . __ . __
 72
    65
 73
     4
 40
1.0
 49
0.5
 49
-0.25
 49
0.0
 49
-0.25
  0
LTYPE
  2
DASHDOT2
 70
    64
  3
_._._._._._._._._._._._._._._._._._._._._._._._
 72
    65
 73
     4
 40
0.5
 49
0.25
 49
-0.125
 49
0.0
 49
-0.125
  0
LTYPE
  2
DASHDOTX2
 70
    64
  3
____  .  ____  .  ____  .  ____  .  ____  .  __
 72
    65
 73
     4
 40
2.0
 49
1.0
 49
-0.5
 49
0.0
 49
-0.5
  0
LTYPE
  2
DASHED
 70
    64
  3
__ __ __ __ __ __ __ __ __ __ __ __ __ __ __ __
 72
    65
 73
     2
 40
0.75
 49
0.5
 49
-0.25
  0
LTYPE
  2
DASHED2
 70
    64
  3
_ _ _ _ _ _ _ _ _ _ _ _ _ _ _ _ _ _ _ _ _ _ _ _
 72
    65
 73
     2
 40
0.375
 49
0.25
 49
-0.125
  0
LTYPE
  2
DASHEDX2
 70
    64
  3
____  ____  ____  ____  ____  ____  ____  ____ 
 72
    65
 73
     2
 40
1.5
 49
1.0
 49
-0.5
  0
LTYPE
  2
DIVIDE
 70
    64
  3
____ . . ____ . . ____ . . ____ . . ____ . . __
 72
    65
 73
     6
 40
1.25
 49
0.5
 49
-0.25
 49
0.0
 49
-0.25
 49
0.0
 49
-0.25
  0
LTYPE
  2
DIVIDE2
 70
    64
  3
__..__..__..__..__..__..__..__..__..__..__..__.
 72
    65
 73
     6
 40
0.625
 49
0.25
 49
-0.125
 49
0.0
 49
-0.125
 49
0.0
 49
-0.125
  0
LTYPE
  2
DIVIDEX2
 70
    64
  3
________  .  .  ________  .  .  ________  .  . 
 72
    65
 73
     6
 40
2.5
 49
1.0
 49
-0.5
 49
0.0
 49
-0.5
 49
0.0
 49
-0.5
  0
LTYPE
  2
DOT
 70
    64
  3
. . . . . . . . . . . . . . . . . . . . . . . .
 72
    65
 73
     2
 40
0.25
 49
0.0
 49
-0.25
  0
LTYPE
  2
DOT2
 70
    64
  3
...............................................
 72
    65
 73
     2
 40
0.125
 49
0.0
 49
-0.125
  0
LTYPE
  2
DOTX2
 70
    64
  3
.  .  .  .  .  .  .  .  .  .  .  .  .  .  .  . 
 72
    65
 73
     2
 40
0.5
 49
0.0
 49
-0.5
  0
LTYPE
  2
HIDDEN
 70
    64
  3
__ __ __ __ __ __ __ __ __ __ __ __ __ __ __ __
 72
    65
 73
     2
 40
0.375
 49
0.25
 49
-0.125
  0
LTYPE
  2
HIDDEN2
 70
    64
  3
_ _ _ _ _ _ _ _ _ _ _ _ _ _ _ _ _ _ _ _ _ _ _ _
 72
    65
 73
     2
 40
0.1875
 49
0.125
 49
-0.0625
  0
LTYPE
  2
HIDDENX2
 70
    64
  3
____ ____ ____ ____ ____ ____ ____ ____ ____ __
 72
    65
 73
     2
 40
0.75
 49
0.5
 49
-0.25
  0
LTYPE
  2
PHANTOM
 70
    64
  3
______  __  __  ______  __  __  ______  __  __ 
 72
    65
 73
     6
 40
2.5
 49
1.25
 49
-0.25
 49
0.25
 49
-0.25
 49
0.25
 49
-0.25
  0
LTYPE
  2
PHANTOM2
 70
    64
  3
___ _ _ ___ _ _ ___ _ _ ___ _ _ ___ _ _ ___ _ _
 72
    65
 73
     6
 40
1.25
 49
0.625
 49
-0.125
 49
0.125
 49
-0.125
 49
0.125
 49
-0.125
  0
LTYPE
  2
PHANTOMX2
 70
    64
  3
____________    ____    ____    ____________   
 72
    65
 73
     6
 40
5.0
 49
2.5
 49
-0.5
 49
0.5
 49
-0.5
 49
0.5
 49
-0.5
  0
ENDTAB
  0
TABLE
  2
STYLE
 70
     2
  0
STYLE
  2
STANDARD
 70
0
 40
0.0
 41
1.0
 50
0.0
 71
0
 42
0.2
  3
TXT
  4
BIGFONT
  0
STYLE
  2
STANDARD1
 70
     4
 40
0.0
 41
1.0
 50
0.0
 71
     0
 42
0.2
  3
TXT
  4
BIGFONT
  0
ENDTAB
   0
TABLE
   2
LAYER
  70
4
   0
LAYER
   2
0
  70
0
  62
7
   6
CONTINUOUS
   0
LAYER
   2
LEVEL001
  70
0
  62
7
   6
CONTINUOUS
   0
LAYER
   2
LEVEL003
  70
0
  62
7
   6
CONTINUOUS
   0
LAYER
   2
LEVEL004
  70
0
  62
7
   6
CONTINUOUS
   0
ENDTAB
   0
ENDSEC
   0
SECTION
   2
ENTITIES
   0
LINE
   8
LEVEL001
   6
CONTINUOUS
  62
7
  10
 103.500
  20
 102.000
  30
0.0
  11
 101.500
  21
 100.000
  31
0.0
   0
LINE
   8
LEVEL001
   6
CONTINUOUS
  62
7
  10
 46.5000
  20
 102.000
  30
0.0
  11
 48.5000
  21
 100.000
  31
0.0
   0
LINE
   8
LEVEL001
   6
CONTINUOUS
  62
7
  10
 48.5000
  20
 100.000
  30
0.0
  11
 101.500
  21
 100.000
  31
0.0
   0
LINE
   8
LEVEL001
   6
CONTINUOUS
  62
3
  10
 113.500
  20
 129.644
  30
0.0
  11
 109.884
  21
 128.675
  31
0.0
   0
LINE
   8
LEVEL001
   6
CONTINUOUS
  62
3
  10
 113.500
  20
 112.356
  30
0.0
  11
 109.884
  21
 113.326
  31
0.0
   0
LINE
   8
LEVEL001
   6
CONTINUOUS
  62
7
  10
 113.500
  20
 129.644
  30
0.0
  11
 114.984
  21
 130.500
  31
0.0
   0
LINE
   8
LEVEL001
   6
CONTINUOUS
  62
7
  10
 130.500
  20
 130.500
  30
0.0
  11
 114.984
  21
 130.500
  31
0.0
   0
LINE
   8
LEVEL001
   6
CONTINUOUS
  62
7
  10
 113.500
  20
 112.356
  30
0.0
  11
 114.984
  21
 111.500
  31
0.0
   0
LINE
   8
LEVEL001
   6
CONTINUOUS
  62
7
  10
 130.500
  20
 111.500
  30
0.0
  11
 114.984
  21
 111.500
  31
0.0
   0
ARC
   8
LEVEL001
   6
CONTINUOUS
  62
7
  10
 132.000
  20
 134.000
  30
0.0
  40
 1.50000
  50
 90.0000
  51
 180.000
   0
LINE
   8
LEVEL001
   6
CONTINUOUS
  62
7
  10
 132.000
  20
 135.500
  30
0.0
  11
 137.000
  21
 135.500
  31
0.0
   0
ARC
   8
LEVEL001
   6
CONTINUOUS
  62
7
  10
 132.000
  20
 108.000
  30
0.0
  40
 1.50000
  50
 180.000
  51
 270.000
   0
LINE
   8
LEVEL001
   6
CONTINUOUS
  62
7
  10
 130.500
  20
 108.000
  30
0.0
  11
 130.500
  21
 134.000
  31
0.0
   0
LINE
   8
LEVEL001
   6
CONTINUOUS
  62
7
  10
 132.000
  20
 106.500
  30
0.0
  11
 137.000
  21
 106.500
  31
0.0
   0
ARC
   8
LEVEL001
   6
CONTINUOUS
  62
7
  10
 153.000
  20
 134.000
  30
0.0
  40
 1.50000
  50
0.0
  51
 90.0000
   0
LINE
   8
LEVEL001
   6
CONTINUOUS
  62
7
  10
 148.000
  20
 135.500
  30
0.0
  11
 153.000
  21
 135.500
  31
0.0
   0
ARC
   8
LEVEL001
   6
CONTINUOUS
  62
7
  10
 153.000
  20
 108.000
  30
0.0
  40
 1.50000
  50
 270.000
  51
0.0
   0
LINE
   8
LEVEL001
   6
CONTINUOUS
  62
7
  10
 148.000
  20
 106.500
  30
0.0
  11
 153.000
  21
 106.500
  31
0.0
   0
LINE
   8
LEVEL001
   6
CONTINUOUS
  62
7
  10
 154.500
  20
 134.000
  30
0.0
  11
 154.500
  21
 108.000
  31
0.0
   0
ARC
   8
LEVEL001
   6
DASHDOT
  62
1
  10
 163.500
  20
 134.000
  30
0.0
  40
 1.00000
  50
0.0
  51
 90.0000
   0
LINE
   8
LEVEL001
   6
DASHDOT
  62
1
  10
 155.500
  20
 135.000
  30
0.0
  11
 163.500
  21
 135.000
  31
0.0
   0
ARC
   8
LEVEL001
   6
DASHDOT
  62
1
  10
 163.500
  20
 108.000
  30
0.0
  40
 1.00000
  50
 270.000
  51
0.0
   0
LINE
   8
LEVEL001
   6
DASHDOT
  62
1
  10
 155.500
  20
 107.000
  30
0.0
  11
 163.500
  21
 107.000
  31
0.0
   0
LINE
   8
LEVEL001
   6
DASHDOT
  62
1
  10
 164.500
  20
 134.000
  30
0.0
  11
 164.500
  21
 108.000
  31
0.0
   0
CIRCLE
   8
LEVEL001
   6
DASHDOT
  62
1
  10
 167.500
  20
 121.000
  30
0.0
  40
 1.50000
   0
ARC
   8
LEVEL001
   6
DASHDOT
  62
1
  10
 155.500
  20
 108.000
  30
0.0
  40
 1.00000
  50
 180.000
  51
 270.000
   0
ARC
   8
LEVEL001
   6
DASHDOT
  62
1
  10
 155.500
  20
 134.000
  30
0.0
  40
 1.00000
  50
 90.0000
  51
 180.000
   0
ARC
   8
LEVEL001
   6
DASHDOT
  62
1
  10
 166.500
  20
 126.500
  30
0.0
  40
 2.00000
  50
 180.000
  51
 270.000
   0
ARC
   8
LEVEL001
   6
DASHDOT
  62
1
  10
 166.500
  20
 115.500
  30
0.0
  40
 2.00000
  50
 90.0000
  51
 180.000
   0
LINE
   8
LEVEL001
   6
DASHDOT
  62
1
  10
 166.500
  20
 124.500
  30
0.0
  11
 167.000
  21
 124.500
  31
0.0
   0
LINE
   8
LEVEL001
   6
DASHDOT
  62
1
  10
 166.500
  20
 117.500
  30
0.0
  11
 167.000
  21
 117.500
  31
0.0
   0
ARC
   8
LEVEL001
   6
DASHDOT
  62
1
  10
 167.000
  20
 121.000
  30
0.0
  40
 3.50000
  50
 270.000
  51
 90.0000
   0
LINE
   8
LEVEL001
   6
CONTINUOUS
  62
7
  10
 114.984
  20
 111.500
  30
0.0
  11
 114.984
  21
 115.169
  31
0.0
   0
LINE
   8
LEVEL001
   6
CONTINUOUS
  62
7
  10
 114.984
  20
 126.831
  30
0.0
  11
 114.984
  21
 130.500
  31
0.0
   0
LINE
   8
LEVEL001
   6
CONTINUOUS
  62
7
  10
 109.500
  20
 116.961
  30
0.0
  11
 123.500
  21
 126.831
  31
0.0
   0
LINE
   8
LEVEL001
   6
CONTINUOUS
  62
7
  10
 109.500
  20
 125.039
  30
0.0
  11
 123.500
  21
 115.169
  31
0.0
   0
LINE
   8
LEVEL001
   6
CONTINUOUS
  62
3
  10
 109.884
  20
 128.674
  30
0.0
  11
 109.884
  21
 125.039
  31
0.0
   0
LINE
   8
LEVEL001
   6
CONTINUOUS
  62
3
  10
 109.884
  20
 116.961
  30
0.0
  11
 109.884
  21
 113.326
  31
0.0
   0
LINE
   8
LEVEL001
   6
CONTINUOUS
  62
7
  10
 113.500
  20
 129.644
  30
0.0
  11
 113.500
  21
 125.297
  31
0.0
   0
LINE
   8
LEVEL001
   6
CONTINUOUS
  62
7
  10
 113.500
  20
 116.703
  30
0.0
  11
 113.500
  21
 112.356
  31
0.0
   0
LINE
   8
LEVEL001
   6
CONTINUOUS
  62
3
  10
 137.000
  20
 108.000
  30
0.0
  11
 148.000
  21
 108.000
  31
0.0
   0
LINE
   8
LEVEL001
   6
CONTINUOUS
  62
3
  10
 137.000
  20
 110.000
  30
0.0
  11
 148.000
  21
 110.000
  31
0.0
   0
LINE
   8
LEVEL001
   6
CONTINUOUS
  62
3
  10
 137.000
  20
 112.000
  30
0.0
  11
 148.000
  21
 112.000
  31
0.0
   0
LINE
   8
LEVEL001
   6
CONTINUOUS
  62
3
  10
 137.000
  20
 114.000
  30
0.0
  11
 148.000
  21
 114.000
  31
0.0
   0
LINE
   8
LEVEL001
   6
CONTINUOUS
  62
3
  10
 137.000
  20
 116.000
  30
0.0
  11
 148.000
  21
 116.000
  31
0.0
   0
LINE
   8
LEVEL001
   6
CONTINUOUS
  62
3
  10
 137.000
  20
 118.000
  30
0.0
  11
 148.000
  21
 118.000
  31
0.0
   0
LINE
   8
LEVEL001
   6
CONTINUOUS
  62
3
  10
 137.000
  20
 120.000
  30
0.0
  11
 148.000
  21
 120.000
  31
0.0
   0
LINE
   8
LEVEL001
   6
CONTINUOUS
  62
3
  10
 137.000
  20
 122.000
  30
0.0
  11
 148.000
  21
 122.000
  31
0.0
   0
LINE
   8
LEVEL001
   6
CONTINUOUS
  62
3
  10
 137.000
  20
 124.000
  30
0.0
  11
 148.000
  21
 124.000
  31
0.0
   0
LINE
   8
LEVEL001
   6
CONTINUOUS
  62
3
  10
 137.000
  20
 126.000
  30
0.0
  11
 148.000
  21
 126.000
  31
0.0
   0
LINE
   8
LEVEL001
   6
CONTINUOUS
  62
3
  10
 137.000
  20
 128.000
  30
0.0
  11
 148.000
  21
 128.000
  31
0.0
   0
LINE
   8
LEVEL001
   6
CONTINUOUS
  62
3
  10
 137.000
  20
 130.000
  30
0.0
  11
 148.000
  21
 130.000
  31
0.0
   0
LINE
   8
LEVEL001
   6
CONTINUOUS
  62
3
  10
 137.000
  20
 132.000
  30
0.0
  11
 148.000
  21
 132.000
  31
0.0
   0
LINE
   8
LEVEL001
   6
CONTINUOUS
  62
3
  10
 137.000
  20
 134.000
  30
0.0
  11
 148.000
  21
 134.000
  31
0.0
   0
LINE
   8
LEVEL001
   6
CONTINUOUS
  62
7
  10
 109.500
  20
 116.961
  30
0.0
  11
 109.500
  21
 125.039
  31
0.0
   0
LINE
   8
LEVEL001
   6
CONTINUOUS
  62
7
  10
 109.500
  20
 125.039
  30
0.0
  11
 113.500
  21
 125.297
  31
0.0
   0
LINE
   8
LEVEL001
   6
CONTINUOUS
  62
7
  10
 113.500
  20
 125.297
  30
0.0
  11
 114.984
  21
 126.831
  31
0.0
   0
LINE
   8
LEVEL001
   6
CONTINUOUS
  62
7
  10
 114.984
  20
 126.831
  30
0.0
  11
 123.500
  21
 126.831
  31
0.0
   0
LINE
   8
LEVEL001
   6
CONTINUOUS
  62
7
  10
 123.500
  20
 126.831
  30
0.0
  11
 123.500
  21
 115.169
  31
0.0
   0
LINE
   8
LEVEL001
   6
CONTINUOUS
  62
7
  10
 123.500
  20
 115.169
  30
0.0
  11
 114.984
  21
 115.169
  31
0.0
   0
LINE
   8
LEVEL001
   6
CONTINUOUS
  62
7
  10
 114.984
  20
 115.169
  30
0.0
  11
 113.500
  21
 116.703
  31
0.0
   0
LINE
   8
LEVEL001
   6
CONTINUOUS
  62
7
  10
 113.500
  20
 116.703
  30
0.0
  11
 109.500
  21
 116.961
  31
0.0
   0
LINE
   8
LEVEL001
   6
CONTINUOUS
  62
7
  10
 137.000
  20
 106.000
  30
0.0
  11
 137.000
  21
 136.000
  31
0.0
   0
LINE
   8
LEVEL001
   6
CONTINUOUS
  62
7
  10
 137.000
  20
 136.000
  30
0.0
  11
 148.000
  21
 136.000
  31
0.0
   0
LINE
   8
LEVEL001
   6
CONTINUOUS
  62
7
  10
 148.000
  20
 136.000
  30
0.0
  11
 148.000
  21
 106.000
  31
0.0
   0
LINE
   8
LEVEL001
   6
CONTINUOUS
  62
7
  10
 148.000
  20
 106.000
  30
0.0
  11
 137.000
  21
 106.000
  31
0.0
   0
LINE
   8
LEVEL001
   6
DASHDOT
  62
1
  10
 173.500
  20
 121.000
  30
0.0
  11
 88.5000
  21
 121.000
  31
0.0
   0
LINE
   8
LEVEL003
   6
CONTINUOUS
  62
3
  10
 174.500
  20
 121.000
  30
0.0
  11
 192.000
  21
 121.000
  31
0.0
   0
LINE
   8
LEVEL003
   6
CONTINUOUS
  62
3
  10
 102.500
  20
 100.000
  30
0.0
  11
 192.000
  21
 100.000
  31
0.0
   0
LINE
   8
LEVEL003
   6
CONTINUOUS
  62
3
  10
 190.000
  20
 121.000
  30
0.0
  11
 190.000
  21
 100.000
  31
0.0
   0
LINE
   8
LEVEL003
   6
CONTINUOUS
  62
3
  10
 190.000
  20
 121.000
  30
0.0
  11
 189.471
  21
 118.000
  31
0.0
   0
LINE
   8
LEVEL003
   6
CONTINUOUS
  62
3
  10
 190.000
  20
 121.000
  30
0.0
  11
 190.529
  21
 118.000
  31
0.0
   0
LINE
   8
LEVEL003
   6
CONTINUOUS
  62
3
  10
 190.000
  20
 100.000
  30
0.0
  11
 190.529
  21
 103.000
  31
0.0
   0
LINE
   8
LEVEL003
   6
CONTINUOUS
  62
3
  10
 190.000
  20
 100.000
  30
0.0
  11
 189.471
  21
 103.000
  31
0.0
   0
TEXT
   8
LEVEL003
  62
3
  10
 189.200
  20
 108.500
  30
0.0
  40
 4.00000
   1
21
  50
 90.0000
  41
 0.500000
   7
STANDARD
  72
1
  11
 189.200
  21
 110.500
  31
0.0
   0
LINE
   8
LEVEL003
   6
CONTINUOUS
  62
3
  10
 106.375
  20
 112.579
  30
0.0
  11
 115.000
  21
 85.0000
  31
0.0
   0
LINE
   8
LEVEL003
   6
CONTINUOUS
  62
3
  10
 106.375
  20
 112.579
  30
0.0
  11
 106.766
  21
 109.558
  31
0.0
   0
LINE
   8
LEVEL003
   6
CONTINUOUS
  62
3
  10
 106.375
  20
 112.579
  30
0.0
  11
 107.776
  21
 109.874
  31
0.0
   0
TEXT
   8
LEVEL003
  62
3
  10
 115.000
  20
 85.0000
  30
0.0
  40
 4.00000
   1
ＮＰＴ３／８
   7
STANDARD
   0
LINE
   8
LEVEL003
   6
CONTINUOUS
  62
3
  10
 57.5000
  20
 96.0000
  30
0.0
  11
 57.5000
  21
 83.0000
  31
0.0
   0
LINE
   8
LEVEL003
   6
CONTINUOUS
  62
3
  10
 92.5000
  20
 96.0000
  30
0.0
  11
 92.5000
  21
 83.0000
  31
0.0
   0
LINE
   8
LEVEL003
   6
CONTINUOUS
  62
3
  10
 57.5000
  20
 85.0000
  30
0.0
  11
 92.5000
  21
 85.0000
  31
0.0
   0
LINE
   8
LEVEL003
   6
CONTINUOUS
  62
3
  10
 57.5000
  20
 85.0000
  30
0.0
  11
 60.5000
  21
 84.4710
  31
0.0
   0
LINE
   8
LEVEL003
   6
CONTINUOUS
  62
3
  10
 57.5000
  20
 85.0000
  30
0.0
  11
 60.5000
  21
 85.5290
  31
0.0
   0
LINE
   8
LEVEL003
   6
CONTINUOUS
  62
3
  10
 92.5000
  20
 85.0000
  30
0.0
  11
 89.5000
  21
 85.5290
  31
0.0
   0
LINE
   8
LEVEL003
   6
CONTINUOUS
  62
3
  10
 92.5000
  20
 85.0000
  30
0.0
  11
 89.5000
  21
 84.4710
  31
0.0
   0
TEXT
   8
LEVEL003
  62
3
  10
 71.0000
  20
 85.8000
  30
0.0
  40
 4.00000
   1
%%c35
   7
STANDARD
  72
1
  11
 75.0000
  21
 85.8000
  31
0.0
   0
CIRCLE
   8
LEVEL001
   6
CONTINUOUS
  62
7
  10
 75.0000
  20
 40.0000
  30
0.0
  40
 28.5000
   0
CIRCLE
   8
LEVEL001
   6
CONTINUOUS
  62
7
  10
 75.0000
  20
 40.0000
  30
0.0
  40
 26.5000
   0
CIRCLE
   8
LEVEL001
   6
CONTINUOUS
  62
7
  10
 75.0000
  20
 57.5000
  30
0.0
  40
 3.37500
   0
CIRCLE
   8
LEVEL001
   6
CONTINUOUS
  62
3
  10
 75.0000
  20
 57.5000
  30
0.0
  40
 4.00000
   0
LINE
   8
LEVEL001
   6
DASHDOT
  62
1
  10
 82.0000
  20
 57.5000
  30
0.0
  11
 68.0000
  21
 57.5000
  31
0.0
   0
CIRCLE
   8
LEVEL001
   6
CONTINUOUS
  62
7
  10
 75.0000
  20
 22.5000
  30
0.0
  40
 3.37500
   0
CIRCLE
   8
LEVEL001
   6
CONTINUOUS
  62
3
  10
 75.0000
  20
 22.5000
  30
0.0
  40
 4.00000
   0
LINE
   8
LEVEL001
   6
DASHDOT
  62
1
  10
 82.0000
  20
 22.5000
  30
0.0
  11
 68.0000
  21
 22.5000
  31
0.0
   0
LINE
   8
LEVEL001
   6
DASHDOT
  62
1
  10
 75.0000
  20
 5.00000
  30
0.0
  11
 75.0000
  21
 75.0000
  31
0.0
   0
POINT
   8
LEVEL001
  62
7
  10
 102.504
  20
 40.0000
  30
0.0
   0
LINE
   8
LEVEL001
   6
CONTINUOUS
  62
3
  10
 108.887
  20
 47.5000
  30
0.0
  11
 108.887
  21
 32.5000
  31
0.0
   0
LINE
   8
LEVEL001
   6
CONTINUOUS
  62
7
  10
 112.504
  20
 47.5000
  30
0.0
  11
 112.504
  21
 32.5000
  31
0.0
   0
LINE
   8
LEVEL001
   6
CONTINUOUS
  62
7
  10
 113.987
  20
 32.5000
  30
0.0
  11
 113.987
  21
 47.5000
  31
0.0
   0
LINE
   8
LEVEL001
   6
CONTINUOUS
  62
3
  10
 108.504
  20
 47.6625
  30
0.0
  11
 102.504
  21
 47.4750
  31
0.0
   0
LINE
   8
LEVEL001
   6
CONTINUOUS
  62
3
  10
 108.499
  20
 32.3376
  30
0.0
  11
 102.504
  21
 32.5250
  31
0.0
   0
LINE
   8
LEVEL001
   6
CONTINUOUS
  62
7
  10
 108.504
  20
 48.5185
  30
0.0
  11
 102.258
  21
 48.3233
  31
0.0
   0
LINE
   8
LEVEL001
   6
CONTINUOUS
  62
7
  10
 108.504
  20
 31.4815
  30
0.0
  11
 102.258
  21
 31.6767
  31
0.0
   0
LINE
   8
LEVEL001
   6
CONTINUOUS
  62
7
  10
 75.0000
  20
 44.6188
  30
0.0
  11
 79.0000
  21
 42.3094
  31
0.0
   0
LINE
   8
LEVEL001
   6
CONTINUOUS
  62
7
  10
 79.0000
  20
 42.3094
  30
0.0
  11
 79.0000
  21
 37.6906
  31
0.0
   0
LINE
   8
LEVEL001
   6
CONTINUOUS
  62
7
  10
 79.0000
  20
 37.6906
  30
0.0
  11
 75.0000
  21
 35.3812
  31
0.0
   0
LINE
   8
LEVEL001
   6
CONTINUOUS
  62
7
  10
 75.0000
  20
 35.3812
  30
0.0
  11
 71.0000
  21
 37.6906
  31
0.0
   0
LINE
   8
LEVEL001
   6
CONTINUOUS
  62
7
  10
 71.0000
  20
 37.6906
  30
0.0
  11
 71.0000
  21
 42.3094
  31
0.0
   0
LINE
   8
LEVEL001
   6
CONTINUOUS
  62
7
  10
 71.0000
  20
 42.3094
  30
0.0
  11
 75.0000
  21
 44.6188
  31
0.0
   0
CIRCLE
   8
LEVEL001
   6
CONTINUOUS
  62
7
  10
 75.0000
  20
 40.0000
  30
0.0
  40
 8.33100
   0
CIRCLE
   8
LEVEL001
   6
CONTINUOUS
  62
3
  10
 75.0000
  20
 40.0000
  30
0.0
  40
 7.47500
   0
CIRCLE
   8
LEVEL001
   6
CONTINUOUS
  62
7
  10
 75.0000
  20
 40.0000
  30
0.0
  40
 9.33096
   0
LINE
   8
LEVEL001
   6
DASHDOT
  62
1
  10
 75.0000
  20
 99.4579
  30
0.0
  11
 75.0000
  21
 357.000
  31
0.0
   0
LINE
   8
LEVEL001
   6
CONTINUOUS
  62
7
  10
 102.250
  20
 445.000
  30
0.0
  11
 101.250
  21
 446.000
  31
0.0
   0
LINE
   8
LEVEL001
   6
CONTINUOUS
  62
7
  10
 102.250
  20
 443.000
  30
0.0
  11
 102.250
  21
 445.000
  31
0.0
   0
LINE
   8
LEVEL001
   6
CONTINUOUS
  62
7
  10
 102.750
  20
 443.000
  30
0.0
  11
 103.500
  21
 442.250
  31
0.0
   0
LINE
   8
LEVEL001
   6
CONTINUOUS
  62
7
  10
 103.500
  20
 442.250
  30
0.0
  11
 103.500
  21
 416.201
  31
0.0
   0
LINE
   8
LEVEL001
   6
CONTINUOUS
  62
3
  10
 102.750
  20
 419.000
  30
0.0
  11
 103.500
  21
 416.201
  31
0.0
   0
LINE
   8
LEVEL001
   6
CONTINUOUS
  62
7
  10
 47.7500
  20
 445.000
  30
0.0
  11
 48.7500
  21
 446.000
  31
0.0
   0
LINE
   8
LEVEL001
   6
CONTINUOUS
  62
7
  10
 47.7500
  20
 443.000
  30
0.0
  11
 47.7500
  21
 445.000
  31
0.0
   0
LINE
   8
LEVEL001
   6
CONTINUOUS
  62
7
  10
 47.2500
  20
 443.000
  30
0.0
  11
 46.5000
  21
 442.250
  31
0.0
   0
LINE
   8
LEVEL001
   6
CONTINUOUS
  62
7
  10
 46.5000
  20
 442.250
  30
0.0
  11
 46.5000
  21
 416.201
  31
0.0
   0
LINE
   8
LEVEL001
   6
CONTINUOUS
  62
3
  10
 47.2500
  20
 419.000
  30
0.0
  11
 46.5000
  21
 416.201
  31
0.0
   0
LINE
   8
LEVEL001
   6
DASHDOT
  62
1
  10
 106.500
  20
 443.000
  30
0.0
  11
 106.500
  21
 419.000
  31
0.0
   0
LINE
   8
LEVEL001
   6
DASHDOT
  62
1
  10
 102.750
  20
 443.000
  30
0.0
  11
 106.500
  21
 443.000
  31
0.0
   0
LINE
   8
LEVEL001
   6
DASHDOT
  62
1
  10
 103.500
  20
 419.000
  30
0.0
  11
 106.500
  21
 419.000
  31
0.0
   0
LINE
   8
LEVEL001
   6
DASHDOT
  62
1
  10
 43.5000
  20
 443.000
  30
0.0
  11
 43.5000
  21
 419.000
  31
0.0
   0
LINE
   8
LEVEL001
   6
DASHDOT
  62
1
  10
 47.2500
  20
 443.000
  30
0.0
  11
 43.5000
  21
 443.000
  31
0.0
   0
LINE
   8
LEVEL001
   6
DASHDOT
  62
1
  10
 46.5000
  20
 419.000
  30
0.0
  11
 43.5000
  21
 419.000
  31
0.0
   0
LINE
   8
LEVEL003
   6
CONTINUOUS
  62
3
  10
 57.5000
  20
 452.000
  30
0.0
  11
 57.5000
  21
 459.000
  31
0.0
   0
LINE
   8
LEVEL003
   6
CONTINUOUS
  62
3
  10
 92.5000
  20
 452.000
  30
0.0
  11
 92.5000
  21
 459.000
  31
0.0
   0
LINE
   8
LEVEL003
   6
CONTINUOUS
  62
3
  10
 57.5000
  20
 457.000
  30
0.0
  11
 92.5000
  21
 457.000
  31
0.0
   0
LINE
   8
LEVEL003
   6
CONTINUOUS
  62
3
  10
 57.5000
  20
 457.000
  30
0.0
  11
 60.5000
  21
 456.471
  31
0.0
   0
LINE
   8
LEVEL003
   6
CONTINUOUS
  62
3
  10
 57.5000
  20
 457.000
  30
0.0
  11
 60.5000
  21
 457.529
  31
0.0
   0
LINE
   8
LEVEL003
   6
CONTINUOUS
  62
3
  10
 92.5000
  20
 457.000
  30
0.0
  11
 89.5000
  21
 457.529
  31
0.0
   0
LINE
   8
LEVEL003
   6
CONTINUOUS
  62
3
  10
 92.5000
  20
 457.000
  30
0.0
  11
 89.5000
  21
 456.471
  31
0.0
   0
TEXT
   8
LEVEL003
  62
3
  10
 71.0000
  20
 457.800
  30
0.0
  40
 4.00000
   1
%%c35
   7
STANDARD
  72
1
  11
 75.0000
  21
 457.800
  31
0.0
   0
TEXT
   8
LEVEL003
  62
3
  10
 100.000
  20
 457.000
  30
0.0
  40
 4.00000
   1
Ｍ２７×２
   7
STANDARD
   0
LINE
   8
LEVEL003
   6
CONTINUOUS
  62
3
  10
 88.5000
  20
 437.000
  30
0.0
  11
 100.000
  21
 457.000
  31
0.0
   0
LINE
   8
LEVEL003
   6
CONTINUOUS
  62
3
  10
 100.000
  20
 457.000
  30
0.0
  11
 120.000
  21
 457.000
  31
0.0
   0
LINE
   8
LEVEL003
   6
CONTINUOUS
  62
3
  10
 88.5000
  20
 437.000
  30
0.0
  11
 90.4540
  21
 439.337
  31
0.0
   0
LINE
   8
LEVEL003
   6
CONTINUOUS
  62
3
  10
 88.5000
  20
 437.000
  30
0.0
  11
 89.5368
  21
 439.864
  31
0.0
   0
TEXT
   8
LEVEL003
  62
3
  10
 135.000
  20
 427.000
  30
0.0
  40
 4.00000
   1
Ｍ５７×１．５
   7
STANDARD
   0
LINE
   8
LEVEL003
   6
CONTINUOUS
  62
3
  10
 103.500
  20
 432.000
  30
0.0
  11
 125.000
  21
 427.000
  31
0.0
   0
LINE
   8
LEVEL003
   6
CONTINUOUS
  62
3
  10
 125.000
  20
 427.000
  30
0.0
  11
 165.000
  21
 427.000
  31
0.0
   0
LINE
   8
LEVEL003
   6
CONTINUOUS
  62
3
  10
 103.500
  20
 432.000
  30
0.0
  11
 106.302
  21
 430.805
  31
0.0
   0
LINE
   8
LEVEL003
   6
CONTINUOUS
  62
3
  10
 103.500
  20
 432.000
  30
0.0
  11
 106.542
  21
 431.836
  31
0.0
   0
LINE
   8
LEVEL001
   6
CONTINUOUS
  62
7
  10
 57.5000
  20
 451.000
  30
0.0
  11
 58.5000
  21
 452.000
  31
0.0
   0
LINE
   8
LEVEL001
   6
CONTINUOUS
  62
7
  10
 57.5000
  20
 451.000
  30
0.0
  11
 57.5000
  21
 446.000
  31
0.0
   0
LINE
   8
LEVEL001
   6
CONTINUOUS
  62
7
  10
 91.5000
  20
 452.000
  30
0.0
  11
 92.5000
  21
 451.000
  31
0.0
   0
LINE
   8
LEVEL001
   6
CONTINUOUS
  62
7
  10
 58.5000
  20
 452.000
  30
0.0
  11
 91.5000
  21
 452.000
  31
0.0
   0
LINE
   8
LEVEL001
   6
CONTINUOUS
  62
7
  10
 92.5000
  20
 451.000
  30
0.0
  11
 92.5000
  21
 446.000
  31
0.0
   0
LINE
   8
LEVEL001
   6
CONTINUOUS
  62
7
  10
 101.250
  20
 446.000
  30
0.0
  11
 94.0000
  21
 446.000
  31
0.0
   0
LINE
   8
LEVEL003
   6
CONTINUOUS
  62
3
  10
 92.5000
  20
 452.000
  30
0.0
  11
 207.000
  21
 452.000
  31
0.0
   0
LINE
   8
LEVEL003
   6
CONTINUOUS
  62
3
  10
 102.500
  20
 100.000
  30
0.0
  11
 207.000
  21
 100.000
  31
0.0
   0
LINE
   8
LEVEL003
   6
CONTINUOUS
  62
3
  10
 205.000
  20
 452.000
  30
0.0
  11
 205.000
  21
 100.000
  31
0.0
   0
LINE
   8
LEVEL003
   6
CONTINUOUS
  62
3
  10
 205.000
  20
 452.000
  30
0.0
  11
 204.471
  21
 449.000
  31
0.0
   0
LINE
   8
LEVEL003
   6
CONTINUOUS
  62
3
  10
 205.000
  20
 452.000
  30
0.0
  11
 205.529
  21
 449.000
  31
0.0
   0
LINE
   8
LEVEL003
   6
CONTINUOUS
  62
3
  10
 205.000
  20
 100.000
  30
0.0
  11
 205.529
  21
 103.000
  31
0.0
   0
LINE
   8
LEVEL003
   6
CONTINUOUS
  62
3
  10
 205.000
  20
 100.000
  30
0.0
  11
 204.471
  21
 103.000
  31
0.0
   0
TEXT
   8
LEVEL003
  62
3
  10
 204.200
  20
 273.000
  30
0.0
  40
 4.00000
   1
352
  50
 90.0000
  41
 0.500000
   7
STANDARD
  72
1
  11
 204.200
  21
 276.000
  31
0.0
   0
LINE
   8
LEVEL001
   6
DASHDOT
  62
1
  10
 75.0000
  20
 382.000
  30
0.0
  11
 75.0000
  21
 457.000
  31
0.0
   0
LINE
   8
LEVEL003
   6
CONTINUOUS
  62
3
  10
 56.0000
  20
 377.000
  30
0.0
  11
 94.0000
  21
 377.000
  31
0.0
   0
LINE
   8
LEVEL003
   6
CONTINUOUS
  62
3
  10
 56.0000
  20
 377.000
  30
0.0
  11
 59.0000
  21
 376.471
  31
0.0
   0
LINE
   8
LEVEL003
   6
CONTINUOUS
  62
3
  10
 56.0000
  20
 377.000
  30
0.0
  11
 59.0000
  21
 377.529
  31
0.0
   0
LINE
   8
LEVEL003
   6
CONTINUOUS
  62
3
  10
 94.0000
  20
 377.000
  30
0.0
  11
 91.0000
  21
 377.529
  31
0.0
   0
LINE
   8
LEVEL003
   6
CONTINUOUS
  62
3
  10
 94.0000
  20
 377.000
  30
0.0
  11
 91.0000
  21
 376.471
  31
0.0
   0
TEXT
   8
LEVEL003
  62
3
  10
 71.0000
  20
 377.800
  30
0.0
  40
 4.00000
   1
%%c38
   7
STANDARD
  72
1
  11
 75.0000
  21
 377.800
  31
0.0
   0
LINE
   8
LEVEL003
   6
CONTINUOUS
  62
3
  10
 96.5000
  20
 367.000
  30
0.0
  11
 53.5000
  21
 367.000
  31
0.0
   0
LINE
   8
LEVEL003
   6
CONTINUOUS
  62
3
  10
 96.5000
  20
 367.000
  30
0.0
  11
 93.5000
  21
 367.529
  31
0.0
   0
LINE
   8
LEVEL003
   6
CONTINUOUS
  62
3
  10
 96.5000
  20
 367.000
  30
0.0
  11
 93.5000
  21
 366.471
  31
0.0
   0
LINE
   8
LEVEL003
   6
CONTINUOUS
  62
3
  10
 53.5000
  20
 367.000
  30
0.0
  11
 56.5000
  21
 366.471
  31
0.0
   0
LINE
   8
LEVEL003
   6
CONTINUOUS
  62
3
  10
 53.5000
  20
 367.000
  30
0.0
  11
 56.5000
  21
 367.529
  31
0.0
   0
TEXT
   8
LEVEL003
  62
3
  10
 71.0000
  20
 367.800
  30
0.0
  40
 4.00000
   1
%%c43
   7
STANDARD
  72
1
  11
 75.0000
  21
 367.800
  31
0.0
   0
LINE
   8
LEVEL003
   6
CONTINUOUS
  62
3
  10
 103.500
  20
 357.000
  30
0.0
  11
 46.5000
  21
 357.000
  31
0.0
   0
LINE
   8
LEVEL003
   6
CONTINUOUS
  62
3
  10
 103.500
  20
 357.000
  30
0.0
  11
 100.500
  21
 357.529
  31
0.0
   0
LINE
   8
LEVEL003
   6
CONTINUOUS
  62
3
  10
 103.500
  20
 357.000
  30
0.0
  11
 100.500
  21
 356.471
  31
0.0
   0
LINE
   8
LEVEL003
   6
CONTINUOUS
  62
3
  10
 46.5000
  20
 357.000
  30
0.0
  11
 49.5000
  21
 356.471
  31
0.0
   0
LINE
   8
LEVEL003
   6
CONTINUOUS
  62
3
  10
 46.5000
  20
 357.000
  30
0.0
  11
 49.5000
  21
 357.529
  31
0.0
   0
TEXT
   8
LEVEL003
  62
3
  10
 71.0000
  20
 357.800
  30
0.0
  40
 4.00000
   1
%%c57
   7
STANDARD
  72
1
  11
 75.0000
  21
 357.800
  31
0.0
   0
LINE
   8
LEVEL001
   6
CONTINUOUS
  62
7
  10
 46.5000
  20
 102.000
  30
0.0
  11
 46.5000
  21
 416.201
  31
0.0
   0
LINE
   8
LEVEL001
   6
CONTINUOUS
  62
7
  10
 103.500
  20
 102.000
  30
0.0
  11
 103.500
  21
 416.201
  31
0.0
   0
LINE
   8
LEVEL001
   6
CONTINUOUS
  62
3
  10
 109.884
  20
 113.326
  30
0.0
  11
 103.500
  21
 113.525
  31
0.0
   0
LINE
   8
LEVEL001
   6
CONTINUOUS
  62
3
  10
 109.884
  20
 128.674
  30
0.0
  11
 103.500
  21
 128.475
  31
0.0
   0
LINE
   8
LEVEL001
   6
CONTINUOUS
  62
7
  10
 113.500
  20
 129.644
  30
0.0
  11
 103.500
  21
 129.331
  31
0.0
   0
LINE
   8
LEVEL001
   6
CONTINUOUS
  62
7
  10
 113.500
  20
 112.356
  30
0.0
  11
 103.500
  21
 112.669
  31
0.0
   0
LINE
   8
LEVEL001
   6
DOT
  62
3
  10
 62.7500
  20
 443.000
  30
0.0
  11
 62.5000
  21
 443.000
  31
0.0
   0
LINE
   8
LEVEL001
   6
CONTINUOUS
  62
7
  10
 93.5000
  20
 446.000
  30
0.0
  11
 48.7500
  21
 446.000
  31
0.0
   0
LINE
   8
LEVEL001
   6
DOT
  62
3
  10
 87.5000
  20
 443.000
  30
0.0
  11
 87.2500
  21
 443.000
  31
0.0
   0
LINE
   8
LEVEL001
   6
CONTINUOUS
  62
7
  10
 92.5000
  20
 451.000
  30
0.0
  11
 57.5000
  21
 451.000
  31
0.0
   0
LINE
   8
LEVEL001
   6
CONTINUOUS
  62
7
  10
 47.7500
  20
 445.000
  30
0.0
  11
 102.250
  21
 445.000
  31
0.0
   0
LINE
   8
LEVEL001
   6
CONTINUOUS
  62
7
  10
 47.2500
  20
 443.000
  30
0.0
  11
 102.750
  21
 443.000
  31
0.0
   0
LINE
   8
LEVEL001
   6
CONTINUOUS
  62
3
  10
 47.2500
  20
 443.000
  30
0.0
  11
 47.2500
  21
 419.000
  31
0.0
   0
LINE
   8
LEVEL001
   6
CONTINUOUS
  62
3
  10
 102.750
  20
 443.000
  30
0.0
  11
 102.750
  21
 419.000
  31
0.0
   0
LINE
   8
LEVEL001
   6
CONTINUOUS
  62
7
  10
 46.5000
  20
 416.201
  30
0.0
  11
 103.500
  21
 416.201
  31
0.0
   0
LINE
   8
LEVEL001
   6
CONTINUOUS
  62
3
  10
 103.500
  20
 442.250
  30
0.0
  11
 46.5000
  21
 442.250
  31
0.0
   0
LINE
   8
LEVEL001
   6
CONTINUOUS
  62
3
  10
 103.500
  20
 419.000
  30
0.0
  11
 46.5000
  21
 419.000
  31
0.0
   0
LINE
   8
LEVEL001
   6
CONTINUOUS
  62
7
  10
 103.500
  20
 102.000
  30
0.0
  11
 46.5000
  21
 102.000
  31
0.0
   0
ARC
   8
LEVEL001
   6
CONTINUOUS
  62
7
  10
 131.004
  20
 53.0000
  30
0.0
  40
 1.50000
  50
 90.0000
  51
 180.000
   0
LINE
   8
LEVEL001
   6
CONTINUOUS
  62
7
  10
 131.004
  20
 54.5000
  30
0.0
  11
 136.004
  21
 54.5000
  31
0.0
   0
ARC
   8
LEVEL001
   6
CONTINUOUS
  62
7
  10
 131.004
  20
 27.0000
  30
0.0
  40
 1.50000
  50
 180.000
  51
 270.000
   0
LINE
   8
LEVEL001
   6
CONTINUOUS
  62
7
  10
 129.504
  20
 27.0000
  30
0.0
  11
 129.504
  21
 53.0000
  31
0.0
   0
LINE
   8
LEVEL001
   6
CONTINUOUS
  62
7
  10
 131.004
  20
 25.5000
  30
0.0
  11
 136.004
  21
 25.5000
  31
0.0
   0
ARC
   8
LEVEL001
   6
CONTINUOUS
  62
7
  10
 152.004
  20
 53.0000
  30
0.0
  40
 1.50000
  50
0.0
  51
 90.0000
   0
LINE
   8
LEVEL001
   6
CONTINUOUS
  62
7
  10
 147.004
  20
 54.5000
  30
0.0
  11
 152.004
  21
 54.5000
  31
0.0
   0
ARC
   8
LEVEL001
   6
CONTINUOUS
  62
7
  10
 152.004
  20
 27.0000
  30
0.0
  40
 1.50000
  50
 270.000
  51
 0.287692E-10
   0
LINE
   8
LEVEL001
   6
CONTINUOUS
  62
7
  10
 147.004
  20
 25.5000
  30
0.0
  11
 152.004
  21
 25.5000
  31
0.0
   0
LINE
   8
LEVEL001
   6
CONTINUOUS
  62
7
  10
 153.504
  20
 53.0000
  30
0.0
  11
 153.504
  21
 27.0000
  31
0.0
   0
ARC
   8
LEVEL001
   6
DASHDOT
  62
1
  10
 162.504
  20
 53.0000
  30
0.0
  40
 1.00000
  50
0.0
  51
 90.0000
   0
LINE
   8
LEVEL001
   6
DASHDOT
  62
1
  10
 154.504
  20
 54.0000
  30
0.0
  11
 162.504
  21
 54.0000
  31
0.0
   0
ARC
   8
LEVEL001
   6
DASHDOT
  62
1
  10
 162.504
  20
 27.0000
  30
0.0
  40
 1.00000
  50
 270.000
  51
 0.116027E-9
   0
LINE
   8
LEVEL001
   6
DASHDOT
  62
1
  10
 154.504
  20
 26.0000
  30
0.0
  11
 162.504
  21
 26.0000
  31
0.0
   0
LINE
   8
LEVEL001
   6
DASHDOT
  62
1
  10
 163.504
  20
 53.0000
  30
0.0
  11
 163.504
  21
 27.0000
  31
0.0
   0
ARC
   8
LEVEL001
   6
DASHDOT
  62
1
  10
 154.504
  20
 27.0000
  30
0.0
  40
 1.00000
  50
 180.000
  51
 270.000
   0
ARC
   8
LEVEL001
   6
DASHDOT
  62
1
  10
 154.504
  20
 53.0000
  30
0.0
  40
 1.00000
  50
 90.0000
  51
 180.000
   0
LINE
   8
LEVEL001
   6
CONTINUOUS
  62
3
  10
 136.004
  20
 27.0000
  30
0.0
  11
 147.004
  21
 27.0000
  31
0.0
   0
LINE
   8
LEVEL001
   6
CONTINUOUS
  62
3
  10
 136.004
  20
 29.0000
  30
0.0
  11
 147.004
  21
 29.0000
  31
0.0
   0
LINE
   8
LEVEL001
   6
CONTINUOUS
  62
3
  10
 136.004
  20
 31.0000
  30
0.0
  11
 147.004
  21
 31.0000
  31
0.0
   0
LINE
   8
LEVEL001
   6
CONTINUOUS
  62
3
  10
 136.004
  20
 33.0000
  30
0.0
  11
 147.004
  21
 33.0000
  31
0.0
   0
LINE
   8
LEVEL001
   6
CONTINUOUS
  62
3
  10
 136.004
  20
 35.0000
  30
0.0
  11
 147.004
  21
 35.0000
  31
0.0
   0
LINE
   8
LEVEL001
   6
CONTINUOUS
  62
3
  10
 136.004
  20
 37.0000
  30
0.0
  11
 147.004
  21
 37.0000
  31
0.0
   0
LINE
   8
LEVEL001
   6
CONTINUOUS
  62
3
  10
 136.004
  20
 39.0000
  30
0.0
  11
 147.004
  21
 39.0000
  31
0.0
   0
LINE
   8
LEVEL001
   6
CONTINUOUS
  62
3
  10
 136.004
  20
 41.0000
  30
0.0
  11
 147.004
  21
 41.0000
  31
0.0
   0
LINE
   8
LEVEL001
   6
CONTINUOUS
  62
3
  10
 136.004
  20
 43.0000
  30
0.0
  11
 147.004
  21
 43.0000
  31
0.0
   0
LINE
   8
LEVEL001
   6
CONTINUOUS
  62
3
  10
 136.004
  20
 45.0000
  30
0.0
  11
 147.004
  21
 45.0000
  31
0.0
   0
LINE
   8
LEVEL001
   6
CONTINUOUS
  62
3
  10
 136.004
  20
 47.0000
  30
0.0
  11
 147.004
  21
 47.0000
  31
0.0
   0
LINE
   8
LEVEL001
   6
CONTINUOUS
  62
3
  10
 136.004
  20
 49.0000
  30
0.0
  11
 147.004
  21
 49.0000
  31
0.0
   0
LINE
   8
LEVEL001
   6
CONTINUOUS
  62
3
  10
 136.004
  20
 51.0000
  30
0.0
  11
 147.004
  21
 51.0000
  31
0.0
   0
LINE
   8
LEVEL001
   6
CONTINUOUS
  62
3
  10
 136.004
  20
 53.0000
  30
0.0
  11
 147.004
  21
 53.0000
  31
0.0
   0
LINE
   8
LEVEL001
   6
DASHDOT
  62
1
  10
 163.504
  20
 42.0000
  30
0.0
  11
 169.504
  21
 42.0000
  31
0.0
   0
LINE
   8
LEVEL001
   6
DASHDOT
  62
1
  10
 169.504
  20
 42.0000
  30
0.0
  11
 169.504
  21
 38.0000
  31
0.0
   0
LINE
   8
LEVEL001
   6
DASHDOT
  62
1
  10
 169.504
  20
 38.0000
  30
0.0
  11
 163.504
  21
 38.0000
  31
0.0
   0
LINE
   8
LEVEL001
   6
CONTINUOUS
  62
7
  10
 108.504
  20
 48.5185
  30
0.0
  11
 108.504
  21
 47.5000
  31
0.0
   0
LINE
   8
LEVEL001
   6
CONTINUOUS
  62
7
  10
 108.504
  20
 47.5000
  30
0.0
  11
 122.504
  21
 47.5000
  31
0.0
   0
LINE
   8
LEVEL001
   6
CONTINUOUS
  62
7
  10
 122.504
  20
 47.5000
  30
0.0
  11
 122.504
  21
 49.5000
  31
0.0
   0
LINE
   8
LEVEL001
   6
CONTINUOUS
  62
7
  10
 122.504
  20
 49.5000
  30
0.0
  11
 129.504
  21
 49.5000
  31
0.0
   0
LINE
   8
LEVEL001
   6
CONTINUOUS
  62
7
  10
 108.504
  20
 31.4815
  30
0.0
  11
 108.504
  21
 32.5000
  31
0.0
   0
LINE
   8
LEVEL001
   6
CONTINUOUS
  62
7
  10
 108.504
  20
 32.5000
  30
0.0
  11
 122.504
  21
 32.5000
  31
0.0
   0
LINE
   8
LEVEL001
   6
CONTINUOUS
  62
7
  10
 122.504
  20
 32.5000
  30
0.0
  11
 122.504
  21
 30.5000
  31
0.0
   0
LINE
   8
LEVEL001
   6
CONTINUOUS
  62
7
  10
 122.504
  20
 30.5000
  30
0.0
  11
 129.504
  21
 30.5000
  31
0.0
   0
LINE
   8
LEVEL001
   6
CONTINUOUS
  62
7
  10
 136.004
  20
 25.0000
  30
0.0
  11
 136.004
  21
 55.0000
  31
0.0
   0
LINE
   8
LEVEL001
   6
CONTINUOUS
  62
7
  10
 136.004
  20
 55.0000
  30
0.0
  11
 147.004
  21
 55.0000
  31
0.0
   0
LINE
   8
LEVEL001
   6
CONTINUOUS
  62
7
  10
 147.004
  20
 55.0000
  30
0.0
  11
 147.004
  21
 25.0000
  31
0.0
   0
LINE
   8
LEVEL001
   6
CONTINUOUS
  62
7
  10
 147.004
  20
 25.0000
  30
0.0
  11
 136.004
  21
 25.0000
  31
0.0
   0
LINE
   8
LEVEL001
   6
DASHDOT
  62
1
  10
 172.504
  20
 40.0000
  30
0.0
  11
 40.0000
  21
 40.0000
  31
0.0
   0
LINE
   8
LEVEL004
   6
DASHDOT
  62
1
  10
 57.5000
  20
 97.0000
  30
0.0
  11
 57.5000
  21
 112.000
  31
0.0
   0
LINE
   8
LEVEL004
   6
DOT
  62
3
  10
 54.1250
  20
 112.000
  30
0.0
  11
 54.1250
  21
 100.625
  31
0.0
   0
LINE
   8
LEVEL004
   6
DOT
  62
3
  10
 54.1250
  20
 100.625
  30
0.0
  11
 53.5000
  21
 100.000
  31
0.0
   0
LINE
   8
LEVEL004
   6
DOT
  62
3
  10
 53.5000
  20
 112.000
  30
0.0
  11
 53.5000
  21
 100.000
  31
0.0
   0
LINE
   8
LEVEL004
   6
DOT
  62
3
  10
 61.5000
  20
 100.000
  30
0.0
  11
 60.8750
  21
 100.625
  31
0.0
   0
LINE
   8
LEVEL004
   6
DOT
  62
3
  10
 60.8750
  20
 100.625
  30
0.0
  11
 60.8750
  21
 112.000
  31
0.0
   0
LINE
   8
LEVEL004
   6
DOT
  62
3
  10
 61.5000
  20
 100.000
  30
0.0
  11
 61.5000
  21
 112.000
  31
0.0
   0
LINE
   8
LEVEL004
   6
DOT
  62
3
  10
 60.8750
  20
 100.625
  30
0.0
  11
 54.1250
  21
 100.625
  31
0.0
   0
LINE
   8
LEVEL004
   6
DASHDOT
  62
1
  10
 92.5000
  20
 97.0000
  30
0.0
  11
 92.5000
  21
 112.000
  31
0.0
   0
LINE
   8
LEVEL004
   6
DOT
  62
3
  10
 96.5000
  20
 414.000
  30
0.0
  11
 96.5000
  21
 136.800
  31
0.0
   0
LINE
   8
LEVEL004
   6
DOT
  62
3
  10
 94.0000
  20
 171.000
  30
0.0
  11
 94.0000
  21
 444.000
  31
0.0
   0
LINE
   8
LEVEL004
   6
DOT
  62
3
  10
 53.5000
  20
 414.000
  30
0.0
  11
 53.5000
  21
 136.800
  31
0.0
   0
LINE
   8
LEVEL004
   6
DOT
  62
3
  10
 56.0000
  20
 171.000
  30
0.0
  11
 56.0000
  21
 444.000
  31
0.0
   0
ARC
   8
LEVEL004
   6
DOT
  62
3
  10
 69.0000
  20
 452.000
  30
0.0
  40
 1.00000
  50
 180.000
  51
0.0
   0
ARC
   8
LEVEL004
   6
DOT
  62
3
  10
 63.0000
  20
 452.000
  30
0.0
  40
 1.00000
  50
 180.000
  51
0.0
   0
ARC
   8
LEVEL004
   6
DOT
  62
3
  10
 81.0000
  20
 452.000
  30
0.0
  40
 1.00000
  50
 180.000
  51
0.0
   0
ARC
   8
LEVEL004
   6
DOT
  62
3
  10
 87.0000
  20
 452.000
  30
0.0
  40
 1.00000
  50
 180.000
  51
0.0
   0
LINE
   8
LEVEL004
   6
DOT
  62
3
  10
 88.5000
  20
 445.500
  30
0.0
  11
 89.0000
  21
 446.000
  31
0.0
   0
ARC
   8
LEVEL004
   6
DOT
  62
3
  10
 88.7500
  20
 444.500
  30
0.0
  40
 1.50000
  50
 90.0000
  51
 180.000
   0
LINE
   8
LEVEL004
   6
DOT
  62
3
  10
 87.2500
  20
 444.000
  30
0.0
  11
 88.5000
  21
 444.000
  31
0.0
   0
LINE
   8
LEVEL004
   6
DOT
  62
3
  10
 88.5000
  20
 444.000
  30
0.0
  11
 88.5000
  21
 426.000
  31
0.0
   0
LINE
   8
LEVEL004
   6
DOT
  62
3
  10
 88.5000
  20
 444.000
  30
0.0
  11
 88.5000
  21
 445.500
  31
0.0
   0
LINE
   8
LEVEL004
   6
DOT
  62
3
  10
 87.2500
  20
 444.500
  30
0.0
  11
 87.2500
  21
 432.000
  31
0.0
   0
LINE
   8
LEVEL004
   6
DOT
  62
3
  10
 88.5000
  20
 444.000
  30
0.0
  11
 87.5000
  21
 443.000
  31
0.0
   0
LINE
   8
LEVEL004
   6
DOT
  62
3
  10
 87.5000
  20
 443.000
  30
0.0
  11
 87.5000
  21
 427.000
  31
0.0
   0
LINE
   8
LEVEL004
   6
DOT
  62
3
  10
 86.2500
  20
 431.000
  30
0.0
  11
 87.2500
  21
 432.000
  31
0.0
   0
LINE
   8
LEVEL004
   6
DOT
  62
3
  10
 87.5000
  20
 432.000
  30
0.0
  11
 87.2500
  21
 432.000
  31
0.0
   0
ARC
   8
LEVEL004
   6
DOT
  62
3
  10
 87.5000
  20
 425.000
  30
0.0
  40
 1.00000
  50
 270.000
  51
0.0
   0
LINE
   8
LEVEL004
   6
DOT
  62
3
  10
 88.5000
  20
 426.000
  30
0.0
  11
 88.5000
  21
 425.000
  31
0.0
   0
ARC
   8
LEVEL004
   6
DOT
  62
3
  10
 87.5000
  20
 426.000
  30
0.0
  40
 1.00000
  50
0.0
  51
 90.0000
   0
LINE
   8
LEVEL004
   6
DOT
  62
3
  10
 63.7500
  20
 431.000
  30
0.0
  11
 86.2500
  21
 431.000
  31
0.0
   0
LINE
   8
LEVEL004
   6
DOT
  62
3
  10
 62.5000
  20
 427.000
  30
0.0
  11
 87.5000
  21
 427.000
  31
0.0
   0
LINE
   8
LEVEL004
   6
DOT
  62
3
  10
 62.5000
  20
 424.000
  30
0.0
  11
 87.5000
  21
 424.000
  31
0.0
   0
LINE
   8
LEVEL004
   6
DOT
  62
3
  10
 61.0000
  20
 446.000
  30
0.0
  11
 61.5000
  21
 445.500
  31
0.0
   0
LINE
   8
LEVEL004
   6
DOT
  62
3
  10
 61.5000
  20
 444.000
  30
0.0
  11
 61.5000
  21
 445.500
  31
0.0
   0
ARC
   8
LEVEL004
   6
DOT
  62
3
  10
 61.2500
  20
 444.500
  30
0.0
  40
 1.50000
  50
0.0
  51
 90.0000
   0
LINE
   8
LEVEL004
   6
DOT
  62
3
  10
 61.5000
  20
 444.000
  30
0.0
  11
 62.7500
  21
 444.000
  31
0.0
   0
LINE
   8
LEVEL004
   6
DOT
  62
3
  10
 61.5000
  20
 444.000
  30
0.0
  11
 61.5000
  21
 426.000
  31
0.0
   0
LINE
   8
LEVEL004
   6
DOT
  62
3
  10
 62.7500
  20
 444.500
  30
0.0
  11
 62.7500
  21
 437.964
  31
0.0
   0
LINE
   8
LEVEL004
   6
DOT
  62
3
  10
 61.5000
  20
 444.000
  30
0.0
  11
 62.5000
  21
 443.000
  31
0.0
   0
LINE
   8
LEVEL004
   6
DOT
  62
3
  10
 62.5000
  20
 443.000
  30
0.0
  11
 62.5000
  21
 427.000
  31
0.0
   0
LINE
   8
LEVEL004
   6
DASHDOT
  62
1
  10
 59.7500
  20
 437.000
  30
0.0
  11
 78.9047
  21
 437.000
  31
0.0
   0
ARC
   8
LEVEL004
   6
DOT
  62
3
  10
 62.5000
  20
 425.000
  30
0.0
  40
 1.00000
  50
 180.000
  51
 270.000
   0
ARC
   8
LEVEL004
   6
DOT
  62
3
  10
 62.5000
  20
 426.000
  30
0.0
  40
 1.00000
  50
 90.0000
  51
 180.000
   0
LINE
   8
LEVEL004
   6
DOT
  62
3
  10
 61.5000
  20
 426.000
  30
0.0
  11
 61.5000
  21
 425.000
  31
0.0
   0
LINE
   8
LEVEL004
   6
DOT
  62
3
  10
 62.7500
  20
 432.000
  30
0.0
  11
 62.5000
  21
 432.000
  31
0.0
   0
LINE
   8
LEVEL004
   6
DOT
  62
3
  10
 62.7500
  20
 432.000
  30
0.0
  11
 63.7500
  21
 431.000
  31
0.0
   0
LINE
   8
LEVEL004
   6
DOT
  62
3
  10
 62.7500
  20
 436.036
  30
0.0
  11
 62.7500
  21
 432.000
  31
0.0
   0
LINE
   8
LEVEL004
   6
DOT
  62
3
  10
 62.7500
  20
 435.000
  30
0.0
  11
 74.7500
  21
 435.000
  31
0.0
   0
LINE
   8
LEVEL004
   6
DOT
  62
3
  10
 74.7500
  20
 435.000
  30
0.0
  11
 75.9047
  21
 437.000
  31
0.0
   0
LINE
   8
LEVEL004
   6
DOT
  62
3
  10
 75.9047
  20
 437.000
  30
0.0
  11
 74.7500
  21
 439.000
  31
0.0
   0
LINE
   8
LEVEL004
   6
DOT
  62
3
  10
 74.7500
  20
 439.000
  30
0.0
  11
 62.7500
  21
 439.000
  31
0.0
   0
CIRCLE
   8
LEVEL004
   6
DOT
  62
3
  10
 64.4844
  20
 437.000
  30
0.0
  40
 1.98438
   0
LINE
   8
LEVEL004
   6
DASHDOT
  62
1
  10
 75.0387
  20
 435.500
  30
0.0
  11
 74.6180
  21
 438.500
  31
0.0
   0
LINE
   8
LEVEL004
   6
DASHDOT
  62
1
  10
 74.6180
  20
 438.500
  30
0.0
  11
 74.1973
  21
 435.500
  31
0.0
   0
LINE
   8
LEVEL004
   6
DASHDOT
  62
1
  10
 74.1973
  20
 435.500
  30
0.0
  11
 73.7766
  21
 438.500
  31
0.0
   0
LINE
   8
LEVEL004
   6
DASHDOT
  62
1
  10
 73.7766
  20
 438.500
  30
0.0
  11
 73.3559
  21
 435.500
  31
0.0
   0
LINE
   8
LEVEL004
   6
DASHDOT
  62
1
  10
 73.3559
  20
 435.500
  30
0.0
  11
 72.9352
  21
 438.500
  31
0.0
   0
LINE
   8
LEVEL004
   6
DASHDOT
  62
1
  10
 72.9352
  20
 438.500
  30
0.0
  11
 72.5145
  21
 435.500
  31
0.0
   0
LINE
   8
LEVEL004
   6
DASHDOT
  62
1
  10
 72.5145
  20
 435.500
  30
0.0
  11
 72.0938
  21
 438.500
  31
0.0
   0
LINE
   8
LEVEL004
   6
DASHDOT
  62
1
  10
 72.0938
  20
 438.500
  30
0.0
  11
 71.6732
  21
 435.500
  31
0.0
   0
LINE
   8
LEVEL004
   6
DASHDOT
  62
1
  10
 71.6732
  20
 435.500
  30
0.0
  11
 71.2525
  21
 438.500
  31
0.0
   0
LINE
   8
LEVEL004
   6
DASHDOT
  62
1
  10
 71.2525
  20
 438.500
  30
0.0
  11
 70.8318
  21
 435.500
  31
0.0
   0
LINE
   8
LEVEL004
   6
DASHDOT
  62
1
  10
 70.8318
  20
 435.500
  30
0.0
  11
 70.4111
  21
 438.500
  31
0.0
   0
LINE
   8
LEVEL004
   6
DASHDOT
  62
1
  10
 70.4111
  20
 438.500
  30
0.0
  11
 69.9904
  21
 435.500
  31
0.0
   0
LINE
   8
LEVEL004
   6
DASHDOT
  62
1
  10
 69.9904
  20
 435.500
  30
0.0
  11
 69.5697
  21
 438.500
  31
0.0
   0
LINE
   8
LEVEL004
   6
DASHDOT
  62
1
  10
 69.5697
  20
 438.500
  30
0.0
  11
 69.1490
  21
 435.500
  31
0.0
   0
LINE
   8
LEVEL004
   6
DASHDOT
  62
1
  10
 69.1490
  20
 435.500
  30
0.0
  11
 68.7283
  21
 438.500
  31
0.0
   0
LINE
   8
LEVEL004
   6
DASHDOT
  62
1
  10
 68.7283
  20
 438.500
  30
0.0
  11
 68.3076
  21
 435.500
  31
0.0
   0
LINE
   8
LEVEL004
   6
DASHDOT
  62
1
  10
 68.3076
  20
 435.500
  30
0.0
  11
 67.8870
  21
 438.500
  31
0.0
   0
LINE
   8
LEVEL004
   6
DASHDOT
  62
1
  10
 67.8870
  20
 438.500
  30
0.0
  11
 67.4662
  21
 435.500
  31
0.0
   0
LINE
   8
LEVEL004
   6
DASHDOT
  62
1
  10
 67.4662
  20
 435.500
  30
0.0
  11
 67.0456
  21
 438.500
  31
0.0
   0
LINE
   8
LEVEL004
   6
DASHDOT
  62
1
  10
 67.0456
  20
 438.500
  30
0.0
  11
 66.6249
  21
 435.500
  31
0.0
   0
LINE
   8
LEVEL004
   6
DASHDOT
  62
1
  10
 66.6249
  20
 435.500
  30
0.0
  11
 66.2042
  21
 438.500
  31
0.0
   0
LINE
   8
LEVEL004
   6
DOT
  62
3
  10
 74.7500
  20
 439.000
  30
0.0
  11
 74.7500
  21
 435.000
  31
0.0
   0
TEXT
   8
LEVEL003
  62
7
  10
 201.691
  20
 10.2200
  30
0.0
  40
 10.0000
   1
ＯＳＡＫＡ ＪＡＣＫ
   7
STANDARD
   0
CIRCLE
   8
LEVEL003
   6
CONTINUOUS
  62
7
  10
 189.718
  20
 17.2707
  30
0.0
  40
 3.00000
   0
LINE
   8
LEVEL003
   6
CONTINUOUS
  62
7
  10
 195.606
  20
 20.2707
  30
0.0
  11
 191.797
  21
 13.6707
  31
0.0
   0
LINE
   8
LEVEL003
   6
CONTINUOUS
  62
7
  10
 191.797
  20
 13.6707
  30
0.0
  11
 184.176
  21
 13.6707
  31
0.0
   0
LINE
   8
LEVEL003
   6
CONTINUOUS
  62
7
  10
 183.309
  20
 12.1707
  30
0.0
  11
 196.930
  21
 12.1707
  31
0.0
   0
LINE
   8
LEVEL003
   6
CONTINUOUS
  62
7
  10
 196.930
  20
 12.1707
  30
0.0
  11
 201.606
  21
 20.2707
  31
0.0
   0
LINE
   8
LEVEL003
   6
CONTINUOUS
  62
7
  10
 184.176
  20
 13.6707
  30
0.0
  11
 183.309
  21
 12.1707
  31
0.0
   0
LINE
   8
LEVEL003
   6
CONTINUOUS
  62
7
  10
 201.606
  20
 20.2707
  30
0.0
  11
 195.606
  21
 20.2707
  31
0.0
   0
TEXT
   8
LEVEL003
  62
7
  10
 204.602
  20
 27.1134
  30
0.0
  40
 6.00000
   1
Model : Ｅ１０Ｓ２５
   7
STANDARD
   0
LINE
   8
LEVEL003
   6
CONTINUOUS
  62
3
  10
 57.5000
  20
 100.000
  30
0.0
  11
 45.0000
  21
 85.0000
  31
0.0
   0
LINE
   8
LEVEL003
   6
CONTINUOUS
  62
3
  10
 57.5000
  20
 100.000
  30
0.0
  11
 55.1731
  21
 98.0340
  31
0.0
   0
LINE
   8
LEVEL003
   6
CONTINUOUS
  62
3
  10
 57.5000
  20
 100.000
  30
0.0
  11
 55.9858
  21
 97.3567
  31
0.0
   0
LINE
   8
LEVEL003
   6
CONTINUOUS
  62
3
  10
 92.5000
  20
 452.000
  30
0.0
  11
 132.000
  21
 452.000
  31
0.0
   0
LINE
   8
LEVEL003
   6
CONTINUOUS
  62
3
  10
 102.250
  20
 446.000
  30
0.0
  11
 132.000
  21
 446.000
  31
0.0
   0
LINE
   8
LEVEL003
   6
CONTINUOUS
  62
3
  10
 130.000
  20
 452.000
  30
0.0
  11
 130.000
  21
 446.000
  31
0.0
   0
LINE
   8
LEVEL003
   6
CONTINUOUS
  62
3
  10
 130.000
  20
 452.000
  30
0.0
  11
 130.529
  21
 455.000
  31
0.0
   0
LINE
   8
LEVEL003
   6
CONTINUOUS
  62
3
  10
 130.000
  20
 452.000
  30
0.0
  11
 129.471
  21
 455.000
  31
0.0
   0
LINE
   8
LEVEL003
   6
CONTINUOUS
  62
3
  10
 130.000
  20
 446.000
  30
0.0
  11
 129.471
  21
 443.000
  31
0.0
   0
LINE
   8
LEVEL003
   6
CONTINUOUS
  62
3
  10
 130.000
  20
 446.000
  30
0.0
  11
 130.529
  21
 443.000
  31
0.0
   0
LINE
   8
LEVEL003
   6
CONTINUOUS
  62
3
  10
 130.000
  20
 452.000
  30
0.0
  11
 130.000
  21
 455.750
  31
0.0
   0
LINE
   8
LEVEL003
   6
CONTINUOUS
  62
3
  10
 130.000
  20
 446.000
  30
0.0
  11
 130.000
  21
 442.250
  31
0.0
   0
TEXT
   8
LEVEL003
  62
3
  10
 129.200
  20
 447.000
  30
0.0
  40
 4.00000
   1
6
  50
 90.0000
   7
STANDARD
  72
1
  11
 129.200
  21
 449.000
  31
0.0
   0
LINE
   8
LEVEL003
   6
CONTINUOUS
  62
3
  10
 102.250
  20
 446.000
  30
0.0
  11
 132.000
  21
 446.000
  31
0.0
   0
LINE
   8
LEVEL003
   6
CONTINUOUS
  62
3
  10
 107.500
  20
 419.000
  30
0.0
  11
 132.000
  21
 419.000
  31
0.0
   0
LINE
   8
LEVEL003
   6
CONTINUOUS
  62
3
  10
 130.000
  20
 446.000
  30
0.0
  11
 130.000
  21
 419.000
  31
0.0
   0
LINE
   8
LEVEL003
   6
CONTINUOUS
  62
3
  10
 130.000
  20
 446.000
  30
0.0
  11
 129.471
  21
 443.000
  31
0.0
   0
LINE
   8
LEVEL003
   6
CONTINUOUS
  62
3
  10
 130.000
  20
 446.000
  30
0.0
  11
 130.529
  21
 443.000
  31
0.0
   0
LINE
   8
LEVEL003
   6
CONTINUOUS
  62
3
  10
 130.000
  20
 419.000
  30
0.0
  11
 130.529
  21
 422.000
  31
0.0
   0
LINE
   8
LEVEL003
   6
CONTINUOUS
  62
3
  10
 130.000
  20
 419.000
  30
0.0
  11
 129.471
  21
 422.000
  31
0.0
   0
TEXT
   8
LEVEL003
  62
3
  10
 129.200
  20
 428.500
  30
0.0
  40
 4.00000
   1
27
  50
 90.0000
   7
STANDARD
  72
1
  11
 129.200
  21
 432.500
  31
0.0
   0
LINE
   8
LEVEL003
   6
CONTINUOUS
  62
3
  10
 102.250
  20
 446.000
  30
0.0
  11
 122.000
  21
 446.000
  31
0.0
   0
LINE
   8
LEVEL003
   6
CONTINUOUS
  62
3
  10
 107.500
  20
 443.000
  30
0.0
  11
 122.000
  21
 443.000
  31
0.0
   0
LINE
   8
LEVEL003
   6
CONTINUOUS
  62
3
  10
 120.000
  20
 446.000
  30
0.0
  11
 120.000
  21
 443.000
  31
0.0
   0
LINE
   8
LEVEL003
   6
CONTINUOUS
  62
3
  10
 120.000
  20
 443.000
  30
0.0
  11
 120.000
  21
 437.000
  31
0.0
   0
LINE
   8
LEVEL003
   6
CONTINUOUS
  62
3
  10
 120.000
  20
 446.000
  30
0.0
  11
 120.529
  21
 449.000
  31
0.0
   0
LINE
   8
LEVEL003
   6
CONTINUOUS
  62
3
  10
 120.000
  20
 446.000
  30
0.0
  11
 119.471
  21
 449.000
  31
0.0
   0
LINE
   8
LEVEL003
   6
CONTINUOUS
  62
3
  10
 120.000
  20
 443.000
  30
0.0
  11
 119.471
  21
 440.000
  31
0.0
   0
LINE
   8
LEVEL003
   6
CONTINUOUS
  62
3
  10
 120.000
  20
 443.000
  30
0.0
  11
 120.529
  21
 440.000
  31
0.0
   0
LINE
   8
LEVEL003
   6
CONTINUOUS
  62
3
  10
 120.000
  20
 446.000
  30
0.0
  11
 120.000
  21
 449.750
  31
0.0
   0
LINE
   8
LEVEL003
   6
CONTINUOUS
  62
3
  10
 120.000
  20
 443.000
  30
0.0
  11
 120.000
  21
 437.000
  31
0.0
   0
TEXT
   8
LEVEL003
  62
3
  10
 119.200
  20
 437.000
  30
0.0
  40
 4.00000
   1
3
  50
 90.0000
   7
STANDARD
  72
1
  11
 119.200
  21
 439.000
  31
0.0
   0
LINE
   8
LEVEL003
   6
CONTINUOUS
  62
3
  10
 82.2792
  20
 424.000
  30
0.0
  11
 82.2792
  21
 424.000
  31
0.0
   0
LINE
   8
LEVEL003
   6
CONTINUOUS
  62
3
  10
 87.7500
  20
 446.000
  30
0.0
  11
 80.2792
  21
 446.000
  31
0.0
   0
LINE
   8
LEVEL003
   6
CONTINUOUS
  62
3
  10
 82.2792
  20
 424.000
  30
0.0
  11
 82.2792
  21
 446.000
  31
0.0
   0
LINE
   8
LEVEL003
   6
CONTINUOUS
  62
3
  10
 82.2792
  20
 424.000
  30
0.0
  11
 82.8082
  21
 427.000
  31
0.0
   0
LINE
   8
LEVEL003
   6
CONTINUOUS
  62
3
  10
 82.2792
  20
 424.000
  30
0.0
  11
 81.7503
  21
 427.000
  31
0.0
   0
LINE
   8
LEVEL003
   6
CONTINUOUS
  62
3
  10
 82.2792
  20
 446.000
  30
0.0
  11
 81.7503
  21
 443.000
  31
0.0
   0
LINE
   8
LEVEL003
   6
CONTINUOUS
  62
3
  10
 82.2792
  20
 446.000
  30
0.0
  11
 82.8082
  21
 443.000
  31
0.0
   0
TEXT
   8
LEVEL003
  62
3
  10
 81.4792
  20
 431.000
  30
0.0
  40
 4.00000
   1
22
  50
 90.0000
   7
STANDARD
  72
1
  11
 81.4792
  21
 435.000
  31
0.0
   0
LINE
   8
LEVEL003
   6
CONTINUOUS
  62
3
  10
 115.000
  20
 85.0000
  30
0.0
  11
 142.282
  21
 85.0000
  31
0.0
   0
TEXT
   8
LEVEL003
  62
3
  10
 6.62500
  20
 85.0000
  30
0.0
  40
 4.00000
   1
２－Ｍ８×１２Ｌ
   7
STANDARD
   0
LINE
   8
LEVEL003
   6
CONTINUOUS
  62
3
  10
 45.0000
  20
 85.0000
  30
0.0
  11
 6.93137
  21
 85.0000
  31
0.0
   0
ENDSEC
   0
EOF
