   0
SECTION
   2
HEADER
   9
$LIMMIN
  10
0.0
  20
0.0
   9
$LIMMAX
  10
 420.000
  20
 330.000
   9
$EXTMIN
  10
0.0
  20
0.0
   9
$EXTMAX
  10
 420.000
  20
 330.000
   9
$LTSCALE
  40
 8.40000
   0
ENDSEC
   0
SECTION
   2
TABLES
  0
TABLE
  2
LTYPE
 70
    25
  0
LTYPE
  2
CONTINUOUS
 70
    64
  3
Solid line
 72
    65
 73
     0
 40
0.0
  0
LTYPE
  2
BORDER
 70
    64
  3
__ __ . __ __ . __ __ . __ __ . __ __ . __ __ .
 72
    65
 73
     6
 40
1.75
 49
0.5
 49
-0.25
 49
0.5
 49
-0.25
 49
0.0
 49
-0.25
  0
LTYPE
  2
BORDER2
 70
    64
  3
__.__.__.__.__.__.__.__.__.__.__.__.__.__.__.__
 72
    65
 73
     6
 40
0.875
 49
0.25
 49
-0.125
 49
0.25
 49
-0.125
 49
0.0
 49
-0.125
  0
LTYPE
  2
BORDERX2
 70
    64
  3
____  ____  .  ____  ____  .  ____  ____  .  __
 72
    65
 73
     6
 40
3.5
 49
1.0
 49
-0.5
 49
1.0
 49
-0.5
 49
0.0
 49
-0.5
  0
LTYPE
  2
CENTER
 70
    64
  3
____ _ ____ _ ____ _ ____ _ ____ _ ____ _ ____ 
 72
    65
 73
     4
 40
2.0
 49
1.25
 49
-0.25
 49
0.25
 49
-0.25
  0
LTYPE
  2
CENTER2
 70
    64
  3
___ _ ___ _ ___ _ ___ _ ___ _ ___ _ ___ _ ___ _
 72
    65
 73
     4
 40
1.125
 49
0.75
 49
-0.125
 49
0.125
 49
-0.125
  0
LTYPE
  2
CENTERX2
 70
    64
  3
________  __  ________  __  ________  __  _____
 72
    65
 73
     4
 40
4.0
 49
2.5
 49
-0.5
 49
0.5
 49
-0.5
  0
LTYPE
  2
DASHDOT
 70
    64
  3
__ . __ . __ . __ . __ . __ . __ . __ . __ . __
 72
    65
 73
     4
 40
1.0
 49
0.5
 49
-0.25
 49
0.0
 49
-0.25
  0
LTYPE
  2
DASHDOT2
 70
    64
  3
_._._._._._._._._._._._._._._._._._._._._._._._
 72
    65
 73
     4
 40
0.5
 49
0.25
 49
-0.125
 49
0.0
 49
-0.125
  0
LTYPE
  2
DASHDOTX2
 70
    64
  3
____  .  ____  .  ____  .  ____  .  ____  .  __
 72
    65
 73
     4
 40
2.0
 49
1.0
 49
-0.5
 49
0.0
 49
-0.5
  0
LTYPE
  2
DASHED
 70
    64
  3
__ __ __ __ __ __ __ __ __ __ __ __ __ __ __ __
 72
    65
 73
     2
 40
0.75
 49
0.5
 49
-0.25
  0
LTYPE
  2
DASHED2
 70
    64
  3
_ _ _ _ _ _ _ _ _ _ _ _ _ _ _ _ _ _ _ _ _ _ _ _
 72
    65
 73
     2
 40
0.375
 49
0.25
 49
-0.125
  0
LTYPE
  2
DASHEDX2
 70
    64
  3
____  ____  ____  ____  ____  ____  ____  ____ 
 72
    65
 73
     2
 40
1.5
 49
1.0
 49
-0.5
  0
LTYPE
  2
DIVIDE
 70
    64
  3
____ . . ____ . . ____ . . ____ . . ____ . . __
 72
    65
 73
     6
 40
1.25
 49
0.5
 49
-0.25
 49
0.0
 49
-0.25
 49
0.0
 49
-0.25
  0
LTYPE
  2
DIVIDE2
 70
    64
  3
__..__..__..__..__..__..__..__..__..__..__..__.
 72
    65
 73
     6
 40
0.625
 49
0.25
 49
-0.125
 49
0.0
 49
-0.125
 49
0.0
 49
-0.125
  0
LTYPE
  2
DIVIDEX2
 70
    64
  3
________  .  .  ________  .  .  ________  .  . 
 72
    65
 73
     6
 40
2.5
 49
1.0
 49
-0.5
 49
0.0
 49
-0.5
 49
0.0
 49
-0.5
  0
LTYPE
  2
DOT
 70
    64
  3
. . . . . . . . . . . . . . . . . . . . . . . .
 72
    65
 73
     2
 40
0.25
 49
0.0
 49
-0.25
  0
LTYPE
  2
DOT2
 70
    64
  3
...............................................
 72
    65
 73
     2
 40
0.125
 49
0.0
 49
-0.125
  0
LTYPE
  2
DOTX2
 70
    64
  3
.  .  .  .  .  .  .  .  .  .  .  .  .  .  .  . 
 72
    65
 73
     2
 40
0.5
 49
0.0
 49
-0.5
  0
LTYPE
  2
HIDDEN
 70
    64
  3
__ __ __ __ __ __ __ __ __ __ __ __ __ __ __ __
 72
    65
 73
     2
 40
0.375
 49
0.25
 49
-0.125
  0
LTYPE
  2
HIDDEN2
 70
    64
  3
_ _ _ _ _ _ _ _ _ _ _ _ _ _ _ _ _ _ _ _ _ _ _ _
 72
    65
 73
     2
 40
0.1875
 49
0.125
 49
-0.0625
  0
LTYPE
  2
HIDDENX2
 70
    64
  3
____ ____ ____ ____ ____ ____ ____ ____ ____ __
 72
    65
 73
     2
 40
0.75
 49
0.5
 49
-0.25
  0
LTYPE
  2
PHANTOM
 70
    64
  3
______  __  __  ______  __  __  ______  __  __ 
 72
    65
 73
     6
 40
2.5
 49
1.25
 49
-0.25
 49
0.25
 49
-0.25
 49
0.25
 49
-0.25
  0
LTYPE
  2
PHANTOM2
 70
    64
  3
___ _ _ ___ _ _ ___ _ _ ___ _ _ ___ _ _ ___ _ _
 72
    65
 73
     6
 40
1.25
 49
0.625
 49
-0.125
 49
0.125
 49
-0.125
 49
0.125
 49
-0.125
  0
LTYPE
  2
PHANTOMX2
 70
    64
  3
____________    ____    ____    ____________   
 72
    65
 73
     6
 40
5.0
 49
2.5
 49
-0.5
 49
0.5
 49
-0.5
 49
0.5
 49
-0.5
  0
ENDTAB
  0
TABLE
  2
STYLE
 70
     2
  0
STYLE
  2
STANDARD
 70
0
 40
0.0
 41
1.0
 50
0.0
 71
0
 42
0.2
  3
TXT
  4
BIGFONT
  0
STYLE
  2
STANDARD1
 70
     4
 40
0.0
 41
1.0
 50
0.0
 71
     0
 42
0.2
  3
TXT
  4
BIGFONT
  0
ENDTAB
   0
TABLE
   2
LAYER
  70
4
   0
LAYER
   2
0
  70
0
  62
7
   6
CONTINUOUS
   0
LAYER
   2
LEVEL001
  70
0
  62
7
   6
CONTINUOUS
   0
LAYER
   2
LEVEL003
  70
0
  62
7
   6
CONTINUOUS
   0
LAYER
   2
LEVEL004
  70
0
  62
7
   6
CONTINUOUS
   0
ENDTAB
   0
ENDSEC
   0
SECTION
   2
ENTITIES
   0
LINE
   8
LEVEL001
   6
CONTINUOUS
  62
7
  10
 141.000
  20
 117.000
  30
0.0
  11
 139.000
  21
 115.000
  31
0.0
   0
LINE
   8
LEVEL001
   6
CONTINUOUS
  62
7
  10
 74.0000
  20
 117.000
  30
0.0
  11
 76.0000
  21
 115.000
  31
0.0
   0
LINE
   8
LEVEL001
   6
CONTINUOUS
  62
7
  10
 76.0000
  20
 115.000
  30
0.0
  11
 139.000
  21
 115.000
  31
0.0
   0
LINE
   8
LEVEL003
   6
CONTINUOUS
  62
3
  10
 86.5000
  20
 111.000
  30
0.0
  11
 86.5000
  21
 98.0000
  31
0.0
   0
LINE
   8
LEVEL003
   6
CONTINUOUS
  62
3
  10
 128.500
  20
 111.000
  30
0.0
  11
 128.500
  21
 98.0000
  31
0.0
   0
LINE
   8
LEVEL003
   6
CONTINUOUS
  62
3
  10
 86.5000
  20
 100.000
  30
0.0
  11
 128.500
  21
 100.000
  31
0.0
   0
LINE
   8
LEVEL003
   6
CONTINUOUS
  62
3
  10
 86.5000
  20
 100.000
  30
0.0
  11
 89.5000
  21
 99.4710
  31
0.0
   0
LINE
   8
LEVEL003
   6
CONTINUOUS
  62
3
  10
 86.5000
  20
 100.000
  30
0.0
  11
 89.5000
  21
 100.529
  31
0.0
   0
LINE
   8
LEVEL003
   6
CONTINUOUS
  62
3
  10
 128.500
  20
 100.000
  30
0.0
  11
 125.500
  21
 100.529
  31
0.0
   0
LINE
   8
LEVEL003
   6
CONTINUOUS
  62
3
  10
 128.500
  20
 100.000
  30
0.0
  11
 125.500
  21
 99.4710
  31
0.0
   0
TEXT
   8
LEVEL003
  62
3
  10
 103.500
  20
 100.800
  30
0.0
  40
 4.00000
   1
%%c42
   7
STANDARD
  72
1
  11
 107.500
  21
 100.800
  31
0.0
   0
LINE
   8
LEVEL003
   6
CONTINUOUS
  62
3
  10
 74.0000
  20
 116.000
  30
0.0
  11
 74.0000
  21
 88.0000
  31
0.0
   0
LINE
   8
LEVEL003
   6
CONTINUOUS
  62
3
  10
 141.000
  20
 116.000
  30
0.0
  11
 141.000
  21
 88.0000
  31
0.0
   0
LINE
   8
LEVEL003
   6
CONTINUOUS
  62
3
  10
 74.0000
  20
 90.0000
  30
0.0
  11
 141.000
  21
 90.0000
  31
0.0
   0
LINE
   8
LEVEL003
   6
CONTINUOUS
  62
3
  10
 74.0000
  20
 90.0000
  30
0.0
  11
 77.0000
  21
 89.4710
  31
0.0
   0
LINE
   8
LEVEL003
   6
CONTINUOUS
  62
3
  10
 74.0000
  20
 90.0000
  30
0.0
  11
 77.0000
  21
 90.5290
  31
0.0
   0
LINE
   8
LEVEL003
   6
CONTINUOUS
  62
3
  10
 141.000
  20
 90.0000
  30
0.0
  11
 138.000
  21
 90.5290
  31
0.0
   0
LINE
   8
LEVEL003
   6
CONTINUOUS
  62
3
  10
 141.000
  20
 90.0000
  30
0.0
  11
 138.000
  21
 89.4710
  31
0.0
   0
TEXT
   8
LEVEL003
  62
3
  10
 103.500
  20
 90.8000
  30
0.0
  40
 4.00000
   1
%%c67
   7
STANDARD
  72
1
  11
 107.500
  21
 90.8000
  31
0.0
   0
TEXT
   8
LEVEL003
  62
3
  10
 152.500
  20
 105.000
  30
0.0
  40
 4.00000
   1
ＮＰＴ３／８
   7
STANDARD
   0
LINE
   8
LEVEL003
   6
CONTINUOUS
  62
3
  10
 144.058
  20
 125.800
  30
0.0
  11
 152.500
  21
 105.000
  31
0.0
   0
LINE
   8
LEVEL003
   6
CONTINUOUS
  62
3
  10
 144.058
  20
 125.800
  30
0.0
  11
 144.696
  21
 122.821
  31
0.0
   0
LINE
   8
LEVEL003
   6
CONTINUOUS
  62
3
  10
 144.058
  20
 125.800
  30
0.0
  11
 145.676
  21
 123.219
  31
0.0
   0
LINE
   8
LEVEL001
   6
CONTINUOUS
  62
3
  10
 149.212
  20
 143.395
  30
0.0
  11
 145.694
  21
 142.115
  31
0.0
   0
LINE
   8
LEVEL001
   6
CONTINUOUS
  62
7
  10
 149.212
  20
 143.395
  30
0.0
  11
 150.616
  21
 144.378
  31
0.0
   0
LINE
   8
LEVEL001
   6
CONTINUOUS
  62
7
  10
 166.073
  20
 145.730
  30
0.0
  11
 150.616
  21
 144.378
  31
0.0
   0
LINE
   8
LEVEL001
   6
CONTINUOUS
  62
7
  10
 150.719
  20
 126.174
  30
0.0
  11
 152.272
  21
 125.450
  31
0.0
   0
LINE
   8
LEVEL001
   6
CONTINUOUS
  62
7
  10
 167.729
  20
 126.802
  30
0.0
  11
 152.272
  21
 125.450
  31
0.0
   0
ARC
   8
LEVEL001
   6
CONTINUOUS
  62
7
  10
 167.262
  20
 149.347
  30
0.0
  40
 1.50000
  50
 95.0001
  51
 185.000
   0
LINE
   8
LEVEL001
   6
CONTINUOUS
  62
7
  10
 167.132
  20
 150.842
  30
0.0
  11
 172.113
  21
 151.277
  31
0.0
   0
ARC
   8
LEVEL001
   6
CONTINUOUS
  62
7
  10
 169.528
  20
 123.446
  30
0.0
  40
 1.50000
  50
 185.000
  51
 275.000
   0
LINE
   8
LEVEL001
   6
CONTINUOUS
  62
7
  10
 168.034
  20
 123.316
  30
0.0
  11
 165.768
  21
 149.217
  31
0.0
   0
LINE
   8
LEVEL001
   6
CONTINUOUS
  62
7
  10
 169.659
  20
 121.952
  30
0.0
  11
 174.640
  21
 122.388
  31
0.0
   0
ARC
   8
LEVEL001
   6
CONTINUOUS
  62
7
  10
 188.182
  20
 151.178
  30
0.0
  40
 1.50000
  50
 5.00008
  51
 95.0002
   0
LINE
   8
LEVEL001
   6
CONTINUOUS
  62
7
  10
 183.071
  20
 152.236
  30
0.0
  11
 188.052
  21
 152.672
  31
0.0
   0
ARC
   8
LEVEL001
   6
CONTINUOUS
  62
7
  10
 190.448
  20
 125.277
  30
0.0
  40
 1.50000
  50
 275.000
  51
 4.99990
   0
LINE
   8
LEVEL001
   6
CONTINUOUS
  62
7
  10
 185.598
  20
 123.346
  30
0.0
  11
 190.579
  21
 123.782
  31
0.0
   0
LINE
   8
LEVEL001
   6
CONTINUOUS
  62
7
  10
 189.677
  20
 151.308
  30
0.0
  11
 191.943
  21
 125.407
  31
0.0
   0
ARC
   8
LEVEL001
   6
DASHDOT
  62
1
  10
 198.642
  20
 152.093
  30
0.0
  40
 1.00000
  50
 5.00020
  51
 95.0005
   0
LINE
   8
LEVEL001
   6
DASHDOT
  62
1
  10
 190.586
  20
 152.392
  30
0.0
  11
 198.555
  21
 153.089
  31
0.0
   0
ARC
   8
LEVEL001
   6
DASHDOT
  62
1
  10
 200.909
  20
 126.192
  30
0.0
  40
 1.00000
  50
 275.001
  51
 5.00010
   0
LINE
   8
LEVEL001
   6
DASHDOT
  62
1
  10
 193.026
  20
 124.498
  30
0.0
  11
 200.996
  21
 125.195
  31
0.0
   0
LINE
   8
LEVEL001
   6
DASHDOT
  62
1
  10
 199.639
  20
 152.180
  30
0.0
  11
 201.905
  21
 126.279
  31
0.0
   0
CIRCLE
   8
LEVEL001
   6
DASHDOT
  62
1
  10
 203.760
  20
 139.491
  30
0.0
  40
 1.50000
   0
ARC
   8
LEVEL001
   6
DASHDOT
  62
1
  10
 192.939
  20
 125.494
  30
0.0
  40
 1.00000
  50
 185.000
  51
 275.000
   0
ARC
   8
LEVEL001
   6
DASHDOT
  62
1
  10
 190.673
  20
 151.395
  30
0.0
  40
 1.00000
  50
 95.0007
  51
 185.000
   0
ARC
   8
LEVEL001
   6
DASHDOT
  62
1
  10
 202.285
  20
 144.883
  30
0.0
  40
 2.00000
  50
 185.000
  51
 275.000
   0
ARC
   8
LEVEL001
   6
DASHDOT
  62
1
  10
 203.243
  20
 133.925
  30
0.0
  40
 2.00000
  50
 95.0002
  51
 185.000
   0
LINE
   8
LEVEL001
   6
DASHDOT
  62
1
  10
 202.459
  20
 142.890
  30
0.0
  11
 202.957
  21
 142.934
  31
0.0
   0
LINE
   8
LEVEL001
   6
DASHDOT
  62
1
  10
 203.069
  20
 135.917
  30
0.0
  11
 203.567
  21
 135.961
  31
0.0
   0
ARC
   8
LEVEL001
   6
DASHDOT
  62
1
  10
 203.258
  20
 139.447
  30
0.0
  40
 3.50000
  50
 275.065
  51
 94.9347
   0
LINE
   8
LEVEL001
   6
CONTINUOUS
  62
7
  10
 152.272
  20
 125.450
  30
0.0
  11
 151.952
  21
 129.105
  31
0.0
   0
LINE
   8
LEVEL001
   6
CONTINUOUS
  62
7
  10
 150.935
  20
 140.722
  30
0.0
  11
 150.616
  21
 144.378
  31
0.0
   0
LINE
   8
LEVEL001
   6
CONTINUOUS
  62
7
  10
 146.333
  20
 130.412
  30
0.0
  11
 159.420
  21
 141.465
  31
0.0
   0
LINE
   8
LEVEL001
   6
CONTINUOUS
  62
7
  10
 145.629
  20
 138.460
  30
0.0
  11
 160.436
  21
 129.847
  31
0.0
   0
LINE
   8
LEVEL001
   6
CONTINUOUS
  62
3
  10
 145.694
  20
 142.115
  30
0.0
  11
 146.011
  21
 138.493
  31
0.0
   0
LINE
   8
LEVEL001
   6
CONTINUOUS
  62
3
  10
 146.715
  20
 130.445
  30
0.0
  11
 147.032
  21
 126.824
  31
0.0
   0
LINE
   8
LEVEL001
   6
CONTINUOUS
  62
7
  10
 149.212
  20
 143.395
  30
0.0
  11
 149.591
  21
 139.065
  31
0.0
   0
LINE
   8
LEVEL001
   6
CONTINUOUS
  62
7
  10
 150.340
  20
 130.504
  30
0.0
  11
 150.719
  21
 126.174
  31
0.0
   0
LINE
   8
LEVEL001
   6
CONTINUOUS
  62
3
  10
 174.509
  20
 123.882
  30
0.0
  11
 185.468
  21
 124.841
  31
0.0
   0
LINE
   8
LEVEL001
   6
CONTINUOUS
  62
3
  10
 174.335
  20
 125.874
  30
0.0
  11
 185.293
  21
 126.833
  31
0.0
   0
LINE
   8
LEVEL001
   6
CONTINUOUS
  62
3
  10
 174.161
  20
 127.867
  30
0.0
  11
 185.119
  21
 128.826
  31
0.0
   0
LINE
   8
LEVEL001
   6
CONTINUOUS
  62
3
  10
 173.986
  20
 129.859
  30
0.0
  11
 184.945
  21
 130.818
  31
0.0
   0
LINE
   8
LEVEL001
   6
CONTINUOUS
  62
3
  10
 173.812
  20
 131.852
  30
0.0
  11
 184.770
  21
 132.810
  31
0.0
   0
LINE
   8
LEVEL001
   6
CONTINUOUS
  62
3
  10
 173.638
  20
 133.844
  30
0.0
  11
 184.596
  21
 134.803
  31
0.0
   0
LINE
   8
LEVEL001
   6
CONTINUOUS
  62
3
  10
 173.464
  20
 135.836
  30
0.0
  11
 184.422
  21
 136.795
  31
0.0
   0
LINE
   8
LEVEL001
   6
CONTINUOUS
  62
3
  10
 173.289
  20
 137.829
  30
0.0
  11
 184.247
  21
 138.787
  31
0.0
   0
LINE
   8
LEVEL001
   6
CONTINUOUS
  62
3
  10
 173.115
  20
 139.821
  30
0.0
  11
 184.073
  21
 140.780
  31
0.0
   0
LINE
   8
LEVEL001
   6
CONTINUOUS
  62
3
  10
 172.941
  20
 141.814
  30
0.0
  11
 183.899
  21
 142.772
  31
0.0
   0
LINE
   8
LEVEL001
   6
CONTINUOUS
  62
3
  10
 172.766
  20
 143.806
  30
0.0
  11
 183.724
  21
 144.765
  31
0.0
   0
LINE
   8
LEVEL001
   6
CONTINUOUS
  62
3
  10
 172.592
  20
 145.798
  30
0.0
  11
 183.550
  21
 146.757
  31
0.0
   0
LINE
   8
LEVEL001
   6
CONTINUOUS
  62
3
  10
 172.418
  20
 147.791
  30
0.0
  11
 183.376
  21
 148.749
  31
0.0
   0
LINE
   8
LEVEL001
   6
CONTINUOUS
  62
3
  10
 172.243
  20
 149.783
  30
0.0
  11
 183.201
  21
 150.742
  31
0.0
   0
LINE
   8
LEVEL001
   6
CONTINUOUS
  62
7
  10
 146.333
  20
 130.412
  30
0.0
  11
 145.629
  21
 138.460
  31
0.0
   0
LINE
   8
LEVEL001
   6
CONTINUOUS
  62
7
  10
 145.629
  20
 138.460
  30
0.0
  11
 149.591
  21
 139.065
  31
0.0
   0
LINE
   8
LEVEL001
   6
CONTINUOUS
  62
7
  10
 149.591
  20
 139.065
  30
0.0
  11
 150.935
  21
 140.722
  31
0.0
   0
LINE
   8
LEVEL001
   6
CONTINUOUS
  62
7
  10
 150.935
  20
 140.722
  30
0.0
  11
 159.420
  21
 141.465
  31
0.0
   0
LINE
   8
LEVEL001
   6
CONTINUOUS
  62
7
  10
 159.420
  20
 141.465
  30
0.0
  11
 160.436
  21
 129.847
  31
0.0
   0
LINE
   8
LEVEL001
   6
CONTINUOUS
  62
7
  10
 160.436
  20
 129.847
  30
0.0
  11
 151.952
  21
 129.105
  31
0.0
   0
LINE
   8
LEVEL001
   6
CONTINUOUS
  62
7
  10
 151.952
  20
 129.105
  30
0.0
  11
 150.340
  21
 130.504
  31
0.0
   0
LINE
   8
LEVEL001
   6
CONTINUOUS
  62
7
  10
 150.340
  20
 130.504
  30
0.0
  11
 146.333
  21
 130.412
  31
0.0
   0
LINE
   8
LEVEL001
   6
CONTINUOUS
  62
7
  10
 174.684
  20
 121.890
  30
0.0
  11
 172.069
  21
 151.775
  31
0.0
   0
LINE
   8
LEVEL001
   6
CONTINUOUS
  62
7
  10
 172.069
  20
 151.775
  30
0.0
  11
 183.027
  21
 152.734
  31
0.0
   0
LINE
   8
LEVEL001
   6
CONTINUOUS
  62
7
  10
 183.027
  20
 152.734
  30
0.0
  11
 185.642
  21
 122.848
  31
0.0
   0
LINE
   8
LEVEL001
   6
CONTINUOUS
  62
7
  10
 185.642
  20
 122.848
  30
0.0
  11
 174.684
  21
 121.890
  31
0.0
   0
LINE
   8
LEVEL001
   6
CONTINUOUS
  62
3
  10
 150.719
  20
 126.174
  30
0.0
  11
 147.032
  21
 126.824
  31
0.0
   0
LINE
   8
LEVEL003
   6
CONTINUOUS
  62
3
  10
 140.000
  20
 115.000
  30
0.0
  11
 244.500
  21
 115.000
  31
0.0
   0
LINE
   8
LEVEL003
   6
CONTINUOUS
  62
3
  10
 242.500
  20
 115.000
  30
0.0
  11
 243.029
  21
 118.000
  31
0.0
   0
LINE
   8
LEVEL003
   6
CONTINUOUS
  62
3
  10
 242.500
  20
 115.000
  30
0.0
  11
 241.971
  21
 118.000
  31
0.0
   0
LINE
   8
LEVEL003
   6
CONTINUOUS
  62
3
  10
 86.5000
  20
 115.000
  30
0.0
  11
 67.5000
  21
 95.0000
  31
0.0
   0
LINE
   8
LEVEL003
   6
CONTINUOUS
  62
3
  10
 86.5000
  20
 115.000
  30
0.0
  11
 84.0502
  21
 113.189
  31
0.0
   0
LINE
   8
LEVEL003
   6
CONTINUOUS
  62
3
  10
 86.5000
  20
 115.000
  30
0.0
  11
 84.8173
  21
 112.461
  31
0.0
   0
CIRCLE
   8
LEVEL001
   6
CONTINUOUS
  62
7
  10
 107.500
  20
 50.0000
  30
0.0
  40
 33.5000
   0
CIRCLE
   8
LEVEL001
   6
CONTINUOUS
  62
7
  10
 107.500
  20
 71.0000
  30
0.0
  40
 4.25000
   0
CIRCLE
   8
LEVEL001
   6
CONTINUOUS
  62
3
  10
 107.500
  20
 71.0000
  30
0.0
  40
 5.00000
   0
LINE
   8
LEVEL001
   6
DASHDOT
  62
1
  10
 115.500
  20
 71.0000
  30
0.0
  11
 99.5000
  21
 71.0000
  31
0.0
   0
CIRCLE
   8
LEVEL001
   6
CONTINUOUS
  62
7
  10
 107.500
  20
 29.0000
  30
0.0
  40
 4.25000
   0
CIRCLE
   8
LEVEL001
   6
CONTINUOUS
  62
3
  10
 107.500
  20
 29.0000
  30
0.0
  40
 5.00000
   0
LINE
   8
LEVEL001
   6
DASHDOT
  62
1
  10
 115.500
  20
 29.0000
  30
0.0
  11
 99.5000
  21
 29.0000
  31
0.0
   0
LINE
   8
LEVEL001
   6
CONTINUOUS
  62
7
  10
 107.500
  20
 54.6188
  30
0.0
  11
 111.500
  21
 52.3094
  31
0.0
   0
LINE
   8
LEVEL001
   6
CONTINUOUS
  62
7
  10
 111.500
  20
 52.3094
  30
0.0
  11
 111.500
  21
 47.6906
  31
0.0
   0
LINE
   8
LEVEL001
   6
CONTINUOUS
  62
7
  10
 111.500
  20
 47.6906
  30
0.0
  11
 107.500
  21
 45.3812
  31
0.0
   0
LINE
   8
LEVEL001
   6
CONTINUOUS
  62
7
  10
 107.500
  20
 45.3812
  30
0.0
  11
 103.500
  21
 47.6906
  31
0.0
   0
LINE
   8
LEVEL001
   6
CONTINUOUS
  62
7
  10
 103.500
  20
 47.6906
  30
0.0
  11
 103.500
  21
 52.3094
  31
0.0
   0
LINE
   8
LEVEL001
   6
CONTINUOUS
  62
7
  10
 103.500
  20
 52.3094
  30
0.0
  11
 107.500
  21
 54.6188
  31
0.0
   0
CIRCLE
   8
LEVEL001
   6
CONTINUOUS
  62
7
  10
 107.500
  20
 50.0000
  30
0.0
  40
 8.33100
   0
CIRCLE
   8
LEVEL001
   6
CONTINUOUS
  62
3
  10
 107.500
  20
 50.0000
  30
0.0
  40
 7.47500
   0
LINE
   8
LEVEL001
   6
DASHDOT
  62
1
  10
 107.500
  20
 87.8081
  30
0.0
  11
 107.500
  21
 12.1919
  31
0.0
   0
CIRCLE
   8
LEVEL001
   6
CONTINUOUS
  62
7
  10
 107.500
  20
 50.0000
  30
0.0
  40
 9.33096
   0
CIRCLE
   8
LEVEL001
   6
CONTINUOUS
  62
7
  10
 107.500
  20
 50.0000
  30
0.0
  40
 31.5000
   0
LINE
   8
LEVEL001
   6
CONTINUOUS
  62
3
  10
 146.387
  20
 57.5000
  30
0.0
  11
 146.387
  21
 42.5000
  31
0.0
   0
LINE
   8
LEVEL001
   6
CONTINUOUS
  62
7
  10
 150.004
  20
 57.5000
  30
0.0
  11
 150.004
  21
 42.5000
  31
0.0
   0
LINE
   8
LEVEL001
   6
CONTINUOUS
  62
7
  10
 146.004
  20
 58.5185
  30
0.0
  11
 140.004
  21
 58.3310
  31
0.0
   0
LINE
   8
LEVEL001
   6
CONTINUOUS
  62
3
  10
 146.004
  20
 57.6625
  30
0.0
  11
 140.004
  21
 57.4750
  31
0.0
   0
LINE
   8
LEVEL001
   6
CONTINUOUS
  62
3
  10
 145.999
  20
 42.3376
  30
0.0
  11
 140.004
  21
 42.5250
  31
0.0
   0
LINE
   8
LEVEL001
   6
CONTINUOUS
  62
7
  10
 146.004
  20
 41.4815
  30
0.0
  11
 140.004
  21
 41.6690
  31
0.0
   0
LINE
   8
LEVEL001
   6
CONTINUOUS
  62
7
  10
 151.487
  20
 42.5000
  30
0.0
  11
 151.487
  21
 57.5000
  31
0.0
   0
ARC
   8
LEVEL001
   6
CONTINUOUS
  62
7
  10
 168.504
  20
 63.0000
  30
0.0
  40
 1.50000
  50
 90.0000
  51
 180.000
   0
LINE
   8
LEVEL001
   6
CONTINUOUS
  62
7
  10
 168.504
  20
 64.5000
  30
0.0
  11
 173.504
  21
 64.5000
  31
0.0
   0
ARC
   8
LEVEL001
   6
CONTINUOUS
  62
7
  10
 168.504
  20
 37.0000
  30
0.0
  40
 1.50000
  50
 180.000
  51
 270.000
   0
LINE
   8
LEVEL001
   6
CONTINUOUS
  62
7
  10
 167.004
  20
 37.0000
  30
0.0
  11
 167.004
  21
 63.0000
  31
0.0
   0
LINE
   8
LEVEL001
   6
CONTINUOUS
  62
7
  10
 168.504
  20
 35.5000
  30
0.0
  11
 173.504
  21
 35.5000
  31
0.0
   0
ARC
   8
LEVEL001
   6
CONTINUOUS
  62
7
  10
 189.504
  20
 63.0000
  30
0.0
  40
 1.50000
  50
0.0
  51
 90.0000
   0
LINE
   8
LEVEL001
   6
CONTINUOUS
  62
7
  10
 184.504
  20
 64.5000
  30
0.0
  11
 189.504
  21
 64.5000
  31
0.0
   0
ARC
   8
LEVEL001
   6
CONTINUOUS
  62
7
  10
 189.504
  20
 37.0000
  30
0.0
  40
 1.50000
  50
 270.000
  51
0.0
   0
LINE
   8
LEVEL001
   6
CONTINUOUS
  62
7
  10
 184.504
  20
 35.5000
  30
0.0
  11
 189.504
  21
 35.5000
  31
0.0
   0
LINE
   8
LEVEL001
   6
CONTINUOUS
  62
7
  10
 191.004
  20
 63.0000
  30
0.0
  11
 191.004
  21
 37.0000
  31
0.0
   0
ARC
   8
LEVEL001
   6
DASHDOT
  62
1
  10
 200.004
  20
 63.0000
  30
0.0
  40
 1.00000
  50
0.0
  51
 90.0000
   0
LINE
   8
LEVEL001
   6
DASHDOT
  62
1
  10
 192.004
  20
 64.0000
  30
0.0
  11
 200.004
  21
 64.0000
  31
0.0
   0
ARC
   8
LEVEL001
   6
DASHDOT
  62
1
  10
 200.004
  20
 37.0000
  30
0.0
  40
 1.00000
  50
 270.000
  51
0.0
   0
LINE
   8
LEVEL001
   6
DASHDOT
  62
1
  10
 192.004
  20
 36.0000
  30
0.0
  11
 200.004
  21
 36.0000
  31
0.0
   0
LINE
   8
LEVEL001
   6
DASHDOT
  62
1
  10
 201.004
  20
 63.0000
  30
0.0
  11
 201.004
  21
 37.0000
  31
0.0
   0
ARC
   8
LEVEL001
   6
DASHDOT
  62
1
  10
 192.004
  20
 37.0000
  30
0.0
  40
 1.00000
  50
 180.000
  51
 270.000
   0
ARC
   8
LEVEL001
   6
DASHDOT
  62
1
  10
 192.004
  20
 63.0000
  30
0.0
  40
 1.00000
  50
 90.0000
  51
 180.000
   0
LINE
   8
LEVEL001
   6
CONTINUOUS
  62
3
  10
 173.504
  20
 37.0000
  30
0.0
  11
 184.504
  21
 37.0000
  31
0.0
   0
LINE
   8
LEVEL001
   6
CONTINUOUS
  62
3
  10
 173.504
  20
 39.0000
  30
0.0
  11
 184.504
  21
 39.0000
  31
0.0
   0
LINE
   8
LEVEL001
   6
CONTINUOUS
  62
3
  10
 173.504
  20
 41.0000
  30
0.0
  11
 184.504
  21
 41.0000
  31
0.0
   0
LINE
   8
LEVEL001
   6
CONTINUOUS
  62
3
  10
 173.504
  20
 43.0000
  30
0.0
  11
 184.504
  21
 43.0000
  31
0.0
   0
LINE
   8
LEVEL001
   6
CONTINUOUS
  62
3
  10
 173.504
  20
 45.0000
  30
0.0
  11
 184.504
  21
 45.0000
  31
0.0
   0
LINE
   8
LEVEL001
   6
CONTINUOUS
  62
3
  10
 173.504
  20
 47.0000
  30
0.0
  11
 184.504
  21
 47.0000
  31
0.0
   0
LINE
   8
LEVEL001
   6
CONTINUOUS
  62
3
  10
 173.504
  20
 49.0000
  30
0.0
  11
 184.504
  21
 49.0000
  31
0.0
   0
LINE
   8
LEVEL001
   6
CONTINUOUS
  62
3
  10
 173.504
  20
 51.0000
  30
0.0
  11
 184.504
  21
 51.0000
  31
0.0
   0
LINE
   8
LEVEL001
   6
CONTINUOUS
  62
3
  10
 173.504
  20
 53.0000
  30
0.0
  11
 184.504
  21
 53.0000
  31
0.0
   0
LINE
   8
LEVEL001
   6
CONTINUOUS
  62
3
  10
 173.504
  20
 55.0000
  30
0.0
  11
 184.504
  21
 55.0000
  31
0.0
   0
LINE
   8
LEVEL001
   6
CONTINUOUS
  62
3
  10
 173.504
  20
 57.0000
  30
0.0
  11
 184.504
  21
 57.0000
  31
0.0
   0
LINE
   8
LEVEL001
   6
CONTINUOUS
  62
3
  10
 173.504
  20
 59.0000
  30
0.0
  11
 184.504
  21
 59.0000
  31
0.0
   0
LINE
   8
LEVEL001
   6
CONTINUOUS
  62
3
  10
 173.504
  20
 61.0000
  30
0.0
  11
 184.504
  21
 61.0000
  31
0.0
   0
LINE
   8
LEVEL001
   6
CONTINUOUS
  62
3
  10
 173.504
  20
 63.0000
  30
0.0
  11
 184.504
  21
 63.0000
  31
0.0
   0
LINE
   8
LEVEL001
   6
DASHDOT
  62
1
  10
 201.004
  20
 52.0000
  30
0.0
  11
 207.004
  21
 52.0000
  31
0.0
   0
LINE
   8
LEVEL001
   6
DASHDOT
  62
1
  10
 207.004
  20
 52.0000
  30
0.0
  11
 207.004
  21
 48.0000
  31
0.0
   0
LINE
   8
LEVEL001
   6
DASHDOT
  62
1
  10
 207.004
  20
 48.0000
  30
0.0
  11
 201.004
  21
 48.0000
  31
0.0
   0
LINE
   8
LEVEL001
   6
CONTINUOUS
  62
7
  10
 146.004
  20
 58.5185
  30
0.0
  11
 146.004
  21
 57.5000
  31
0.0
   0
LINE
   8
LEVEL001
   6
CONTINUOUS
  62
7
  10
 146.004
  20
 57.5000
  30
0.0
  11
 160.004
  21
 57.5000
  31
0.0
   0
LINE
   8
LEVEL001
   6
CONTINUOUS
  62
7
  10
 160.004
  20
 57.5000
  30
0.0
  11
 160.004
  21
 59.5000
  31
0.0
   0
LINE
   8
LEVEL001
   6
CONTINUOUS
  62
7
  10
 160.004
  20
 59.5000
  30
0.0
  11
 167.004
  21
 59.5000
  31
0.0
   0
LINE
   8
LEVEL001
   6
CONTINUOUS
  62
7
  10
 146.004
  20
 41.4815
  30
0.0
  11
 146.004
  21
 42.5000
  31
0.0
   0
LINE
   8
LEVEL001
   6
CONTINUOUS
  62
7
  10
 146.004
  20
 42.5000
  30
0.0
  11
 160.004
  21
 42.5000
  31
0.0
   0
LINE
   8
LEVEL001
   6
CONTINUOUS
  62
7
  10
 160.004
  20
 42.5000
  30
0.0
  11
 160.004
  21
 40.5000
  31
0.0
   0
LINE
   8
LEVEL001
   6
CONTINUOUS
  62
7
  10
 160.004
  20
 40.5000
  30
0.0
  11
 167.004
  21
 40.5000
  31
0.0
   0
LINE
   8
LEVEL001
   6
CONTINUOUS
  62
7
  10
 173.504
  20
 35.0000
  30
0.0
  11
 173.504
  21
 65.0000
  31
0.0
   0
LINE
   8
LEVEL001
   6
CONTINUOUS
  62
7
  10
 173.504
  20
 65.0000
  30
0.0
  11
 184.504
  21
 65.0000
  31
0.0
   0
LINE
   8
LEVEL001
   6
CONTINUOUS
  62
7
  10
 184.504
  20
 65.0000
  30
0.0
  11
 184.504
  21
 35.0000
  31
0.0
   0
LINE
   8
LEVEL001
   6
CONTINUOUS
  62
7
  10
 184.504
  20
 35.0000
  30
0.0
  11
 173.504
  21
 35.0000
  31
0.0
   0
LINE
   8
LEVEL001
   6
DASHDOT
  62
1
  10
 210.004
  20
 50.0000
  30
0.0
  11
 70.0000
  21
 50.0000
  31
0.0
   0
LINE
   8
LEVEL001
   6
CONTINUOUS
  62
7
  10
 150.719
  20
 126.174
  30
0.0
  11
 141.000
  21
 125.629
  31
0.0
   0
LINE
   8
LEVEL001
   6
CONTINUOUS
  62
3
  10
 147.032
  20
 126.824
  30
0.0
  11
 141.000
  21
 126.486
  31
0.0
   0
LINE
   8
LEVEL001
   6
CONTINUOUS
  62
3
  10
 145.694
  20
 142.115
  30
0.0
  11
 141.000
  21
 141.556
  31
0.0
   0
LINE
   8
LEVEL001
   6
CONTINUOUS
  62
7
  10
 149.212
  20
 143.395
  30
0.0
  11
 141.000
  21
 142.417
  31
0.0
   0
LINE
   8
LEVEL004
   6
DASHDOT
  62
1
  10
 128.500
  20
 112.000
  30
0.0
  11
 128.500
  21
 125.000
  31
0.0
   0
LINE
   8
LEVEL004
   6
DASHDOT
  62
1
  10
 86.5000
  20
 112.000
  30
0.0
  11
 86.5000
  21
 125.000
  31
0.0
   0
LINE
   8
LEVEL004
   6
DOT
  62
3
  10
 90.7500
  20
 115.750
  30
0.0
  11
 82.2500
  21
 115.750
  31
0.0
   0
LINE
   8
LEVEL004
   6
DOT
  62
3
  10
 91.5000
  20
 115.000
  30
0.0
  11
 90.7500
  21
 115.750
  31
0.0
   0
LINE
   8
LEVEL004
   6
DOT
  62
3
  10
 90.7500
  20
 115.750
  30
0.0
  11
 90.7500
  21
 125.000
  31
0.0
   0
LINE
   8
LEVEL004
   6
DOT
  62
3
  10
 82.2500
  20
 125.000
  30
0.0
  11
 82.2500
  21
 115.750
  31
0.0
   0
LINE
   8
LEVEL004
   6
DOT
  62
3
  10
 82.2500
  20
 115.750
  30
0.0
  11
 81.5000
  21
 115.000
  31
0.0
   0
LINE
   8
LEVEL004
   6
DOT
  62
3
  10
 91.5000
  20
 115.000
  30
0.0
  11
 91.5000
  21
 125.000
  31
0.0
   0
LINE
   8
LEVEL004
   6
DOT
  62
3
  10
 81.5000
  20
 125.000
  30
0.0
  11
 81.5000
  21
 115.000
  31
0.0
   0
LINE
   8
LEVEL001
   6
DASHDOT
  62
1
  10
 212.478
  20
 140.253
  30
0.0
  11
 132.651
  21
 133.270
  31
0.0
   0
TEXT
   8
LEVEL003
  62
7
  10
 219.191
  20
 15.2200
  30
0.0
  40
 10.0000
   1
ＯＳＡＫＡ ＪＡＣＫ
   7
STANDARD
   0
CIRCLE
   8
LEVEL003
   6
CONTINUOUS
  62
7
  10
 207.218
  20
 22.2707
  30
0.0
  40
 3.00000
   0
LINE
   8
LEVEL003
   6
CONTINUOUS
  62
7
  10
 213.106
  20
 25.2707
  30
0.0
  11
 209.297
  21
 18.6707
  31
0.0
   0
LINE
   8
LEVEL003
   6
CONTINUOUS
  62
7
  10
 209.297
  20
 18.6707
  30
0.0
  11
 201.676
  21
 18.6707
  31
0.0
   0
LINE
   8
LEVEL003
   6
CONTINUOUS
  62
7
  10
 200.809
  20
 17.1707
  30
0.0
  11
 214.430
  21
 17.1707
  31
0.0
   0
LINE
   8
LEVEL003
   6
CONTINUOUS
  62
7
  10
 214.430
  20
 17.1707
  30
0.0
  11
 219.106
  21
 25.2707
  31
0.0
   0
LINE
   8
LEVEL003
   6
CONTINUOUS
  62
7
  10
 219.106
  20
 25.2707
  30
0.0
  11
 213.106
  21
 25.2707
  31
0.0
   0
LINE
   8
LEVEL003
   6
CONTINUOUS
  62
7
  10
 201.676
  20
 18.6707
  30
0.0
  11
 200.809
  21
 17.1707
  31
0.0
   0
LINE
   8
LEVEL001
   6
CONTINUOUS
  62
7
  10
 74.0000
  20
 117.000
  30
0.0
  11
 141.000
  21
 117.000
  31
0.0
   0
TEXT
   8
LEVEL003
  62
3
  10
 25.5000
  20
 95.0000
  30
0.0
  40
 4.00000
   1
２－Ｍ１０×１５Ｌ
   7
STANDARD
   0
LINE
   8
LEVEL003
   6
CONTINUOUS
  62
3
  10
 67.5000
  20
 95.0000
  30
0.0
  11
 25.7168
  21
 95.0000
  31
0.0
   0
LINE
   8
LEVEL001
   6
CONTINUOUS
  62
7
  10
 139.750
  20
 297.000
  30
0.0
  11
 138.750
  21
 298.000
  31
0.0
   0
LINE
   8
LEVEL001
   6
CONTINUOUS
  62
7
  10
 139.750
  20
 294.000
  30
0.0
  11
 139.750
  21
 297.000
  31
0.0
   0
LINE
   8
LEVEL001
   6
CONTINUOUS
  62
7
  10
 140.250
  20
 294.000
  30
0.0
  11
 141.000
  21
 293.250
  31
0.0
   0
LINE
   8
LEVEL001
   6
CONTINUOUS
  62
7
  10
 141.000
  20
 293.250
  30
0.0
  11
 141.000
  21
 262.201
  31
0.0
   0
LINE
   8
LEVEL001
   6
CONTINUOUS
  62
3
  10
 140.250
  20
 265.000
  30
0.0
  11
 141.000
  21
 262.201
  31
0.0
   0
LINE
   8
LEVEL001
   6
CONTINUOUS
  62
7
  10
 75.2500
  20
 297.000
  30
0.0
  11
 76.2500
  21
 298.000
  31
0.0
   0
LINE
   8
LEVEL001
   6
CONTINUOUS
  62
7
  10
 75.2500
  20
 294.000
  30
0.0
  11
 75.2500
  21
 297.000
  31
0.0
   0
LINE
   8
LEVEL001
   6
CONTINUOUS
  62
7
  10
 74.0000
  20
 117.000
  30
0.0
  11
 74.0000
  21
 262.201
  31
0.0
   0
LINE
   8
LEVEL001
   6
CONTINUOUS
  62
7
  10
 74.7500
  20
 294.000
  30
0.0
  11
 74.0000
  21
 293.250
  31
0.0
   0
LINE
   8
LEVEL001
   6
CONTINUOUS
  62
7
  10
 74.0000
  20
 293.250
  30
0.0
  11
 74.0000
  21
 262.201
  31
0.0
   0
LINE
   8
LEVEL001
   6
CONTINUOUS
  62
3
  10
 74.7500
  20
 265.000
  30
0.0
  11
 74.0000
  21
 262.201
  31
0.0
   0
LINE
   8
LEVEL001
   6
DASHDOT
  62
1
  10
 144.000
  20
 294.000
  30
0.0
  11
 144.000
  21
 265.000
  31
0.0
   0
LINE
   8
LEVEL001
   6
DASHDOT
  62
1
  10
 140.250
  20
 294.000
  30
0.0
  11
 144.000
  21
 294.000
  31
0.0
   0
LINE
   8
LEVEL001
   6
DASHDOT
  62
1
  10
 141.000
  20
 265.000
  30
0.0
  11
 144.000
  21
 265.000
  31
0.0
   0
LINE
   8
LEVEL001
   6
DASHDOT
  62
1
  10
 71.0000
  20
 294.000
  30
0.0
  11
 71.0000
  21
 265.000
  31
0.0
   0
LINE
   8
LEVEL001
   6
DASHDOT
  62
1
  10
 74.7500
  20
 294.000
  30
0.0
  11
 71.0000
  21
 294.000
  31
0.0
   0
LINE
   8
LEVEL001
   6
DASHDOT
  62
1
  10
 74.0000
  20
 265.000
  30
0.0
  11
 71.0000
  21
 265.000
  31
0.0
   0
LINE
   8
LEVEL003
   6
CONTINUOUS
  62
3
  10
 87.5000
  20
 305.000
  30
0.0
  11
 87.5000
  21
 317.000
  31
0.0
   0
LINE
   8
LEVEL003
   6
CONTINUOUS
  62
3
  10
 127.500
  20
 305.000
  30
0.0
  11
 127.500
  21
 317.000
  31
0.0
   0
LINE
   8
LEVEL003
   6
CONTINUOUS
  62
3
  10
 87.5000
  20
 315.000
  30
0.0
  11
 127.500
  21
 315.000
  31
0.0
   0
LINE
   8
LEVEL003
   6
CONTINUOUS
  62
3
  10
 87.5000
  20
 315.000
  30
0.0
  11
 90.5000
  21
 314.471
  31
0.0
   0
LINE
   8
LEVEL003
   6
CONTINUOUS
  62
3
  10
 87.5000
  20
 315.000
  30
0.0
  11
 90.5000
  21
 315.529
  31
0.0
   0
LINE
   8
LEVEL003
   6
CONTINUOUS
  62
3
  10
 127.500
  20
 315.000
  30
0.0
  11
 124.500
  21
 315.529
  31
0.0
   0
LINE
   8
LEVEL003
   6
CONTINUOUS
  62
3
  10
 127.500
  20
 315.000
  30
0.0
  11
 124.500
  21
 314.471
  31
0.0
   0
TEXT
   8
LEVEL003
  62
3
  10
 103.500
  20
 315.800
  30
0.0
  40
 4.00000
   1
%%c40
   7
STANDARD
  72
1
  11
 107.500
  21
 315.800
  31
0.0
   0
LINE
   8
LEVEL003
   6
CONTINUOUS
  62
3
  10
 84.5000
  20
 297.000
  30
0.0
  11
 84.5000
  21
 327.000
  31
0.0
   0
LINE
   8
LEVEL003
   6
CONTINUOUS
  62
3
  10
 130.500
  20
 297.000
  30
0.0
  11
 130.500
  21
 327.000
  31
0.0
   0
LINE
   8
LEVEL003
   6
CONTINUOUS
  62
3
  10
 84.5000
  20
 325.000
  30
0.0
  11
 130.500
  21
 325.000
  31
0.0
   0
LINE
   8
LEVEL003
   6
CONTINUOUS
  62
3
  10
 84.5000
  20
 325.000
  30
0.0
  11
 87.5000
  21
 324.471
  31
0.0
   0
LINE
   8
LEVEL003
   6
CONTINUOUS
  62
3
  10
 84.5000
  20
 325.000
  30
0.0
  11
 87.5000
  21
 325.529
  31
0.0
   0
LINE
   8
LEVEL003
   6
CONTINUOUS
  62
3
  10
 130.500
  20
 325.000
  30
0.0
  11
 127.500
  21
 325.529
  31
0.0
   0
LINE
   8
LEVEL003
   6
CONTINUOUS
  62
3
  10
 130.500
  20
 325.000
  30
0.0
  11
 127.500
  21
 324.471
  31
0.0
   0
TEXT
   8
LEVEL003
  62
3
  10
 103.500
  20
 325.800
  30
0.0
  40
 4.00000
   1
%%c46
   7
STANDARD
  72
1
  11
 107.500
  21
 325.800
  31
0.0
   0
LINE
   8
LEVEL003
   6
CONTINUOUS
  62
3
  10
 124.000
  20
 290.000
  30
0.0
  11
 157.500
  21
 310.000
  31
0.0
   0
LINE
   8
LEVEL003
   6
CONTINUOUS
  62
3
  10
 124.000
  20
 290.000
  30
0.0
  11
 126.847
  21
 291.084
  31
0.0
   0
LINE
   8
LEVEL003
   6
CONTINUOUS
  62
3
  10
 124.000
  20
 290.000
  30
0.0
  11
 126.305
  21
 291.992
  31
0.0
   0
TEXT
   8
LEVEL003
  62
3
  10
 157.500
  20
 310.000
  30
0.0
  40
 4.00000
   1
Ｍ３３×２
   7
STANDARD
   0
TEXT
   8
LEVEL003
  62
3
  10
 172.500
  20
 270.000
  30
0.0
  40
 4.00000
   1
Ｍ６７×１．５
   7
STANDARD
   0
LINE
   8
LEVEL003
   6
CONTINUOUS
  62
3
  10
 141.000
  20
 280.000
  30
0.0
  11
 172.500
  21
 270.000
  31
0.0
   0
LINE
   8
LEVEL003
   6
CONTINUOUS
  62
3
  10
 141.000
  20
 280.000
  30
0.0
  11
 143.699
  21
 278.588
  31
0.0
   0
LINE
   8
LEVEL003
   6
CONTINUOUS
  62
3
  10
 141.000
  20
 280.000
  30
0.0
  11
 144.019
  21
 279.596
  31
0.0
   0
LINE
   8
LEVEL003
   6
CONTINUOUS
  62
3
  10
 81.5000
  20
 230.000
  30
0.0
  11
 133.500
  21
 230.000
  31
0.0
   0
LINE
   8
LEVEL003
   6
CONTINUOUS
  62
3
  10
 81.5000
  20
 230.000
  30
0.0
  11
 84.5000
  21
 229.471
  31
0.0
   0
LINE
   8
LEVEL003
   6
CONTINUOUS
  62
3
  10
 81.5000
  20
 230.000
  30
0.0
  11
 84.5000
  21
 230.529
  31
0.0
   0
LINE
   8
LEVEL003
   6
CONTINUOUS
  62
3
  10
 133.500
  20
 230.000
  30
0.0
  11
 130.500
  21
 230.529
  31
0.0
   0
LINE
   8
LEVEL003
   6
CONTINUOUS
  62
3
  10
 133.500
  20
 230.000
  30
0.0
  11
 130.500
  21
 229.471
  31
0.0
   0
TEXT
   8
LEVEL003
  62
3
  10
 103.500
  20
 230.800
  30
0.0
  40
 4.00000
   1
%%c52
   7
STANDARD
  72
1
  11
 107.500
  21
 230.800
  31
0.0
   0
LINE
   8
LEVEL003
   6
CONTINUOUS
  62
3
  10
 127.500
  20
 305.000
  30
0.0
  11
 244.500
  21
 305.000
  31
0.0
   0
LINE
   8
LEVEL003
   6
CONTINUOUS
  62
3
  10
 242.500
  20
 305.000
  30
0.0
  11
 242.500
  21
 115.000
  31
0.0
   0
LINE
   8
LEVEL003
   6
CONTINUOUS
  62
3
  10
 242.500
  20
 305.000
  30
0.0
  11
 241.971
  21
 302.000
  31
0.0
   0
LINE
   8
LEVEL003
   6
CONTINUOUS
  62
3
  10
 242.500
  20
 305.000
  30
0.0
  11
 243.029
  21
 302.000
  31
0.0
   0
LINE
   8
LEVEL001
   6
DASHDOT
  62
1
  10
 107.500
  20
 110.000
  30
0.0
  11
 107.500
  21
 230.000
  31
0.0
   0
LINE
   8
LEVEL001
   6
DASHDOT
  62
1
  10
 107.500
  20
 235.000
  30
0.0
  11
 107.500
  21
 310.000
  31
0.0
   0
LINE
   8
LEVEL001
   6
CONTINUOUS
  62
7
  10
 126.500
  20
 305.000
  30
0.0
  11
 127.500
  21
 304.000
  31
0.0
   0
LINE
   8
LEVEL001
   6
CONTINUOUS
  62
7
  10
 127.500
  20
 304.000
  30
0.0
  11
 127.500
  21
 298.000
  31
0.0
   0
LINE
   8
LEVEL001
   6
CONTINUOUS
  62
7
  10
 88.5000
  20
 305.000
  30
0.0
  11
 87.5000
  21
 304.000
  31
0.0
   0
LINE
   8
LEVEL001
   6
CONTINUOUS
  62
7
  10
 87.5000
  20
 304.000
  30
0.0
  11
 87.5000
  21
 298.000
  31
0.0
   0
LINE
   8
LEVEL001
   6
CONTINUOUS
  62
7
  10
 88.5000
  20
 305.000
  30
0.0
  11
 126.500
  21
 305.000
  31
0.0
   0
LINE
   8
LEVEL001
   6
CONTINUOUS
  62
7
  10
 76.2500
  20
 298.000
  30
0.0
  11
 138.750
  21
 298.000
  31
0.0
   0
LINE
   8
LEVEL001
   6
CONTINUOUS
  62
3
  10
 140.250
  20
 294.000
  30
0.0
  11
 140.250
  21
 265.000
  31
0.0
   0
LINE
   8
LEVEL001
   6
CONTINUOUS
  62
3
  10
 74.7500
  20
 294.000
  30
0.0
  11
 74.7500
  21
 265.000
  31
0.0
   0
LINE
   8
LEVEL001
   6
CONTINUOUS
  62
7
  10
 141.000
  20
 262.201
  30
0.0
  11
 74.0000
  21
 262.201
  31
0.0
   0
LINE
   8
LEVEL001
   6
CONTINUOUS
  62
7
  10
 74.7500
  20
 294.000
  30
0.0
  11
 140.250
  21
 294.000
  31
0.0
   0
LINE
   8
LEVEL001
   6
CONTINUOUS
  62
7
  10
 75.2500
  20
 297.000
  30
0.0
  11
 139.750
  21
 297.000
  31
0.0
   0
LINE
   8
LEVEL001
   6
CONTINUOUS
  62
7
  10
 127.500
  20
 304.000
  30
0.0
  11
 87.5000
  21
 304.000
  31
0.0
   0
LINE
   8
LEVEL001
   6
CONTINUOUS
  62
7
  10
 141.000
  20
 117.000
  30
0.0
  11
 141.000
  21
 262.201
  31
0.0
   0
LINE
   8
LEVEL001
   6
CONTINUOUS
  62
3
  10
 74.0000
  20
 265.000
  30
0.0
  11
 141.000
  21
 265.000
  31
0.0
   0
LINE
   8
LEVEL001
   6
CONTINUOUS
  62
3
  10
 141.000
  20
 293.250
  30
0.0
  11
 74.0000
  21
 293.250
  31
0.0
   0
ARC
   8
LEVEL004
   6
DOT
  62
3
  10
 95.5000
  20
 305.000
  30
0.0
  40
 1.00000
  50
 180.000
  51
0.0
   0
ARC
   8
LEVEL004
   6
DOT
  62
3
  10
 101.500
  20
 305.000
  30
0.0
  40
 1.00000
  50
 180.000
  51
0.0
   0
ARC
   8
LEVEL004
   6
DOT
  62
3
  10
 119.500
  20
 305.000
  30
0.0
  40
 1.00000
  50
 180.000
  51
0.0
   0
ARC
   8
LEVEL004
   6
DOT
  62
3
  10
 113.500
  20
 305.000
  30
0.0
  40
 1.00000
  50
 180.000
  51
0.0
   0
LINE
   8
LEVEL004
   6
DOT
  62
3
  10
 124.000
  20
 297.500
  30
0.0
  11
 124.500
  21
 298.000
  31
0.0
   0
LINE
   8
LEVEL004
   6
DOT
  62
3
  10
 124.000
  20
 297.500
  30
0.0
  11
 124.000
  21
 295.990
  31
0.0
   0
ARC
   8
LEVEL004
   6
DOT
  62
3
  10
 124.250
  20
 296.500
  30
0.0
  40
 1.50000
  50
 90.0000
  51
 180.000
   0
LINE
   8
LEVEL004
   6
DOT
  62
3
  10
 123.000
  20
 295.000
  30
0.0
  11
 122.750
  21
 295.000
  31
0.0
   0
LINE
   8
LEVEL004
   6
DOT
  62
3
  10
 122.750
  20
 296.000
  30
0.0
  11
 124.000
  21
 296.000
  31
0.0
   0
LINE
   8
LEVEL004
   6
DOT
  62
3
  10
 124.000
  20
 296.000
  30
0.0
  11
 123.000
  21
 295.000
  31
0.0
   0
LINE
   8
LEVEL004
   6
DOT
  62
3
  10
 123.000
  20
 295.000
  30
0.0
  11
 123.000
  21
 282.000
  31
0.0
   0
LINE
   8
LEVEL004
   6
DOT
  62
3
  10
 124.000
  20
 296.000
  30
0.0
  11
 124.000
  21
 281.000
  31
0.0
   0
LINE
   8
LEVEL004
   6
DOT
  62
3
  10
 122.750
  20
 296.500
  30
0.0
  11
 122.750
  21
 285.000
  31
0.0
   0
ARC
   8
LEVEL004
   6
DOT
  62
3
  10
 123.000
  20
 281.000
  30
0.0
  40
 1.00000
  50
0.0
  51
 90.0000
   0
ARC
   8
LEVEL004
   6
DOT
  62
3
  10
 123.000
  20
 280.000
  30
0.0
  40
 1.00000
  50
 270.000
  51
0.0
   0
LINE
   8
LEVEL004
   6
DOT
  62
3
  10
 124.000
  20
 281.000
  30
0.0
  11
 124.000
  21
 280.000
  31
0.0
   0
LINE
   8
LEVEL004
   6
DOT
  62
3
  10
 122.750
  20
 285.000
  30
0.0
  11
 121.750
  21
 284.000
  31
0.0
   0
LINE
   8
LEVEL004
   6
DOT
  62
3
  10
 123.000
  20
 282.000
  30
0.0
  11
 92.0000
  21
 282.000
  31
0.0
   0
LINE
   8
LEVEL004
   6
DOT
  62
3
  10
 123.000
  20
 279.000
  30
0.0
  11
 92.0000
  21
 279.000
  31
0.0
   0
LINE
   8
LEVEL004
   6
DOT
  62
3
  10
 121.750
  20
 284.000
  30
0.0
  11
 93.2500
  21
 284.000
  31
0.0
   0
LINE
   8
LEVEL004
   6
DASHDOT
  62
1
  10
 89.2500
  20
 290.000
  30
0.0
  11
 108.405
  21
 290.000
  31
0.0
   0
LINE
   8
LEVEL004
   6
DASHDOT
  62
1
  10
 104.539
  20
 291.500
  30
0.0
  11
 104.118
  21
 288.500
  31
0.0
   0
LINE
   8
LEVEL004
   6
DASHDOT
  62
1
  10
 104.118
  20
 288.500
  30
0.0
  11
 103.697
  21
 291.500
  31
0.0
   0
LINE
   8
LEVEL004
   6
DASHDOT
  62
1
  10
 103.697
  20
 291.500
  30
0.0
  11
 103.277
  21
 288.500
  31
0.0
   0
LINE
   8
LEVEL004
   6
DASHDOT
  62
1
  10
 103.277
  20
 288.500
  30
0.0
  11
 102.856
  21
 291.500
  31
0.0
   0
LINE
   8
LEVEL004
   6
DASHDOT
  62
1
  10
 102.856
  20
 291.500
  30
0.0
  11
 102.435
  21
 288.500
  31
0.0
   0
LINE
   8
LEVEL004
   6
DASHDOT
  62
1
  10
 102.435
  20
 288.500
  30
0.0
  11
 102.015
  21
 291.500
  31
0.0
   0
LINE
   8
LEVEL004
   6
DASHDOT
  62
1
  10
 102.015
  20
 291.500
  30
0.0
  11
 101.594
  21
 288.500
  31
0.0
   0
LINE
   8
LEVEL004
   6
DASHDOT
  62
1
  10
 101.594
  20
 288.500
  30
0.0
  11
 101.173
  21
 291.500
  31
0.0
   0
LINE
   8
LEVEL004
   6
DASHDOT
  62
1
  10
 101.173
  20
 291.500
  30
0.0
  11
 100.753
  21
 288.500
  31
0.0
   0
LINE
   8
LEVEL004
   6
DASHDOT
  62
1
  10
 100.753
  20
 288.500
  30
0.0
  11
 100.332
  21
 291.500
  31
0.0
   0
LINE
   8
LEVEL004
   6
DASHDOT
  62
1
  10
 100.332
  20
 291.500
  30
0.0
  11
 99.9111
  21
 288.500
  31
0.0
   0
LINE
   8
LEVEL004
   6
DASHDOT
  62
1
  10
 99.9111
  20
 288.500
  30
0.0
  11
 99.4904
  21
 291.500
  31
0.0
   0
LINE
   8
LEVEL004
   6
DASHDOT
  62
1
  10
 99.4904
  20
 291.500
  30
0.0
  11
 99.0697
  21
 288.500
  31
0.0
   0
LINE
   8
LEVEL004
   6
DASHDOT
  62
1
  10
 99.0697
  20
 288.500
  30
0.0
  11
 98.6490
  21
 291.500
  31
0.0
   0
LINE
   8
LEVEL004
   6
DASHDOT
  62
1
  10
 98.6490
  20
 291.500
  30
0.0
  11
 98.2283
  21
 288.500
  31
0.0
   0
LINE
   8
LEVEL004
   6
DASHDOT
  62
1
  10
 98.2283
  20
 288.500
  30
0.0
  11
 97.8076
  21
 291.500
  31
0.0
   0
LINE
   8
LEVEL004
   6
DASHDOT
  62
1
  10
 97.8076
  20
 291.500
  30
0.0
  11
 97.3870
  21
 288.500
  31
0.0
   0
LINE
   8
LEVEL004
   6
DASHDOT
  62
1
  10
 97.3870
  20
 288.500
  30
0.0
  11
 96.9663
  21
 291.500
  31
0.0
   0
LINE
   8
LEVEL004
   6
DASHDOT
  62
1
  10
 96.9663
  20
 291.500
  30
0.0
  11
 96.5456
  21
 288.500
  31
0.0
   0
LINE
   8
LEVEL004
   6
DASHDOT
  62
1
  10
 96.5456
  20
 288.500
  30
0.0
  11
 96.1249
  21
 291.500
  31
0.0
   0
LINE
   8
LEVEL004
   6
DASHDOT
  62
1
  10
 96.1249
  20
 291.500
  30
0.0
  11
 95.7042
  21
 288.500
  31
0.0
   0
LINE
   8
LEVEL004
   6
DOT
  62
3
  10
 92.2500
  20
 296.500
  30
0.0
  11
 92.2500
  21
 290.964
  31
0.0
   0
LINE
   8
LEVEL004
   6
DOT
  62
3
  10
 104.250
  20
 292.000
  30
0.0
  11
 104.250
  21
 288.000
  31
0.0
   0
LINE
   8
LEVEL004
   6
DOT
  62
3
  10
 92.2500
  20
 285.000
  30
0.0
  11
 93.2500
  21
 284.000
  31
0.0
   0
LINE
   8
LEVEL004
   6
DOT
  62
3
  10
 92.2500
  20
 289.036
  30
0.0
  11
 92.2500
  21
 285.000
  31
0.0
   0
LINE
   8
LEVEL004
   6
DOT
  62
3
  10
 91.0000
  20
 296.000
  30
0.0
  11
 92.0000
  21
 295.000
  31
0.0
   0
LINE
   8
LEVEL004
   6
DOT
  62
3
  10
 92.0000
  20
 295.000
  30
0.0
  11
 92.0000
  21
 282.000
  31
0.0
   0
CIRCLE
   8
LEVEL004
   6
DOT
  62
3
  10
 93.9844
  20
 290.000
  30
0.0
  40
 1.98438
   0
LINE
   8
LEVEL004
   6
DOT
  62
3
  10
 92.2500
  20
 288.000
  30
0.0
  11
 104.250
  21
 288.000
  31
0.0
   0
LINE
   8
LEVEL004
   6
DOT
  62
3
  10
 104.250
  20
 288.000
  30
0.0
  11
 105.405
  21
 290.000
  31
0.0
   0
LINE
   8
LEVEL004
   6
DOT
  62
3
  10
 105.405
  20
 290.000
  30
0.0
  11
 104.250
  21
 292.000
  31
0.0
   0
LINE
   8
LEVEL004
   6
DOT
  62
3
  10
 104.250
  20
 292.000
  30
0.0
  11
 92.2500
  21
 292.000
  31
0.0
   0
LINE
   8
LEVEL004
   6
DOT
  62
3
  10
 91.0000
  20
 281.000
  30
0.0
  11
 91.0000
  21
 280.000
  31
0.0
   0
LINE
   8
LEVEL004
   6
DOT
  62
3
  10
 91.0000
  20
 296.000
  30
0.0
  11
 91.0000
  21
 281.000
  31
0.0
   0
ARC
   8
LEVEL004
   6
DOT
  62
3
  10
 92.0000
  20
 281.000
  30
0.0
  40
 1.00000
  50
 90.0000
  51
 180.000
   0
ARC
   8
LEVEL004
   6
DOT
  62
3
  10
 92.0000
  20
 280.000
  30
0.0
  40
 1.00000
  50
 180.000
  51
 270.000
   0
LINE
   8
LEVEL004
   6
DOT
  62
3
  10
 91.0000
  20
 297.500
  30
0.0
  11
 90.5000
  21
 298.000
  31
0.0
   0
LINE
   8
LEVEL004
   6
DOT
  62
3
  10
 91.0000
  20
 297.500
  30
0.0
  11
 91.0000
  21
 295.990
  31
0.0
   0
ARC
   8
LEVEL004
   6
DOT
  62
3
  10
 90.7500
  20
 296.500
  30
0.0
  40
 1.50000
  50
0.0
  51
 90.0000
   0
LINE
   8
LEVEL004
   6
DOT
  62
3
  10
 92.0000
  20
 295.000
  30
0.0
  11
 92.2500
  21
 295.000
  31
0.0
   0
LINE
   8
LEVEL004
   6
DOT
  62
3
  10
 92.2500
  20
 296.000
  30
0.0
  11
 91.0000
  21
 296.000
  31
0.0
   0
LINE
   8
LEVEL004
   6
DOT
  62
3
  10
 81.5000
  20
 269.000
  30
0.0
  11
 81.5000
  21
 149.800
  31
0.0
   0
LINE
   8
LEVEL004
   6
DOT
  62
3
  10
 84.5000
  20
 227.000
  30
0.0
  11
 84.5000
  21
 296.000
  31
0.0
   0
LINE
   8
LEVEL004
   6
DOT
  62
3
  10
 133.500
  20
 269.000
  30
0.0
  11
 133.500
  21
 149.800
  31
0.0
   0
LINE
   8
LEVEL004
   6
DOT
  62
3
  10
 130.500
  20
 227.000
  30
0.0
  11
 130.500
  21
 296.000
  31
0.0
   0
TEXT
   8
LEVEL003
  62
3
  10
 241.700
  20
 203.750
  30
0.0
  40
 4.00000
   1
190
  50
 90.0000
  41
 0.500000
   7
STANDARD
  72
1
  11
 241.700
  21
 206.750
  31
0.0
   0
TEXT
   8
LEVEL003
  62
7
  10
 222.102
  20
 32.1134
  30
0.0
  40
 6.00000
   1
Model : Ｅ１５Ｓ１０
   7
STANDARD
   0
LINE
   8
LEVEL003
   6
CONTINUOUS
  62
3
  10
 152.500
  20
 105.000
  30
0.0
  11
 180.923
  21
 105.000
  31
0.0
   0
LINE
   8
LEVEL003
   6
CONTINUOUS
  62
3
  10
 172.500
  20
 270.000
  30
0.0
  11
 205.189
  21
 270.000
  31
0.0
   0
LINE
   8
LEVEL003
   6
CONTINUOUS
  62
3
  10
 157.500
  20
 310.000
  30
0.0
  11
 180.077
  21
 310.000
  31
0.0
   0
LINE
   8
LEVEL003
   6
CONTINUOUS
  62
3
  10
 139.750
  20
 298.000
  30
0.0
  11
 159.500
  21
 298.000
  31
0.0
   0
LINE
   8
LEVEL003
   6
CONTINUOUS
  62
3
  10
 145.000
  20
 294.000
  30
0.0
  11
 159.500
  21
 294.000
  31
0.0
   0
LINE
   8
LEVEL003
   6
CONTINUOUS
  62
3
  10
 157.500
  20
 298.000
  30
0.0
  11
 157.500
  21
 294.000
  31
0.0
   0
LINE
   8
LEVEL003
   6
CONTINUOUS
  62
3
  10
 157.500
  20
 294.000
  30
0.0
  11
 157.500
  21
 290.000
  31
0.0
   0
LINE
   8
LEVEL003
   6
CONTINUOUS
  62
3
  10
 157.500
  20
 298.000
  30
0.0
  11
 158.029
  21
 301.000
  31
0.0
   0
LINE
   8
LEVEL003
   6
CONTINUOUS
  62
3
  10
 157.500
  20
 298.000
  30
0.0
  11
 156.971
  21
 301.000
  31
0.0
   0
LINE
   8
LEVEL003
   6
CONTINUOUS
  62
3
  10
 157.500
  20
 294.000
  30
0.0
  11
 156.971
  21
 291.000
  31
0.0
   0
LINE
   8
LEVEL003
   6
CONTINUOUS
  62
3
  10
 157.500
  20
 294.000
  30
0.0
  11
 158.029
  21
 291.000
  31
0.0
   0
LINE
   8
LEVEL003
   6
CONTINUOUS
  62
3
  10
 157.500
  20
 298.000
  30
0.0
  11
 157.500
  21
 301.750
  31
0.0
   0
LINE
   8
LEVEL003
   6
CONTINUOUS
  62
3
  10
 157.500
  20
 294.000
  30
0.0
  11
 157.500
  21
 290.000
  31
0.0
   0
TEXT
   8
LEVEL003
  62
3
  10
 156.700
  20
 290.000
  30
0.0
  40
 4.00000
   1
4
  50
 90.0000
   7
STANDARD
  72
1
  11
 156.700
  21
 292.000
  31
0.0
   0
LINE
   8
LEVEL003
   6
CONTINUOUS
  62
3
  10
 127.500
  20
 305.000
  30
0.0
  11
 169.500
  21
 305.000
  31
0.0
   0
LINE
   8
LEVEL003
   6
CONTINUOUS
  62
3
  10
 139.750
  20
 298.000
  30
0.0
  11
 169.500
  21
 298.000
  31
0.0
   0
LINE
   8
LEVEL003
   6
CONTINUOUS
  62
3
  10
 167.500
  20
 305.000
  30
0.0
  11
 167.500
  21
 298.000
  31
0.0
   0
LINE
   8
LEVEL003
   6
CONTINUOUS
  62
3
  10
 167.500
  20
 305.000
  30
0.0
  11
 166.971
  21
 302.000
  31
0.0
   0
LINE
   8
LEVEL003
   6
CONTINUOUS
  62
3
  10
 167.500
  20
 305.000
  30
0.0
  11
 168.029
  21
 302.000
  31
0.0
   0
LINE
   8
LEVEL003
   6
CONTINUOUS
  62
3
  10
 167.500
  20
 298.000
  30
0.0
  11
 168.029
  21
 301.000
  31
0.0
   0
LINE
   8
LEVEL003
   6
CONTINUOUS
  62
3
  10
 167.500
  20
 298.000
  30
0.0
  11
 166.971
  21
 301.000
  31
0.0
   0
TEXT
   8
LEVEL003
  62
3
  10
 166.700
  20
 299.500
  30
0.0
  40
 4.00000
   1
7
  50
 90.0000
   7
STANDARD
  72
1
  11
 166.700
  21
 301.500
  31
0.0
   0
LINE
   8
LEVEL003
   6
CONTINUOUS
  62
3
  10
 139.750
  20
 298.000
  30
0.0
  11
 169.500
  21
 298.000
  31
0.0
   0
LINE
   8
LEVEL003
   6
CONTINUOUS
  62
3
  10
 145.000
  20
 265.000
  30
0.0
  11
 169.500
  21
 265.000
  31
0.0
   0
LINE
   8
LEVEL003
   6
CONTINUOUS
  62
3
  10
 167.500
  20
 298.000
  30
0.0
  11
 167.500
  21
 265.000
  31
0.0
   0
LINE
   8
LEVEL003
   6
CONTINUOUS
  62
3
  10
 167.500
  20
 298.000
  30
0.0
  11
 166.971
  21
 295.000
  31
0.0
   0
LINE
   8
LEVEL003
   6
CONTINUOUS
  62
3
  10
 167.500
  20
 298.000
  30
0.0
  11
 168.029
  21
 295.000
  31
0.0
   0
LINE
   8
LEVEL003
   6
CONTINUOUS
  62
3
  10
 167.500
  20
 265.000
  30
0.0
  11
 168.029
  21
 268.000
  31
0.0
   0
LINE
   8
LEVEL003
   6
CONTINUOUS
  62
3
  10
 167.500
  20
 265.000
  30
0.0
  11
 166.971
  21
 268.000
  31
0.0
   0
TEXT
   8
LEVEL003
  62
3
  10
 166.700
  20
 277.500
  30
0.0
  40
 4.00000
   1
33
  50
 90.0000
   7
STANDARD
  72
1
  11
 166.700
  21
 281.500
  31
0.0
   0
LINE
   8
LEVEL003
   6
CONTINUOUS
  62
3
  10
 123.500
  20
 298.000
  30
0.0
  11
 113.000
  21
 298.000
  31
0.0
   0
LINE
   8
LEVEL003
   6
CONTINUOUS
  62
3
  10
 115.000
  20
 279.000
  30
0.0
  11
 115.000
  21
 279.000
  31
0.0
   0
LINE
   8
LEVEL003
   6
CONTINUOUS
  62
3
  10
 115.000
  20
 298.000
  30
0.0
  11
 115.000
  21
 279.000
  31
0.0
   0
LINE
   8
LEVEL003
   6
CONTINUOUS
  62
3
  10
 115.000
  20
 298.000
  30
0.0
  11
 114.471
  21
 295.000
  31
0.0
   0
LINE
   8
LEVEL003
   6
CONTINUOUS
  62
3
  10
 115.000
  20
 298.000
  30
0.0
  11
 115.529
  21
 295.000
  31
0.0
   0
LINE
   8
LEVEL003
   6
CONTINUOUS
  62
3
  10
 115.000
  20
 279.000
  30
0.0
  11
 115.529
  21
 282.000
  31
0.0
   0
LINE
   8
LEVEL003
   6
CONTINUOUS
  62
3
  10
 115.000
  20
 279.000
  30
0.0
  11
 114.471
  21
 282.000
  31
0.0
   0
TEXT
   8
LEVEL003
  62
3
  10
 114.200
  20
 284.500
  30
0.0
  40
 4.00000
   1
19
  50
 90.0000
   7
STANDARD
  72
1
  11
 114.200
  21
 288.500
  31
0.0
   0
ENDSEC
   0
EOF
