   0
SECTION
   2
HEADER
   9
$LIMMIN
  10
0.0
  20
0.0
   9
$LIMMAX
  10
 420.000
  20
 297.000
   9
$EXTMIN
  10
0.0
  20
0.0
   9
$EXTMAX
  10
 420.000
  20
 297.000
   9
$LTSCALE
  40
 8.40000
   0
ENDSEC
   0
SECTION
   2
TABLES
  0
TABLE
  2
LTYPE
 70
    25
  0
LTYPE
  2
CONTINUOUS
 70
    64
  3
Solid line
 72
    65
 73
     0
 40
0.0
  0
LTYPE
  2
BORDER
 70
    64
  3
__ __ . __ __ . __ __ . __ __ . __ __ . __ __ .
 72
    65
 73
     6
 40
1.75
 49
0.5
 49
-0.25
 49
0.5
 49
-0.25
 49
0.0
 49
-0.25
  0
LTYPE
  2
BORDER2
 70
    64
  3
__.__.__.__.__.__.__.__.__.__.__.__.__.__.__.__
 72
    65
 73
     6
 40
0.875
 49
0.25
 49
-0.125
 49
0.25
 49
-0.125
 49
0.0
 49
-0.125
  0
LTYPE
  2
BORDERX2
 70
    64
  3
____  ____  .  ____  ____  .  ____  ____  .  __
 72
    65
 73
     6
 40
3.5
 49
1.0
 49
-0.5
 49
1.0
 49
-0.5
 49
0.0
 49
-0.5
  0
LTYPE
  2
CENTER
 70
    64
  3
____ _ ____ _ ____ _ ____ _ ____ _ ____ _ ____ 
 72
    65
 73
     4
 40
2.0
 49
1.25
 49
-0.25
 49
0.25
 49
-0.25
  0
LTYPE
  2
CENTER2
 70
    64
  3
___ _ ___ _ ___ _ ___ _ ___ _ ___ _ ___ _ ___ _
 72
    65
 73
     4
 40
1.125
 49
0.75
 49
-0.125
 49
0.125
 49
-0.125
  0
LTYPE
  2
CENTERX2
 70
    64
  3
________  __  ________  __  ________  __  _____
 72
    65
 73
     4
 40
4.0
 49
2.5
 49
-0.5
 49
0.5
 49
-0.5
  0
LTYPE
  2
DASHDOT
 70
    64
  3
__ . __ . __ . __ . __ . __ . __ . __ . __ . __
 72
    65
 73
     4
 40
1.0
 49
0.5
 49
-0.25
 49
0.0
 49
-0.25
  0
LTYPE
  2
DASHDOT2
 70
    64
  3
_._._._._._._._._._._._._._._._._._._._._._._._
 72
    65
 73
     4
 40
0.5
 49
0.25
 49
-0.125
 49
0.0
 49
-0.125
  0
LTYPE
  2
DASHDOTX2
 70
    64
  3
____  .  ____  .  ____  .  ____  .  ____  .  __
 72
    65
 73
     4
 40
2.0
 49
1.0
 49
-0.5
 49
0.0
 49
-0.5
  0
LTYPE
  2
DASHED
 70
    64
  3
__ __ __ __ __ __ __ __ __ __ __ __ __ __ __ __
 72
    65
 73
     2
 40
0.75
 49
0.5
 49
-0.25
  0
LTYPE
  2
DASHED2
 70
    64
  3
_ _ _ _ _ _ _ _ _ _ _ _ _ _ _ _ _ _ _ _ _ _ _ _
 72
    65
 73
     2
 40
0.375
 49
0.25
 49
-0.125
  0
LTYPE
  2
DASHEDX2
 70
    64
  3
____  ____  ____  ____  ____  ____  ____  ____ 
 72
    65
 73
     2
 40
1.5
 49
1.0
 49
-0.5
  0
LTYPE
  2
DIVIDE
 70
    64
  3
____ . . ____ . . ____ . . ____ . . ____ . . __
 72
    65
 73
     6
 40
1.25
 49
0.5
 49
-0.25
 49
0.0
 49
-0.25
 49
0.0
 49
-0.25
  0
LTYPE
  2
DIVIDE2
 70
    64
  3
__..__..__..__..__..__..__..__..__..__..__..__.
 72
    65
 73
     6
 40
0.625
 49
0.25
 49
-0.125
 49
0.0
 49
-0.125
 49
0.0
 49
-0.125
  0
LTYPE
  2
DIVIDEX2
 70
    64
  3
________  .  .  ________  .  .  ________  .  . 
 72
    65
 73
     6
 40
2.5
 49
1.0
 49
-0.5
 49
0.0
 49
-0.5
 49
0.0
 49
-0.5
  0
LTYPE
  2
DOT
 70
    64
  3
. . . . . . . . . . . . . . . . . . . . . . . .
 72
    65
 73
     2
 40
0.25
 49
0.0
 49
-0.25
  0
LTYPE
  2
DOT2
 70
    64
  3
...............................................
 72
    65
 73
     2
 40
0.125
 49
0.0
 49
-0.125
  0
LTYPE
  2
DOTX2
 70
    64
  3
.  .  .  .  .  .  .  .  .  .  .  .  .  .  .  . 
 72
    65
 73
     2
 40
0.5
 49
0.0
 49
-0.5
  0
LTYPE
  2
HIDDEN
 70
    64
  3
__ __ __ __ __ __ __ __ __ __ __ __ __ __ __ __
 72
    65
 73
     2
 40
0.375
 49
0.25
 49
-0.125
  0
LTYPE
  2
HIDDEN2
 70
    64
  3
_ _ _ _ _ _ _ _ _ _ _ _ _ _ _ _ _ _ _ _ _ _ _ _
 72
    65
 73
     2
 40
0.1875
 49
0.125
 49
-0.0625
  0
LTYPE
  2
HIDDENX2
 70
    64
  3
____ ____ ____ ____ ____ ____ ____ ____ ____ __
 72
    65
 73
     2
 40
0.75
 49
0.5
 49
-0.25
  0
LTYPE
  2
PHANTOM
 70
    64
  3
______  __  __  ______  __  __  ______  __  __ 
 72
    65
 73
     6
 40
2.5
 49
1.25
 49
-0.25
 49
0.25
 49
-0.25
 49
0.25
 49
-0.25
  0
LTYPE
  2
PHANTOM2
 70
    64
  3
___ _ _ ___ _ _ ___ _ _ ___ _ _ ___ _ _ ___ _ _
 72
    65
 73
     6
 40
1.25
 49
0.625
 49
-0.125
 49
0.125
 49
-0.125
 49
0.125
 49
-0.125
  0
LTYPE
  2
PHANTOMX2
 70
    64
  3
____________    ____    ____    ____________   
 72
    65
 73
     6
 40
5.0
 49
2.5
 49
-0.5
 49
0.5
 49
-0.5
 49
0.5
 49
-0.5
  0
ENDTAB
  0
TABLE
  2
STYLE
 70
     2
  0
STYLE
  2
STANDARD
 70
0
 40
0.0
 41
1.0
 50
0.0
 71
0
 42
0.2
  3
TXT
  4
BIGFONT
  0
STYLE
  2
STANDARD1
 70
     4
 40
0.0
 41
1.0
 50
0.0
 71
     0
 42
0.2
  3
TXT
  4
BIGFONT
  0
ENDTAB
   0
TABLE
   2
LAYER
  70
4
   0
LAYER
   2
0
  70
0
  62
7
   6
CONTINUOUS
   0
LAYER
   2
LEVEL001
  70
0
  62
7
   6
CONTINUOUS
   0
LAYER
   2
LEVEL003
  70
0
  62
7
   6
CONTINUOUS
   0
LAYER
   2
LEVEL004
  70
0
  62
7
   6
CONTINUOUS
   0
ENDTAB
   0
ENDSEC
   0
SECTION
   2
ENTITIES
   0
LINE
   8
LEVEL001
   6
CONTINUOUS
  62
7
  10
 118.500
  20
 117.000
  30
0.0
  11
 116.500
  21
 115.000
  31
0.0
   0
LINE
   8
LEVEL001
   6
CONTINUOUS
  62
7
  10
 117.250
  20
 217.000
  30
0.0
  11
 116.250
  21
 218.000
  31
0.0
   0
LINE
   8
LEVEL001
   6
CONTINUOUS
  62
7
  10
 117.250
  20
 214.000
  30
0.0
  11
 117.250
  21
 217.000
  31
0.0
   0
LINE
   8
LEVEL001
   6
CONTINUOUS
  62
7
  10
 117.750
  20
 214.000
  30
0.0
  11
 118.500
  21
 213.250
  31
0.0
   0
LINE
   8
LEVEL001
   6
CONTINUOUS
  62
7
  10
 118.500
  20
 213.250
  30
0.0
  11
 118.500
  21
 182.201
  31
0.0
   0
LINE
   8
LEVEL001
   6
CONTINUOUS
  62
3
  10
 117.750
  20
 185.000
  30
0.0
  11
 118.500
  21
 182.201
  31
0.0
   0
LINE
   8
LEVEL001
   6
CONTINUOUS
  62
7
  10
 51.5000
  20
 117.000
  30
0.0
  11
 53.5000
  21
 115.000
  31
0.0
   0
LINE
   8
LEVEL001
   6
CONTINUOUS
  62
7
  10
 52.7500
  20
 217.000
  30
0.0
  11
 53.7500
  21
 218.000
  31
0.0
   0
LINE
   8
LEVEL001
   6
CONTINUOUS
  62
7
  10
 52.7500
  20
 214.000
  30
0.0
  11
 52.7500
  21
 217.000
  31
0.0
   0
LINE
   8
LEVEL001
   6
CONTINUOUS
  62
7
  10
 51.5000
  20
 117.000
  30
0.0
  11
 51.5000
  21
 182.201
  31
0.0
   0
LINE
   8
LEVEL001
   6
CONTINUOUS
  62
7
  10
 52.2500
  20
 214.000
  30
0.0
  11
 51.5000
  21
 213.250
  31
0.0
   0
LINE
   8
LEVEL001
   6
CONTINUOUS
  62
7
  10
 51.5000
  20
 213.250
  30
0.0
  11
 51.5000
  21
 182.201
  31
0.0
   0
LINE
   8
LEVEL001
   6
CONTINUOUS
  62
3
  10
 52.2500
  20
 185.000
  30
0.0
  11
 51.5000
  21
 182.201
  31
0.0
   0
LINE
   8
LEVEL001
   6
CONTINUOUS
  62
7
  10
 53.5000
  20
 115.000
  30
0.0
  11
 116.500
  21
 115.000
  31
0.0
   0
POINT
   8
LEVEL001
  62
7
  10
 117.504
  20
 133.913
  30
0.0
   0
LINE
   8
LEVEL001
   6
DASHDOT
  62
1
  10
 121.500
  20
 214.000
  30
0.0
  11
 121.500
  21
 185.000
  31
0.0
   0
LINE
   8
LEVEL001
   6
DASHDOT
  62
1
  10
 117.750
  20
 214.000
  30
0.0
  11
 121.500
  21
 214.000
  31
0.0
   0
LINE
   8
LEVEL001
   6
DASHDOT
  62
1
  10
 118.500
  20
 185.000
  30
0.0
  11
 121.500
  21
 185.000
  31
0.0
   0
LINE
   8
LEVEL001
   6
DASHDOT
  62
1
  10
 48.5000
  20
 214.000
  30
0.0
  11
 48.5000
  21
 185.000
  31
0.0
   0
LINE
   8
LEVEL001
   6
DASHDOT
  62
1
  10
 52.2500
  20
 214.000
  30
0.0
  11
 48.5000
  21
 214.000
  31
0.0
   0
LINE
   8
LEVEL001
   6
DASHDOT
  62
1
  10
 51.5000
  20
 185.000
  30
0.0
  11
 48.5000
  21
 185.000
  31
0.0
   0
LINE
   8
LEVEL003
   6
CONTINUOUS
  62
3
  10
 65.0000
  20
 225.000
  30
0.0
  11
 65.0000
  21
 237.000
  31
0.0
   0
LINE
   8
LEVEL003
   6
CONTINUOUS
  62
3
  10
 105.000
  20
 225.000
  30
0.0
  11
 105.000
  21
 237.000
  31
0.0
   0
LINE
   8
LEVEL003
   6
CONTINUOUS
  62
3
  10
 65.0000
  20
 235.000
  30
0.0
  11
 105.000
  21
 235.000
  31
0.0
   0
LINE
   8
LEVEL003
   6
CONTINUOUS
  62
3
  10
 65.0000
  20
 235.000
  30
0.0
  11
 68.0000
  21
 234.471
  31
0.0
   0
LINE
   8
LEVEL003
   6
CONTINUOUS
  62
3
  10
 65.0000
  20
 235.000
  30
0.0
  11
 68.0000
  21
 235.529
  31
0.0
   0
LINE
   8
LEVEL003
   6
CONTINUOUS
  62
3
  10
 105.000
  20
 235.000
  30
0.0
  11
 102.000
  21
 235.529
  31
0.0
   0
LINE
   8
LEVEL003
   6
CONTINUOUS
  62
3
  10
 105.000
  20
 235.000
  30
0.0
  11
 102.000
  21
 234.471
  31
0.0
   0
TEXT
   8
LEVEL003
  62
3
  10
 81.0000
  20
 235.800
  30
0.0
  40
 4.00000
   1
%%c40
   7
STANDARD
  72
1
  11
 85.0000
  21
 235.800
  31
0.0
   0
LINE
   8
LEVEL003
   6
CONTINUOUS
  62
3
  10
 62.0000
  20
 217.000
  30
0.0
  11
 62.0000
  21
 247.000
  31
0.0
   0
LINE
   8
LEVEL003
   6
CONTINUOUS
  62
3
  10
 108.000
  20
 217.000
  30
0.0
  11
 108.000
  21
 247.000
  31
0.0
   0
LINE
   8
LEVEL003
   6
CONTINUOUS
  62
3
  10
 62.0000
  20
 245.000
  30
0.0
  11
 108.000
  21
 245.000
  31
0.0
   0
LINE
   8
LEVEL003
   6
CONTINUOUS
  62
3
  10
 62.0000
  20
 245.000
  30
0.0
  11
 65.0000
  21
 244.471
  31
0.0
   0
LINE
   8
LEVEL003
   6
CONTINUOUS
  62
3
  10
 62.0000
  20
 245.000
  30
0.0
  11
 65.0000
  21
 245.529
  31
0.0
   0
LINE
   8
LEVEL003
   6
CONTINUOUS
  62
3
  10
 108.000
  20
 245.000
  30
0.0
  11
 105.000
  21
 245.529
  31
0.0
   0
LINE
   8
LEVEL003
   6
CONTINUOUS
  62
3
  10
 108.000
  20
 245.000
  30
0.0
  11
 105.000
  21
 244.471
  31
0.0
   0
TEXT
   8
LEVEL003
  62
3
  10
 81.0000
  20
 245.800
  30
0.0
  40
 4.00000
   1
%%c46
   7
STANDARD
  72
1
  11
 85.0000
  21
 245.800
  31
0.0
   0
LINE
   8
LEVEL003
   6
CONTINUOUS
  62
3
  10
 64.0000
  20
 111.000
  30
0.0
  11
 64.0000
  21
 98.0000
  31
0.0
   0
LINE
   8
LEVEL003
   6
CONTINUOUS
  62
3
  10
 106.000
  20
 111.000
  30
0.0
  11
 106.000
  21
 98.0000
  31
0.0
   0
LINE
   8
LEVEL003
   6
CONTINUOUS
  62
3
  10
 64.0000
  20
 100.000
  30
0.0
  11
 106.000
  21
 100.000
  31
0.0
   0
LINE
   8
LEVEL003
   6
CONTINUOUS
  62
3
  10
 64.0000
  20
 100.000
  30
0.0
  11
 67.0000
  21
 99.4710
  31
0.0
   0
LINE
   8
LEVEL003
   6
CONTINUOUS
  62
3
  10
 64.0000
  20
 100.000
  30
0.0
  11
 67.0000
  21
 100.529
  31
0.0
   0
LINE
   8
LEVEL003
   6
CONTINUOUS
  62
3
  10
 106.000
  20
 100.000
  30
0.0
  11
 103.000
  21
 100.529
  31
0.0
   0
LINE
   8
LEVEL003
   6
CONTINUOUS
  62
3
  10
 106.000
  20
 100.000
  30
0.0
  11
 103.000
  21
 99.4710
  31
0.0
   0
TEXT
   8
LEVEL003
  62
3
  10
 81.0000
  20
 100.800
  30
0.0
  40
 4.00000
   1
%%c42
   7
STANDARD
  72
1
  11
 85.0000
  21
 100.800
  31
0.0
   0
LINE
   8
LEVEL003
   6
CONTINUOUS
  62
3
  10
 51.5000
  20
 116.000
  30
0.0
  11
 51.5000
  21
 88.0000
  31
0.0
   0
LINE
   8
LEVEL003
   6
CONTINUOUS
  62
3
  10
 118.500
  20
 116.000
  30
0.0
  11
 118.500
  21
 88.0000
  31
0.0
   0
LINE
   8
LEVEL003
   6
CONTINUOUS
  62
3
  10
 51.5000
  20
 90.0000
  30
0.0
  11
 118.500
  21
 90.0000
  31
0.0
   0
LINE
   8
LEVEL003
   6
CONTINUOUS
  62
3
  10
 51.5000
  20
 90.0000
  30
0.0
  11
 54.5000
  21
 89.4710
  31
0.0
   0
LINE
   8
LEVEL003
   6
CONTINUOUS
  62
3
  10
 51.5000
  20
 90.0000
  30
0.0
  11
 54.5000
  21
 90.5290
  31
0.0
   0
LINE
   8
LEVEL003
   6
CONTINUOUS
  62
3
  10
 118.500
  20
 90.0000
  30
0.0
  11
 115.500
  21
 90.5290
  31
0.0
   0
LINE
   8
LEVEL003
   6
CONTINUOUS
  62
3
  10
 118.500
  20
 90.0000
  30
0.0
  11
 115.500
  21
 89.4710
  31
0.0
   0
TEXT
   8
LEVEL003
  62
3
  10
 81.0000
  20
 90.8000
  30
0.0
  40
 4.00000
   1
%%c67
   7
STANDARD
  72
1
  11
 85.0000
  21
 90.8000
  31
0.0
   0
TEXT
   8
LEVEL003
  62
3
  10
 130.000
  20
 105.000
  30
0.0
  40
 4.00000
   1
ＮＰＴ３／８
   7
STANDARD
   0
LINE
   8
LEVEL003
   6
CONTINUOUS
  62
3
  10
 121.558
  20
 125.800
  30
0.0
  11
 130.000
  21
 105.000
  31
0.0
   0
LINE
   8
LEVEL003
   6
CONTINUOUS
  62
3
  10
 121.558
  20
 125.800
  30
0.0
  11
 122.196
  21
 122.821
  31
0.0
   0
LINE
   8
LEVEL003
   6
CONTINUOUS
  62
3
  10
 121.558
  20
 125.800
  30
0.0
  11
 123.176
  21
 123.219
  31
0.0
   0
LINE
   8
LEVEL003
   6
CONTINUOUS
  62
3
  10
 118.500
  20
 200.000
  30
0.0
  11
 150.000
  21
 190.000
  31
0.0
   0
LINE
   8
LEVEL003
   6
CONTINUOUS
  62
3
  10
 118.500
  20
 200.000
  30
0.0
  11
 121.199
  21
 198.588
  31
0.0
   0
LINE
   8
LEVEL003
   6
CONTINUOUS
  62
3
  10
 118.500
  20
 200.000
  30
0.0
  11
 121.519
  21
 199.596
  31
0.0
   0
LINE
   8
LEVEL003
   6
CONTINUOUS
  62
3
  10
 101.500
  20
 210.000
  30
0.0
  11
 135.000
  21
 230.000
  31
0.0
   0
LINE
   8
LEVEL003
   6
CONTINUOUS
  62
3
  10
 101.500
  20
 210.000
  30
0.0
  11
 104.347
  21
 211.084
  31
0.0
   0
LINE
   8
LEVEL003
   6
CONTINUOUS
  62
3
  10
 101.500
  20
 210.000
  30
0.0
  11
 103.805
  21
 211.992
  31
0.0
   0
TEXT
   8
LEVEL003
  62
3
  10
 135.000
  20
 230.000
  30
0.0
  40
 4.00000
   1
Ｍ３３×２
   7
STANDARD
   0
TEXT
   8
LEVEL003
  62
3
  10
 160.000
  20
 190.000
  30
0.0
  40
 4.00000
   1
Ｍ６７×１．５
   7
STANDARD
   0
LINE
   8
LEVEL001
   6
CONTINUOUS
  62
3
  10
 126.712
  20
 143.395
  30
0.0
  11
 123.194
  21
 142.115
  31
0.0
   0
LINE
   8
LEVEL001
   6
CONTINUOUS
  62
3
  10
 128.219
  20
 126.174
  30
0.0
  11
 124.532
  21
 126.824
  31
0.0
   0
LINE
   8
LEVEL001
   6
CONTINUOUS
  62
7
  10
 126.712
  20
 143.395
  30
0.0
  11
 128.116
  21
 144.378
  31
0.0
   0
LINE
   8
LEVEL001
   6
CONTINUOUS
  62
7
  10
 143.573
  20
 145.730
  30
0.0
  11
 128.116
  21
 144.378
  31
0.0
   0
LINE
   8
LEVEL001
   6
CONTINUOUS
  62
7
  10
 128.219
  20
 126.174
  30
0.0
  11
 129.772
  21
 125.450
  31
0.0
   0
LINE
   8
LEVEL001
   6
CONTINUOUS
  62
7
  10
 145.229
  20
 126.802
  30
0.0
  11
 129.772
  21
 125.450
  31
0.0
   0
ARC
   8
LEVEL001
   6
CONTINUOUS
  62
7
  10
 144.762
  20
 149.347
  30
0.0
  40
 1.50000
  50
 95.0001
  51
 185.000
   0
LINE
   8
LEVEL001
   6
CONTINUOUS
  62
7
  10
 144.632
  20
 150.842
  30
0.0
  11
 149.613
  21
 151.277
  31
0.0
   0
ARC
   8
LEVEL001
   6
CONTINUOUS
  62
7
  10
 147.028
  20
 123.446
  30
0.0
  40
 1.50000
  50
 185.000
  51
 275.000
   0
LINE
   8
LEVEL001
   6
CONTINUOUS
  62
7
  10
 145.534
  20
 123.316
  30
0.0
  11
 143.268
  21
 149.217
  31
0.0
   0
LINE
   8
LEVEL001
   6
CONTINUOUS
  62
7
  10
 147.159
  20
 121.952
  30
0.0
  11
 152.140
  21
 122.388
  31
0.0
   0
ARC
   8
LEVEL001
   6
CONTINUOUS
  62
7
  10
 165.682
  20
 151.178
  30
0.0
  40
 1.50000
  50
 5.00008
  51
 95.0002
   0
LINE
   8
LEVEL001
   6
CONTINUOUS
  62
7
  10
 160.571
  20
 152.236
  30
0.0
  11
 165.552
  21
 152.672
  31
0.0
   0
ARC
   8
LEVEL001
   6
CONTINUOUS
  62
7
  10
 167.948
  20
 125.277
  30
0.0
  40
 1.50000
  50
 275.000
  51
 4.99990
   0
LINE
   8
LEVEL001
   6
CONTINUOUS
  62
7
  10
 163.098
  20
 123.346
  30
0.0
  11
 168.079
  21
 123.782
  31
0.0
   0
LINE
   8
LEVEL001
   6
CONTINUOUS
  62
7
  10
 167.177
  20
 151.308
  30
0.0
  11
 169.443
  21
 125.407
  31
0.0
   0
ARC
   8
LEVEL001
   6
DASHDOT
  62
1
  10
 176.142
  20
 152.093
  30
0.0
  40
 1.00000
  50
 4.99976
  51
 95.0005
   0
LINE
   8
LEVEL001
   6
DASHDOT
  62
1
  10
 168.086
  20
 152.392
  30
0.0
  11
 176.055
  21
 153.089
  31
0.0
   0
ARC
   8
LEVEL001
   6
DASHDOT
  62
1
  10
 178.409
  20
 126.192
  30
0.0
  40
 1.00000
  50
 275.001
  51
 5.00010
   0
LINE
   8
LEVEL001
   6
DASHDOT
  62
1
  10
 170.526
  20
 124.498
  30
0.0
  11
 178.496
  21
 125.195
  31
0.0
   0
LINE
   8
LEVEL001
   6
DASHDOT
  62
1
  10
 177.139
  20
 152.180
  30
0.0
  11
 179.405
  21
 126.279
  31
0.0
   0
CIRCLE
   8
LEVEL001
   6
DASHDOT
  62
1
  10
 181.260
  20
 139.491
  30
0.0
  40
 1.50000
   0
ARC
   8
LEVEL001
   6
DASHDOT
  62
1
  10
 170.439
  20
 125.494
  30
0.0
  40
 1.00000
  50
 185.000
  51
 275.000
   0
ARC
   8
LEVEL001
   6
DASHDOT
  62
1
  10
 168.173
  20
 151.395
  30
0.0
  40
 1.00000
  50
 95.0006
  51
 185.001
   0
ARC
   8
LEVEL001
   6
DASHDOT
  62
1
  10
 179.785
  20
 144.883
  30
0.0
  40
 2.00000
  50
 185.000
  51
 275.000
   0
ARC
   8
LEVEL001
   6
DASHDOT
  62
1
  10
 180.743
  20
 133.925
  30
0.0
  40
 2.00000
  50
 95.0002
  51
 185.000
   0
LINE
   8
LEVEL001
   6
DASHDOT
  62
1
  10
 179.959
  20
 142.890
  30
0.0
  11
 180.457
  21
 142.934
  31
0.0
   0
LINE
   8
LEVEL001
   6
DASHDOT
  62
1
  10
 180.569
  20
 135.917
  30
0.0
  11
 181.067
  21
 135.961
  31
0.0
   0
ARC
   8
LEVEL001
   6
DASHDOT
  62
1
  10
 180.758
  20
 139.447
  30
0.0
  40
 3.50000
  50
 275.065
  51
 94.9347
   0
LINE
   8
LEVEL001
   6
CONTINUOUS
  62
7
  10
 129.772
  20
 125.450
  30
0.0
  11
 129.452
  21
 129.105
  31
0.0
   0
LINE
   8
LEVEL001
   6
CONTINUOUS
  62
7
  10
 128.435
  20
 140.722
  30
0.0
  11
 128.116
  21
 144.378
  31
0.0
   0
LINE
   8
LEVEL001
   6
CONTINUOUS
  62
7
  10
 123.833
  20
 130.412
  30
0.0
  11
 136.920
  21
 141.465
  31
0.0
   0
LINE
   8
LEVEL001
   6
CONTINUOUS
  62
7
  10
 123.129
  20
 138.460
  30
0.0
  11
 137.936
  21
 129.847
  31
0.0
   0
LINE
   8
LEVEL001
   6
CONTINUOUS
  62
3
  10
 123.194
  20
 142.115
  30
0.0
  11
 123.511
  21
 138.493
  31
0.0
   0
LINE
   8
LEVEL001
   6
CONTINUOUS
  62
3
  10
 124.215
  20
 130.445
  30
0.0
  11
 124.532
  21
 126.824
  31
0.0
   0
LINE
   8
LEVEL001
   6
CONTINUOUS
  62
7
  10
 126.712
  20
 143.395
  30
0.0
  11
 127.091
  21
 139.065
  31
0.0
   0
LINE
   8
LEVEL001
   6
CONTINUOUS
  62
7
  10
 127.840
  20
 130.504
  30
0.0
  11
 128.219
  21
 126.174
  31
0.0
   0
LINE
   8
LEVEL001
   6
CONTINUOUS
  62
3
  10
 152.009
  20
 123.882
  30
0.0
  11
 162.968
  21
 124.841
  31
0.0
   0
LINE
   8
LEVEL001
   6
CONTINUOUS
  62
3
  10
 151.835
  20
 125.874
  30
0.0
  11
 162.793
  21
 126.833
  31
0.0
   0
LINE
   8
LEVEL001
   6
CONTINUOUS
  62
3
  10
 151.661
  20
 127.867
  30
0.0
  11
 162.619
  21
 128.826
  31
0.0
   0
LINE
   8
LEVEL001
   6
CONTINUOUS
  62
3
  10
 151.486
  20
 129.859
  30
0.0
  11
 162.445
  21
 130.818
  31
0.0
   0
LINE
   8
LEVEL001
   6
CONTINUOUS
  62
3
  10
 151.312
  20
 131.852
  30
0.0
  11
 162.270
  21
 132.810
  31
0.0
   0
LINE
   8
LEVEL001
   6
CONTINUOUS
  62
3
  10
 151.138
  20
 133.844
  30
0.0
  11
 162.096
  21
 134.803
  31
0.0
   0
LINE
   8
LEVEL001
   6
CONTINUOUS
  62
3
  10
 150.964
  20
 135.836
  30
0.0
  11
 161.922
  21
 136.795
  31
0.0
   0
LINE
   8
LEVEL001
   6
CONTINUOUS
  62
3
  10
 150.789
  20
 137.829
  30
0.0
  11
 161.747
  21
 138.787
  31
0.0
   0
LINE
   8
LEVEL001
   6
CONTINUOUS
  62
3
  10
 150.615
  20
 139.821
  30
0.0
  11
 161.573
  21
 140.780
  31
0.0
   0
LINE
   8
LEVEL001
   6
CONTINUOUS
  62
3
  10
 150.441
  20
 141.814
  30
0.0
  11
 161.399
  21
 142.772
  31
0.0
   0
LINE
   8
LEVEL001
   6
CONTINUOUS
  62
3
  10
 150.266
  20
 143.806
  30
0.0
  11
 161.224
  21
 144.765
  31
0.0
   0
LINE
   8
LEVEL001
   6
CONTINUOUS
  62
3
  10
 150.092
  20
 145.798
  30
0.0
  11
 161.050
  21
 146.757
  31
0.0
   0
LINE
   8
LEVEL001
   6
CONTINUOUS
  62
3
  10
 149.918
  20
 147.791
  30
0.0
  11
 160.876
  21
 148.749
  31
0.0
   0
LINE
   8
LEVEL001
   6
CONTINUOUS
  62
3
  10
 149.743
  20
 149.783
  30
0.0
  11
 160.701
  21
 150.742
  31
0.0
   0
LINE
   8
LEVEL001
   6
CONTINUOUS
  62
7
  10
 123.833
  20
 130.412
  30
0.0
  11
 123.129
  21
 138.460
  31
0.0
   0
LINE
   8
LEVEL001
   6
CONTINUOUS
  62
7
  10
 123.129
  20
 138.460
  30
0.0
  11
 127.091
  21
 139.065
  31
0.0
   0
LINE
   8
LEVEL001
   6
CONTINUOUS
  62
7
  10
 127.091
  20
 139.065
  30
0.0
  11
 128.435
  21
 140.722
  31
0.0
   0
LINE
   8
LEVEL001
   6
CONTINUOUS
  62
7
  10
 128.435
  20
 140.722
  30
0.0
  11
 136.920
  21
 141.465
  31
0.0
   0
LINE
   8
LEVEL001
   6
CONTINUOUS
  62
7
  10
 136.920
  20
 141.465
  30
0.0
  11
 137.936
  21
 129.847
  31
0.0
   0
LINE
   8
LEVEL001
   6
CONTINUOUS
  62
7
  10
 137.936
  20
 129.847
  30
0.0
  11
 129.452
  21
 129.105
  31
0.0
   0
LINE
   8
LEVEL001
   6
CONTINUOUS
  62
7
  10
 129.452
  20
 129.105
  30
0.0
  11
 127.840
  21
 130.504
  31
0.0
   0
LINE
   8
LEVEL001
   6
CONTINUOUS
  62
7
  10
 127.840
  20
 130.504
  30
0.0
  11
 123.833
  21
 130.412
  31
0.0
   0
LINE
   8
LEVEL001
   6
CONTINUOUS
  62
7
  10
 152.184
  20
 121.890
  30
0.0
  11
 149.569
  21
 151.775
  31
0.0
   0
LINE
   8
LEVEL001
   6
CONTINUOUS
  62
7
  10
 149.569
  20
 151.775
  30
0.0
  11
 160.527
  21
 152.734
  31
0.0
   0
LINE
   8
LEVEL001
   6
CONTINUOUS
  62
7
  10
 160.527
  20
 152.734
  30
0.0
  11
 163.142
  21
 122.848
  31
0.0
   0
LINE
   8
LEVEL001
   6
CONTINUOUS
  62
7
  10
 163.142
  20
 122.848
  30
0.0
  11
 152.184
  21
 121.890
  31
0.0
   0
LINE
   8
LEVEL003
   6
CONTINUOUS
  62
3
  10
 105.000
  20
 225.000
  30
0.0
  11
 222.000
  21
 225.000
  31
0.0
   0
LINE
   8
LEVEL003
   6
CONTINUOUS
  62
3
  10
 117.500
  20
 115.000
  30
0.0
  11
 222.000
  21
 115.000
  31
0.0
   0
LINE
   8
LEVEL003
   6
CONTINUOUS
  62
3
  10
 220.000
  20
 225.000
  30
0.0
  11
 220.000
  21
 115.000
  31
0.0
   0
LINE
   8
LEVEL003
   6
CONTINUOUS
  62
3
  10
 220.000
  20
 225.000
  30
0.0
  11
 219.471
  21
 222.000
  31
0.0
   0
LINE
   8
LEVEL003
   6
CONTINUOUS
  62
3
  10
 220.000
  20
 225.000
  30
0.0
  11
 220.529
  21
 222.000
  31
0.0
   0
LINE
   8
LEVEL003
   6
CONTINUOUS
  62
3
  10
 220.000
  20
 115.000
  30
0.0
  11
 220.529
  21
 118.000
  31
0.0
   0
LINE
   8
LEVEL003
   6
CONTINUOUS
  62
3
  10
 220.000
  20
 115.000
  30
0.0
  11
 219.471
  21
 118.000
  31
0.0
   0
TEXT
   8
LEVEL003
  62
3
  10
 219.200
  20
 167.000
  30
0.0
  40
 4.00000
   1
110
  50
 90.0000
  41
 0.500000
   7
STANDARD
  72
1
  11
 219.200
  21
 170.000
  31
0.0
   0
LINE
   8
LEVEL001
   6
CONTINUOUS
  62
7
  10
 66.0000
  20
 225.000
  30
0.0
  11
 65.0000
  21
 224.000
  31
0.0
   0
LINE
   8
LEVEL001
   6
CONTINUOUS
  62
7
  10
 65.0000
  20
 224.000
  30
0.0
  11
 65.0000
  21
 218.000
  31
0.0
   0
LINE
   8
LEVEL001
   6
CONTINUOUS
  62
7
  10
 66.0000
  20
 225.000
  30
0.0
  11
 104.000
  21
 225.000
  31
0.0
   0
LINE
   8
LEVEL001
   6
CONTINUOUS
  62
7
  10
 104.000
  20
 225.000
  30
0.0
  11
 105.000
  21
 224.000
  31
0.0
   0
LINE
   8
LEVEL001
   6
CONTINUOUS
  62
7
  10
 105.000
  20
 224.000
  30
0.0
  11
 105.000
  21
 218.000
  31
0.0
   0
CIRCLE
   8
LEVEL001
   6
CONTINUOUS
  62
7
  10
 85.0000
  20
 45.0000
  30
0.0
  40
 33.5000
   0
CIRCLE
   8
LEVEL001
   6
CONTINUOUS
  62
7
  10
 85.0000
  20
 66.0000
  30
0.0
  40
 4.25000
   0
CIRCLE
   8
LEVEL001
   6
CONTINUOUS
  62
3
  10
 85.0000
  20
 66.0000
  30
0.0
  40
 5.00000
   0
LINE
   8
LEVEL001
   6
DASHDOT
  62
1
  10
 93.0000
  20
 66.0000
  30
0.0
  11
 77.0000
  21
 66.0000
  31
0.0
   0
CIRCLE
   8
LEVEL001
   6
CONTINUOUS
  62
7
  10
 85.0000
  20
 24.0000
  30
0.0
  40
 4.25000
   0
CIRCLE
   8
LEVEL001
   6
CONTINUOUS
  62
3
  10
 85.0000
  20
 24.0000
  30
0.0
  40
 5.00000
   0
LINE
   8
LEVEL001
   6
DASHDOT
  62
1
  10
 93.0000
  20
 24.0000
  30
0.0
  11
 77.0000
  21
 24.0000
  31
0.0
   0
LINE
   8
LEVEL001
   6
CONTINUOUS
  62
7
  10
 85.0000
  20
 49.6188
  30
0.0
  11
 89.0000
  21
 47.3094
  31
0.0
   0
LINE
   8
LEVEL001
   6
CONTINUOUS
  62
7
  10
 89.0000
  20
 47.3094
  30
0.0
  11
 89.0000
  21
 42.6906
  31
0.0
   0
LINE
   8
LEVEL001
   6
CONTINUOUS
  62
7
  10
 89.0000
  20
 42.6906
  30
0.0
  11
 85.0000
  21
 40.3812
  31
0.0
   0
LINE
   8
LEVEL001
   6
CONTINUOUS
  62
7
  10
 85.0000
  20
 40.3812
  30
0.0
  11
 81.0000
  21
 42.6906
  31
0.0
   0
LINE
   8
LEVEL001
   6
CONTINUOUS
  62
7
  10
 81.0000
  20
 42.6906
  30
0.0
  11
 81.0000
  21
 47.3094
  31
0.0
   0
LINE
   8
LEVEL001
   6
CONTINUOUS
  62
7
  10
 81.0000
  20
 47.3094
  30
0.0
  11
 85.0000
  21
 49.6188
  31
0.0
   0
CIRCLE
   8
LEVEL001
   6
CONTINUOUS
  62
7
  10
 85.0000
  20
 45.0000
  30
0.0
  40
 8.33100
   0
CIRCLE
   8
LEVEL001
   6
CONTINUOUS
  62
3
  10
 85.0000
  20
 45.0000
  30
0.0
  40
 7.47500
   0
LINE
   8
LEVEL001
   6
DASHDOT
  62
1
  10
 85.0000
  20
 82.8081
  30
0.0
  11
 85.0000
  21
 7.19190
  31
0.0
   0
CIRCLE
   8
LEVEL001
   6
CONTINUOUS
  62
7
  10
 85.0000
  20
 45.0000
  30
0.0
  40
 9.33096
   0
CIRCLE
   8
LEVEL001
   6
CONTINUOUS
  62
7
  10
 85.0000
  20
 45.0000
  30
0.0
  40
 31.5000
   0
ARC
   8
LEVEL001
   6
CONTINUOUS
  62
7
  10
 146.004
  20
 58.0000
  30
0.0
  40
 1.50000
  50
 90.0000
  51
 180.000
   0
LINE
   8
LEVEL001
   6
CONTINUOUS
  62
7
  10
 146.004
  20
 59.5000
  30
0.0
  11
 151.004
  21
 59.5000
  31
0.0
   0
ARC
   8
LEVEL001
   6
CONTINUOUS
  62
7
  10
 146.004
  20
 32.0000
  30
0.0
  40
 1.50000
  50
 180.000
  51
 270.000
   0
LINE
   8
LEVEL001
   6
CONTINUOUS
  62
7
  10
 144.504
  20
 32.0000
  30
0.0
  11
 144.504
  21
 58.0000
  31
0.0
   0
LINE
   8
LEVEL001
   6
CONTINUOUS
  62
7
  10
 146.004
  20
 30.5000
  30
0.0
  11
 151.004
  21
 30.5000
  31
0.0
   0
ARC
   8
LEVEL001
   6
CONTINUOUS
  62
7
  10
 167.004
  20
 58.0000
  30
0.0
  40
 1.50000
  50
0.0
  51
 90.0000
   0
LINE
   8
LEVEL001
   6
CONTINUOUS
  62
7
  10
 162.004
  20
 59.5000
  30
0.0
  11
 167.004
  21
 59.5000
  31
0.0
   0
ARC
   8
LEVEL001
   6
CONTINUOUS
  62
7
  10
 167.004
  20
 32.0000
  30
0.0
  40
 1.50000
  50
 270.000
  51
 0.290406E-10
   0
LINE
   8
LEVEL001
   6
CONTINUOUS
  62
7
  10
 162.004
  20
 30.5000
  30
0.0
  11
 167.004
  21
 30.5000
  31
0.0
   0
LINE
   8
LEVEL001
   6
CONTINUOUS
  62
7
  10
 168.504
  20
 58.0000
  30
0.0
  11
 168.504
  21
 32.0000
  31
0.0
   0
ARC
   8
LEVEL001
   6
DASHDOT
  62
1
  10
 177.504
  20
 58.0000
  30
0.0
  40
 1.00000
  50
0.0
  51
 90.0000
   0
LINE
   8
LEVEL001
   6
DASHDOT
  62
1
  10
 169.504
  20
 59.0000
  30
0.0
  11
 177.504
  21
 59.0000
  31
0.0
   0
ARC
   8
LEVEL001
   6
DASHDOT
  62
1
  10
 177.504
  20
 32.0000
  30
0.0
  40
 1.00000
  50
 270.000
  51
0.0
   0
LINE
   8
LEVEL001
   6
DASHDOT
  62
1
  10
 169.504
  20
 31.0000
  30
0.0
  11
 177.504
  21
 31.0000
  31
0.0
   0
LINE
   8
LEVEL001
   6
DASHDOT
  62
1
  10
 178.504
  20
 58.0000
  30
0.0
  11
 178.504
  21
 32.0000
  31
0.0
   0
ARC
   8
LEVEL001
   6
DASHDOT
  62
1
  10
 169.504
  20
 32.0000
  30
0.0
  40
 1.00000
  50
 180.000
  51
 270.000
   0
ARC
   8
LEVEL001
   6
DASHDOT
  62
1
  10
 169.504
  20
 58.0000
  30
0.0
  40
 1.00000
  50
 90.0000
  51
 180.000
   0
LINE
   8
LEVEL001
   6
CONTINUOUS
  62
3
  10
 123.887
  20
 52.5000
  30
0.0
  11
 123.887
  21
 37.5000
  31
0.0
   0
LINE
   8
LEVEL001
   6
CONTINUOUS
  62
7
  10
 127.504
  20
 52.5000
  30
0.0
  11
 127.504
  21
 37.5000
  31
0.0
   0
LINE
   8
LEVEL001
   6
CONTINUOUS
  62
7
  10
 128.987
  20
 37.5000
  30
0.0
  11
 128.987
  21
 52.5000
  31
0.0
   0
LINE
   8
LEVEL001
   6
CONTINUOUS
  62
3
  10
 151.004
  20
 32.0000
  30
0.0
  11
 162.004
  21
 32.0000
  31
0.0
   0
LINE
   8
LEVEL001
   6
CONTINUOUS
  62
3
  10
 151.004
  20
 34.0000
  30
0.0
  11
 162.004
  21
 34.0000
  31
0.0
   0
LINE
   8
LEVEL001
   6
CONTINUOUS
  62
3
  10
 151.004
  20
 36.0000
  30
0.0
  11
 162.004
  21
 36.0000
  31
0.0
   0
LINE
   8
LEVEL001
   6
CONTINUOUS
  62
3
  10
 151.004
  20
 38.0000
  30
0.0
  11
 162.004
  21
 38.0000
  31
0.0
   0
LINE
   8
LEVEL001
   6
CONTINUOUS
  62
3
  10
 151.004
  20
 40.0000
  30
0.0
  11
 162.004
  21
 40.0000
  31
0.0
   0
LINE
   8
LEVEL001
   6
CONTINUOUS
  62
3
  10
 151.004
  20
 42.0000
  30
0.0
  11
 162.004
  21
 42.0000
  31
0.0
   0
LINE
   8
LEVEL001
   6
CONTINUOUS
  62
3
  10
 151.004
  20
 44.0000
  30
0.0
  11
 162.004
  21
 44.0000
  31
0.0
   0
LINE
   8
LEVEL001
   6
CONTINUOUS
  62
3
  10
 151.004
  20
 46.0000
  30
0.0
  11
 162.004
  21
 46.0000
  31
0.0
   0
LINE
   8
LEVEL001
   6
CONTINUOUS
  62
3
  10
 151.004
  20
 48.0000
  30
0.0
  11
 162.004
  21
 48.0000
  31
0.0
   0
LINE
   8
LEVEL001
   6
CONTINUOUS
  62
3
  10
 151.004
  20
 50.0000
  30
0.0
  11
 162.004
  21
 50.0000
  31
0.0
   0
LINE
   8
LEVEL001
   6
CONTINUOUS
  62
3
  10
 151.004
  20
 52.0000
  30
0.0
  11
 162.004
  21
 52.0000
  31
0.0
   0
LINE
   8
LEVEL001
   6
CONTINUOUS
  62
3
  10
 151.004
  20
 54.0000
  30
0.0
  11
 162.004
  21
 54.0000
  31
0.0
   0
LINE
   8
LEVEL001
   6
CONTINUOUS
  62
3
  10
 151.004
  20
 56.0000
  30
0.0
  11
 162.004
  21
 56.0000
  31
0.0
   0
LINE
   8
LEVEL001
   6
CONTINUOUS
  62
3
  10
 151.004
  20
 58.0000
  30
0.0
  11
 162.004
  21
 58.0000
  31
0.0
   0
LINE
   8
LEVEL001
   6
CONTINUOUS
  62
7
  10
 123.504
  20
 53.5185
  30
0.0
  11
 117.504
  21
 53.3310
  31
0.0
   0
LINE
   8
LEVEL001
   6
CONTINUOUS
  62
3
  10
 123.504
  20
 52.6625
  30
0.0
  11
 117.504
  21
 52.4750
  31
0.0
   0
LINE
   8
LEVEL001
   6
CONTINUOUS
  62
3
  10
 123.499
  20
 37.3376
  30
0.0
  11
 117.504
  21
 37.5250
  31
0.0
   0
LINE
   8
LEVEL001
   6
CONTINUOUS
  62
7
  10
 123.504
  20
 36.4815
  30
0.0
  11
 117.504
  21
 36.6690
  31
0.0
   0
LINE
   8
LEVEL001
   6
DASHDOT
  62
1
  10
 178.504
  20
 47.0000
  30
0.0
  11
 184.504
  21
 47.0000
  31
0.0
   0
LINE
   8
LEVEL001
   6
DASHDOT
  62
1
  10
 184.504
  20
 47.0000
  30
0.0
  11
 184.504
  21
 43.0000
  31
0.0
   0
LINE
   8
LEVEL001
   6
DASHDOT
  62
1
  10
 184.504
  20
 43.0000
  30
0.0
  11
 178.504
  21
 43.0000
  31
0.0
   0
LINE
   8
LEVEL001
   6
CONTINUOUS
  62
7
  10
 123.504
  20
 53.5185
  30
0.0
  11
 123.504
  21
 52.5000
  31
0.0
   0
LINE
   8
LEVEL001
   6
CONTINUOUS
  62
7
  10
 123.504
  20
 52.5000
  30
0.0
  11
 137.504
  21
 52.5000
  31
0.0
   0
LINE
   8
LEVEL001
   6
CONTINUOUS
  62
7
  10
 137.504
  20
 52.5000
  30
0.0
  11
 137.504
  21
 54.5000
  31
0.0
   0
LINE
   8
LEVEL001
   6
CONTINUOUS
  62
7
  10
 137.504
  20
 54.5000
  30
0.0
  11
 144.504
  21
 54.5000
  31
0.0
   0
LINE
   8
LEVEL001
   6
CONTINUOUS
  62
7
  10
 123.504
  20
 36.4815
  30
0.0
  11
 123.504
  21
 37.5000
  31
0.0
   0
LINE
   8
LEVEL001
   6
CONTINUOUS
  62
7
  10
 123.504
  20
 37.5000
  30
0.0
  11
 137.504
  21
 37.5000
  31
0.0
   0
LINE
   8
LEVEL001
   6
CONTINUOUS
  62
7
  10
 137.504
  20
 37.5000
  30
0.0
  11
 137.504
  21
 35.5000
  31
0.0
   0
LINE
   8
LEVEL001
   6
CONTINUOUS
  62
7
  10
 137.504
  20
 35.5000
  30
0.0
  11
 144.504
  21
 35.5000
  31
0.0
   0
LINE
   8
LEVEL001
   6
CONTINUOUS
  62
7
  10
 151.004
  20
 30.0000
  30
0.0
  11
 151.004
  21
 60.0000
  31
0.0
   0
LINE
   8
LEVEL001
   6
CONTINUOUS
  62
7
  10
 151.004
  20
 60.0000
  30
0.0
  11
 162.004
  21
 60.0000
  31
0.0
   0
LINE
   8
LEVEL001
   6
CONTINUOUS
  62
7
  10
 162.004
  20
 60.0000
  30
0.0
  11
 162.004
  21
 30.0000
  31
0.0
   0
LINE
   8
LEVEL001
   6
CONTINUOUS
  62
7
  10
 162.004
  20
 30.0000
  30
0.0
  11
 151.004
  21
 30.0000
  31
0.0
   0
LINE
   8
LEVEL001
   6
DASHDOT
  62
1
  10
 187.504
  20
 45.0000
  30
0.0
  11
 47.5000
  21
 45.0000
  31
0.0
   0
LINE
   8
LEVEL003
   6
CONTINUOUS
  62
3
  10
 64.0000
  20
 115.000
  30
0.0
  11
 45.0000
  21
 95.0000
  31
0.0
   0
LINE
   8
LEVEL003
   6
CONTINUOUS
  62
3
  10
 64.0000
  20
 115.000
  30
0.0
  11
 61.5502
  21
 113.189
  31
0.0
   0
LINE
   8
LEVEL003
   6
CONTINUOUS
  62
3
  10
 64.0000
  20
 115.000
  30
0.0
  11
 62.3173
  21
 112.461
  31
0.0
   0
LINE
   8
LEVEL001
   6
DASHDOT
  62
1
  10
 85.0000
  20
 230.000
  30
0.0
  11
 85.0000
  21
 110.000
  31
0.0
   0
LINE
   8
LEVEL001
   6
CONTINUOUS
  62
7
  10
 116.250
  20
 218.000
  30
0.0
  11
 53.7500
  21
 218.000
  31
0.0
   0
LINE
   8
LEVEL001
   6
CONTINUOUS
  62
7
  10
 65.0000
  20
 224.000
  30
0.0
  11
 105.000
  21
 224.000
  31
0.0
   0
LINE
   8
LEVEL001
   6
CONTINUOUS
  62
7
  10
 117.250
  20
 217.000
  30
0.0
  11
 52.7500
  21
 217.000
  31
0.0
   0
LINE
   8
LEVEL001
   6
CONTINUOUS
  62
7
  10
 52.2500
  20
 214.000
  30
0.0
  11
 117.750
  21
 214.000
  31
0.0
   0
LINE
   8
LEVEL001
   6
CONTINUOUS
  62
3
  10
 52.2500
  20
 214.000
  30
0.0
  11
 52.2500
  21
 185.000
  31
0.0
   0
LINE
   8
LEVEL001
   6
CONTINUOUS
  62
3
  10
 117.750
  20
 214.000
  30
0.0
  11
 117.750
  21
 185.000
  31
0.0
   0
LINE
   8
LEVEL001
   6
CONTINUOUS
  62
7
  10
 51.5000
  20
 182.201
  30
0.0
  11
 118.500
  21
 182.201
  31
0.0
   0
LINE
   8
LEVEL001
   6
CONTINUOUS
  62
3
  10
 118.500
  20
 213.250
  30
0.0
  11
 51.5000
  21
 213.250
  31
0.0
   0
LINE
   8
LEVEL001
   6
CONTINUOUS
  62
3
  10
 118.500
  20
 185.000
  30
0.0
  11
 51.5000
  21
 185.000
  31
0.0
   0
LINE
   8
LEVEL003
   6
CONTINUOUS
  62
3
  10
 59.0000
  20
 175.000
  30
0.0
  11
 111.000
  21
 175.000
  31
0.0
   0
LINE
   8
LEVEL003
   6
CONTINUOUS
  62
3
  10
 59.0000
  20
 175.000
  30
0.0
  11
 62.0000
  21
 174.471
  31
0.0
   0
LINE
   8
LEVEL003
   6
CONTINUOUS
  62
3
  10
 59.0000
  20
 175.000
  30
0.0
  11
 62.0000
  21
 175.529
  31
0.0
   0
LINE
   8
LEVEL003
   6
CONTINUOUS
  62
3
  10
 111.000
  20
 175.000
  30
0.0
  11
 108.000
  21
 175.529
  31
0.0
   0
LINE
   8
LEVEL003
   6
CONTINUOUS
  62
3
  10
 111.000
  20
 175.000
  30
0.0
  11
 108.000
  21
 174.471
  31
0.0
   0
TEXT
   8
LEVEL003
  62
3
  10
 81.0000
  20
 175.800
  30
0.0
  40
 4.00000
   1
%%c52
   7
STANDARD
  72
1
  11
 85.0000
  21
 175.800
  31
0.0
   0
LINE
   8
LEVEL001
   6
CONTINUOUS
  62
7
  10
 126.712
  20
 143.395
  30
0.0
  11
 118.500
  21
 142.417
  31
0.0
   0
LINE
   8
LEVEL001
   6
CONTINUOUS
  62
7
  10
 128.219
  20
 126.174
  30
0.0
  11
 118.500
  21
 125.629
  31
0.0
   0
LINE
   8
LEVEL001
   6
CONTINUOUS
  62
7
  10
 118.500
  20
 117.000
  30
0.0
  11
 118.500
  21
 182.201
  31
0.0
   0
LINE
   8
LEVEL001
   6
CONTINUOUS
  62
3
  10
 124.532
  20
 126.824
  30
0.0
  11
 118.500
  21
 126.486
  31
0.0
   0
LINE
   8
LEVEL001
   6
CONTINUOUS
  62
3
  10
 123.194
  20
 142.115
  30
0.0
  11
 118.500
  21
 141.556
  31
0.0
   0
LINE
   8
LEVEL001
   6
DASHDOT
  62
1
  10
 189.978
  20
 140.253
  30
0.0
  11
 110.151
  21
 133.270
  31
0.0
   0
LINE
   8
LEVEL001
   6
CONTINUOUS
  62
7
  10
 51.5000
  20
 117.000
  30
0.0
  11
 118.500
  21
 117.000
  31
0.0
   0
LINE
   8
LEVEL004
   6
DASHDOT
  62
1
  10
 66.7500
  20
 210.000
  30
0.0
  11
 85.9047
  21
 210.000
  31
0.0
   0
LINE
   8
LEVEL004
   6
DASHDOT
  62
1
  10
 82.0387
  20
 211.500
  30
0.0
  11
 81.6180
  21
 208.500
  31
0.0
   0
LINE
   8
LEVEL004
   6
DASHDOT
  62
1
  10
 81.6180
  20
 208.500
  30
0.0
  11
 81.1973
  21
 211.500
  31
0.0
   0
LINE
   8
LEVEL004
   6
DASHDOT
  62
1
  10
 81.1973
  20
 211.500
  30
0.0
  11
 80.7766
  21
 208.500
  31
0.0
   0
LINE
   8
LEVEL004
   6
DASHDOT
  62
1
  10
 80.7766
  20
 208.500
  30
0.0
  11
 80.3559
  21
 211.500
  31
0.0
   0
LINE
   8
LEVEL004
   6
DASHDOT
  62
1
  10
 80.3559
  20
 211.500
  30
0.0
  11
 79.9352
  21
 208.500
  31
0.0
   0
LINE
   8
LEVEL004
   6
DASHDOT
  62
1
  10
 79.9352
  20
 208.500
  30
0.0
  11
 79.5145
  21
 211.500
  31
0.0
   0
LINE
   8
LEVEL004
   6
DASHDOT
  62
1
  10
 79.5145
  20
 211.500
  30
0.0
  11
 79.0939
  21
 208.500
  31
0.0
   0
LINE
   8
LEVEL004
   6
DASHDOT
  62
1
  10
 79.0939
  20
 208.500
  30
0.0
  11
 78.6732
  21
 211.500
  31
0.0
   0
LINE
   8
LEVEL004
   6
DASHDOT
  62
1
  10
 78.6732
  20
 211.500
  30
0.0
  11
 78.2525
  21
 208.500
  31
0.0
   0
LINE
   8
LEVEL004
   6
DASHDOT
  62
1
  10
 78.2525
  20
 208.500
  30
0.0
  11
 77.8318
  21
 211.500
  31
0.0
   0
LINE
   8
LEVEL004
   6
DASHDOT
  62
1
  10
 77.8318
  20
 211.500
  30
0.0
  11
 77.4111
  21
 208.500
  31
0.0
   0
LINE
   8
LEVEL004
   6
DASHDOT
  62
1
  10
 77.4111
  20
 208.500
  30
0.0
  11
 76.9904
  21
 211.500
  31
0.0
   0
LINE
   8
LEVEL004
   6
DASHDOT
  62
1
  10
 76.9904
  20
 211.500
  30
0.0
  11
 76.5697
  21
 208.500
  31
0.0
   0
LINE
   8
LEVEL004
   6
DASHDOT
  62
1
  10
 76.5697
  20
 208.500
  30
0.0
  11
 76.1490
  21
 211.500
  31
0.0
   0
LINE
   8
LEVEL004
   6
DASHDOT
  62
1
  10
 76.1490
  20
 211.500
  30
0.0
  11
 75.7283
  21
 208.500
  31
0.0
   0
LINE
   8
LEVEL004
   6
DASHDOT
  62
1
  10
 75.7283
  20
 208.500
  30
0.0
  11
 75.3077
  21
 211.500
  31
0.0
   0
LINE
   8
LEVEL004
   6
DASHDOT
  62
1
  10
 75.3077
  20
 211.500
  30
0.0
  11
 74.8870
  21
 208.500
  31
0.0
   0
LINE
   8
LEVEL004
   6
DASHDOT
  62
1
  10
 74.8870
  20
 208.500
  30
0.0
  11
 74.4663
  21
 211.500
  31
0.0
   0
LINE
   8
LEVEL004
   6
DASHDOT
  62
1
  10
 74.4663
  20
 211.500
  30
0.0
  11
 74.0456
  21
 208.500
  31
0.0
   0
LINE
   8
LEVEL004
   6
DASHDOT
  62
1
  10
 74.0456
  20
 208.500
  30
0.0
  11
 73.6249
  21
 211.500
  31
0.0
   0
LINE
   8
LEVEL004
   6
DASHDOT
  62
1
  10
 73.6249
  20
 211.500
  30
0.0
  11
 73.2042
  21
 208.500
  31
0.0
   0
LINE
   8
LEVEL004
   6
DOT
  62
3
  10
 68.5000
  20
 216.000
  30
0.0
  11
 68.5000
  21
 201.000
  31
0.0
   0
LINE
   8
LEVEL004
   6
DOT
  62
3
  10
 69.7500
  20
 216.500
  30
0.0
  11
 69.7500
  21
 210.964
  31
0.0
   0
ARC
   8
LEVEL004
   6
DOT
  62
3
  10
 69.5000
  20
 201.000
  30
0.0
  40
 1.00000
  50
 90.0000
  51
 180.000
   0
LINE
   8
LEVEL004
   6
DOT
  62
3
  10
 69.7500
  20
 205.000
  30
0.0
  11
 70.7500
  21
 204.000
  31
0.0
   0
LINE
   8
LEVEL004
   6
DOT
  62
3
  10
 69.7500
  20
 209.036
  30
0.0
  11
 69.7500
  21
 205.000
  31
0.0
   0
LINE
   8
LEVEL004
   6
DOT
  62
3
  10
 100.500
  20
 199.000
  30
0.0
  11
 69.5000
  21
 199.000
  31
0.0
   0
LINE
   8
LEVEL004
   6
DOT
  62
3
  10
 68.5000
  20
 216.000
  30
0.0
  11
 69.5000
  21
 215.000
  31
0.0
   0
LINE
   8
LEVEL004
   6
DOT
  62
3
  10
 69.5000
  20
 215.000
  30
0.0
  11
 69.5000
  21
 202.000
  31
0.0
   0
CIRCLE
   8
LEVEL004
   6
DOT
  62
3
  10
 71.4844
  20
 210.000
  30
0.0
  40
 1.98438
   0
LINE
   8
LEVEL004
   6
DOT
  62
3
  10
 69.7500
  20
 208.000
  30
0.0
  11
 81.7500
  21
 208.000
  31
0.0
   0
LINE
   8
LEVEL004
   6
DOT
  62
3
  10
 81.7500
  20
 208.000
  30
0.0
  11
 82.9047
  21
 210.000
  31
0.0
   0
LINE
   8
LEVEL004
   6
DOT
  62
3
  10
 82.9047
  20
 210.000
  30
0.0
  11
 81.7500
  21
 212.000
  31
0.0
   0
LINE
   8
LEVEL004
   6
DOT
  62
3
  10
 81.7500
  20
 212.000
  30
0.0
  11
 69.7500
  21
 212.000
  31
0.0
   0
LINE
   8
LEVEL004
   6
DOT
  62
3
  10
 68.5000
  20
 201.000
  30
0.0
  11
 68.5000
  21
 200.000
  31
0.0
   0
ARC
   8
LEVEL004
   6
DOT
  62
3
  10
 69.5000
  20
 200.000
  30
0.0
  40
 1.00000
  50
 180.000
  51
 270.000
   0
LINE
   8
LEVEL004
   6
DOT
  62
3
  10
 100.500
  20
 202.000
  30
0.0
  11
 69.5000
  21
 202.000
  31
0.0
   0
LINE
   8
LEVEL004
   6
DOT
  62
3
  10
 99.2500
  20
 204.000
  30
0.0
  11
 70.7500
  21
 204.000
  31
0.0
   0
ARC
   8
LEVEL004
   6
DOT
  62
3
  10
 100.500
  20
 201.000
  30
0.0
  40
 1.00000
  50
0.0
  51
 90.0000
   0
ARC
   8
LEVEL004
   6
DOT
  62
3
  10
 100.500
  20
 200.000
  30
0.0
  40
 1.00000
  50
 270.000
  51
0.0
   0
LINE
   8
LEVEL004
   6
DOT
  62
3
  10
 101.500
  20
 201.000
  30
0.0
  11
 101.500
  21
 200.000
  31
0.0
   0
LINE
   8
LEVEL004
   6
DOT
  62
3
  10
 100.250
  20
 205.000
  30
0.0
  11
 99.2500
  21
 204.000
  31
0.0
   0
LINE
   8
LEVEL004
   6
DOT
  62
3
  10
 101.500
  20
 216.000
  30
0.0
  11
 100.500
  21
 215.000
  31
0.0
   0
LINE
   8
LEVEL004
   6
DOT
  62
3
  10
 100.500
  20
 215.000
  30
0.0
  11
 100.500
  21
 202.000
  31
0.0
   0
LINE
   8
LEVEL004
   6
DOT
  62
3
  10
 101.500
  20
 216.000
  30
0.0
  11
 101.500
  21
 201.000
  31
0.0
   0
LINE
   8
LEVEL004
   6
DOT
  62
3
  10
 100.250
  20
 216.500
  30
0.0
  11
 100.250
  21
 205.000
  31
0.0
   0
ARC
   8
LEVEL004
   6
DOT
  62
3
  10
 91.0000
  20
 225.000
  30
0.0
  40
 1.00000
  50
 180.000
  51
0.0
   0
ARC
   8
LEVEL004
   6
DOT
  62
3
  10
 97.0000
  20
 225.000
  30
0.0
  40
 1.00000
  50
 180.000
  51
0.0
   0
ARC
   8
LEVEL004
   6
DOT
  62
3
  10
 73.0000
  20
 225.000
  30
0.0
  40
 1.00000
  50
 180.000
  51
0.0
   0
ARC
   8
LEVEL004
   6
DOT
  62
3
  10
 79.0000
  20
 225.000
  30
0.0
  40
 1.00000
  50
 180.000
  51
0.0
   0
LINE
   8
LEVEL004
   6
DOT
  62
3
  10
 68.5000
  20
 217.500
  30
0.0
  11
 68.0000
  21
 218.000
  31
0.0
   0
LINE
   8
LEVEL004
   6
DOT
  62
3
  10
 68.5000
  20
 217.500
  30
0.0
  11
 68.5000
  21
 215.990
  31
0.0
   0
ARC
   8
LEVEL004
   6
DOT
  62
3
  10
 68.2500
  20
 216.500
  30
0.0
  40
 1.50000
  50
0.0
  51
 90.0000
   0
LINE
   8
LEVEL004
   6
DOT
  62
3
  10
 69.5000
  20
 215.000
  30
0.0
  11
 69.7500
  21
 215.000
  31
0.0
   0
LINE
   8
LEVEL004
   6
DOT
  62
3
  10
 69.7500
  20
 216.000
  30
0.0
  11
 68.5000
  21
 216.000
  31
0.0
   0
LINE
   8
LEVEL004
   6
DOT
  62
3
  10
 62.0000
  20
 170.000
  30
0.0
  11
 62.0000
  21
 216.000
  31
0.0
   0
LINE
   8
LEVEL004
   6
DOT
  62
3
  10
 59.0000
  20
 187.000
  30
0.0
  11
 59.0000
  21
 151.000
  31
0.0
   0
LINE
   8
LEVEL004
   6
DOT
  62
3
  10
 108.000
  20
 170.000
  30
0.0
  11
 108.000
  21
 216.000
  31
0.0
   0
LINE
   8
LEVEL004
   6
DOT
  62
3
  10
 111.000
  20
 187.000
  30
0.0
  11
 111.000
  21
 151.000
  31
0.0
   0
LINE
   8
LEVEL004
   6
DOT
  62
3
  10
 101.500
  20
 217.500
  30
0.0
  11
 101.500
  21
 215.990
  31
0.0
   0
LINE
   8
LEVEL004
   6
DOT
  62
3
  10
 100.500
  20
 215.000
  30
0.0
  11
 100.250
  21
 215.000
  31
0.0
   0
LINE
   8
LEVEL004
   6
DOT
  62
3
  10
 100.250
  20
 216.000
  30
0.0
  11
 101.500
  21
 216.000
  31
0.0
   0
LINE
   8
LEVEL004
   6
DOT
  62
3
  10
 101.500
  20
 217.500
  30
0.0
  11
 102.000
  21
 218.000
  31
0.0
   0
ARC
   8
LEVEL004
   6
DOT
  62
3
  10
 101.750
  20
 216.500
  30
0.0
  40
 1.50000
  50
 90.0000
  51
 180.000
   0
LINE
   8
LEVEL004
   6
DOT
  62
3
  10
 81.7500
  20
 212.000
  30
0.0
  11
 81.7500
  21
 208.000
  31
0.0
   0
LINE
   8
LEVEL004
   6
DASHDOT
  62
1
  10
 106.000
  20
 112.000
  30
0.0
  11
 106.000
  21
 125.000
  31
0.0
   0
LINE
   8
LEVEL004
   6
DASHDOT
  62
1
  10
 64.0000
  20
 112.000
  30
0.0
  11
 64.0000
  21
 125.000
  31
0.0
   0
LINE
   8
LEVEL004
   6
DOT
  62
3
  10
 68.2500
  20
 115.750
  30
0.0
  11
 59.7500
  21
 115.750
  31
0.0
   0
LINE
   8
LEVEL004
   6
DOT
  62
3
  10
 69.0000
  20
 115.000
  30
0.0
  11
 68.2500
  21
 115.750
  31
0.0
   0
LINE
   8
LEVEL004
   6
DOT
  62
3
  10
 68.2500
  20
 115.750
  30
0.0
  11
 68.2500
  21
 125.000
  31
0.0
   0
LINE
   8
LEVEL004
   6
DOT
  62
3
  10
 59.7500
  20
 125.000
  30
0.0
  11
 59.7500
  21
 115.750
  31
0.0
   0
LINE
   8
LEVEL004
   6
DOT
  62
3
  10
 59.7500
  20
 115.750
  30
0.0
  11
 59.0000
  21
 115.000
  31
0.0
   0
LINE
   8
LEVEL004
   6
DOT
  62
3
  10
 69.0000
  20
 115.000
  30
0.0
  11
 69.0000
  21
 125.000
  31
0.0
   0
LINE
   8
LEVEL004
   6
DOT
  62
3
  10
 59.0000
  20
 125.000
  30
0.0
  11
 59.0000
  21
 115.000
  31
0.0
   0
TEXT
   8
LEVEL003
  62
7
  10
 201.691
  20
 10.2200
  30
0.0
  40
 10.0000
   1
ＯＳＡＫＡ ＪＡＣＫ
   7
STANDARD
   0
CIRCLE
   8
LEVEL003
   6
CONTINUOUS
  62
7
  10
 189.718
  20
 17.2707
  30
0.0
  40
 3.00000
   0
LINE
   8
LEVEL003
   6
CONTINUOUS
  62
7
  10
 195.606
  20
 20.2707
  30
0.0
  11
 191.797
  21
 13.6707
  31
0.0
   0
LINE
   8
LEVEL003
   6
CONTINUOUS
  62
7
  10
 191.797
  20
 13.6707
  30
0.0
  11
 184.176
  21
 13.6707
  31
0.0
   0
LINE
   8
LEVEL003
   6
CONTINUOUS
  62
7
  10
 183.309
  20
 12.1707
  30
0.0
  11
 196.930
  21
 12.1707
  31
0.0
   0
LINE
   8
LEVEL003
   6
CONTINUOUS
  62
7
  10
 196.930
  20
 12.1707
  30
0.0
  11
 201.606
  21
 20.2707
  31
0.0
   0
LINE
   8
LEVEL003
   6
CONTINUOUS
  62
7
  10
 201.606
  20
 20.2707
  30
0.0
  11
 195.606
  21
 20.2707
  31
0.0
   0
LINE
   8
LEVEL003
   6
CONTINUOUS
  62
7
  10
 184.176
  20
 13.6707
  30
0.0
  11
 183.309
  21
 12.1707
  31
0.0
   0
TEXT
   8
LEVEL003
  62
7
  10
 204.602
  20
 27.1134
  30
0.0
  40
 6.00000
   1
Model : Ｅ１５Ｓ２.５
   7
STANDARD
   0
TEXT
   8
LEVEL003
  62
3
  10
 0.750000
  20
 95.0000
  30
0.0
  40
 4.00000
   1
２－Ｍ１０×１５Ｌ
   7
STANDARD
   0
LINE
   8
LEVEL003
   6
CONTINUOUS
  62
3
  10
 45.0000
  20
 95.0000
  30
0.0
  11
 1.20280
  21
 95.0000
  31
0.0
   0
LINE
   8
LEVEL003
   6
CONTINUOUS
  62
3
  10
 150.000
  20
 190.000
  30
0.0
  11
 192.893
  21
 190.000
  31
0.0
   0
LINE
   8
LEVEL003
   6
CONTINUOUS
  62
3
  10
 135.000
  20
 230.000
  30
0.0
  11
 157.952
  21
 230.000
  31
0.0
   0
LINE
   8
LEVEL003
   6
CONTINUOUS
  62
3
  10
 130.000
  20
 105.000
  30
0.0
  11
 157.224
  21
 105.000
  31
0.0
   0
LINE
   8
LEVEL003
   6
CONTINUOUS
  62
3
  10
 117.250
  20
 218.000
  30
0.0
  11
 147.000
  21
 218.000
  31
0.0
   0
LINE
   8
LEVEL003
   6
CONTINUOUS
  62
3
  10
 122.500
  20
 214.000
  30
0.0
  11
 147.000
  21
 214.000
  31
0.0
   0
LINE
   8
LEVEL003
   6
CONTINUOUS
  62
3
  10
 145.000
  20
 218.000
  30
0.0
  11
 145.000
  21
 214.000
  31
0.0
   0
LINE
   8
LEVEL003
   6
CONTINUOUS
  62
3
  10
 145.000
  20
 214.000
  30
0.0
  11
 145.000
  21
 210.000
  31
0.0
   0
LINE
   8
LEVEL003
   6
CONTINUOUS
  62
3
  10
 145.000
  20
 218.000
  30
0.0
  11
 145.529
  21
 221.000
  31
0.0
   0
LINE
   8
LEVEL003
   6
CONTINUOUS
  62
3
  10
 145.000
  20
 218.000
  30
0.0
  11
 144.471
  21
 221.000
  31
0.0
   0
LINE
   8
LEVEL003
   6
CONTINUOUS
  62
3
  10
 145.000
  20
 214.000
  30
0.0
  11
 144.471
  21
 211.000
  31
0.0
   0
LINE
   8
LEVEL003
   6
CONTINUOUS
  62
3
  10
 145.000
  20
 214.000
  30
0.0
  11
 145.529
  21
 211.000
  31
0.0
   0
LINE
   8
LEVEL003
   6
CONTINUOUS
  62
3
  10
 145.000
  20
 218.000
  30
0.0
  11
 145.000
  21
 221.750
  31
0.0
   0
LINE
   8
LEVEL003
   6
CONTINUOUS
  62
3
  10
 145.000
  20
 214.000
  30
0.0
  11
 145.000
  21
 210.000
  31
0.0
   0
TEXT
   8
LEVEL003
  62
3
  10
 144.200
  20
 210.000
  30
0.0
  40
 4.00000
   1
4
  50
 90.0000
   7
STANDARD
  72
1
  11
 144.200
  21
 212.000
  31
0.0
   0
LINE
   8
LEVEL003
   6
CONTINUOUS
  62
3
  10
 105.000
  20
 225.000
  30
0.0
  11
 157.000
  21
 225.000
  31
0.0
   0
LINE
   8
LEVEL003
   6
CONTINUOUS
  62
3
  10
 117.250
  20
 218.000
  30
0.0
  11
 157.000
  21
 218.000
  31
0.0
   0
LINE
   8
LEVEL003
   6
CONTINUOUS
  62
3
  10
 155.000
  20
 225.000
  30
0.0
  11
 155.000
  21
 218.000
  31
0.0
   0
LINE
   8
LEVEL003
   6
CONTINUOUS
  62
3
  10
 155.000
  20
 225.000
  30
0.0
  11
 154.471
  21
 222.000
  31
0.0
   0
LINE
   8
LEVEL003
   6
CONTINUOUS
  62
3
  10
 155.000
  20
 225.000
  30
0.0
  11
 155.529
  21
 222.000
  31
0.0
   0
LINE
   8
LEVEL003
   6
CONTINUOUS
  62
3
  10
 155.000
  20
 218.000
  30
0.0
  11
 155.529
  21
 221.000
  31
0.0
   0
LINE
   8
LEVEL003
   6
CONTINUOUS
  62
3
  10
 155.000
  20
 218.000
  30
0.0
  11
 154.471
  21
 221.000
  31
0.0
   0
TEXT
   8
LEVEL003
  62
3
  10
 154.200
  20
 219.500
  30
0.0
  40
 4.00000
   1
7
  50
 90.0000
   7
STANDARD
  72
1
  11
 154.200
  21
 221.500
  31
0.0
   0
LINE
   8
LEVEL003
   6
CONTINUOUS
  62
3
  10
 117.250
  20
 218.000
  30
0.0
  11
 157.000
  21
 218.000
  31
0.0
   0
LINE
   8
LEVEL003
   6
CONTINUOUS
  62
3
  10
 122.500
  20
 185.000
  30
0.0
  11
 157.000
  21
 185.000
  31
0.0
   0
LINE
   8
LEVEL003
   6
CONTINUOUS
  62
3
  10
 155.000
  20
 218.000
  30
0.0
  11
 155.000
  21
 185.000
  31
0.0
   0
LINE
   8
LEVEL003
   6
CONTINUOUS
  62
3
  10
 155.000
  20
 218.000
  30
0.0
  11
 154.471
  21
 215.000
  31
0.0
   0
LINE
   8
LEVEL003
   6
CONTINUOUS
  62
3
  10
 155.000
  20
 218.000
  30
0.0
  11
 155.529
  21
 215.000
  31
0.0
   0
LINE
   8
LEVEL003
   6
CONTINUOUS
  62
3
  10
 155.000
  20
 185.000
  30
0.0
  11
 155.529
  21
 188.000
  31
0.0
   0
LINE
   8
LEVEL003
   6
CONTINUOUS
  62
3
  10
 155.000
  20
 185.000
  30
0.0
  11
 154.471
  21
 188.000
  31
0.0
   0
TEXT
   8
LEVEL003
  62
3
  10
 154.200
  20
 197.500
  30
0.0
  40
 4.00000
   1
33
  50
 90.0000
   7
STANDARD
  72
1
  11
 154.200
  21
 201.500
  31
0.0
   0
LINE
   8
LEVEL003
   6
CONTINUOUS
  62
3
  10
 101.000
  20
 218.000
  30
0.0
  11
 90.5000
  21
 218.000
  31
0.0
   0
LINE
   8
LEVEL003
   6
CONTINUOUS
  62
3
  10
 92.5000
  20
 199.000
  30
0.0
  11
 92.5000
  21
 199.000
  31
0.0
   0
LINE
   8
LEVEL003
   6
CONTINUOUS
  62
3
  10
 92.5000
  20
 218.000
  30
0.0
  11
 92.5000
  21
 199.000
  31
0.0
   0
LINE
   8
LEVEL003
   6
CONTINUOUS
  62
3
  10
 92.5000
  20
 218.000
  30
0.0
  11
 91.9710
  21
 215.000
  31
0.0
   0
LINE
   8
LEVEL003
   6
CONTINUOUS
  62
3
  10
 92.5000
  20
 218.000
  30
0.0
  11
 93.0290
  21
 215.000
  31
0.0
   0
LINE
   8
LEVEL003
   6
CONTINUOUS
  62
3
  10
 92.5000
  20
 199.000
  30
0.0
  11
 93.0290
  21
 202.000
  31
0.0
   0
LINE
   8
LEVEL003
   6
CONTINUOUS
  62
3
  10
 92.5000
  20
 199.000
  30
0.0
  11
 91.9710
  21
 202.000
  31
0.0
   0
TEXT
   8
LEVEL003
  62
3
  10
 91.7000
  20
 204.500
  30
0.0
  40
 4.00000
   1
19
  50
 90.0000
   7
STANDARD
  72
1
  11
 91.7000
  21
 208.500
  31
0.0
   0
ENDSEC
   0
EOF
