   0
SECTION
   2
HEADER
   9
$LIMMIN
  10
0.0
  20
0.0
   9
$LIMMAX
  10
 420.000
  20
 435.000
   9
$EXTMIN
  10
0.0
  20
0.0
   9
$EXTMAX
  10
 420.000
  20
 435.000
   9
$LTSCALE
  40
 8.70000
   0
ENDSEC
   0
SECTION
   2
TABLES
  0
TABLE
  2
LTYPE
 70
    25
  0
LTYPE
  2
CONTINUOUS
 70
    64
  3
Solid line
 72
    65
 73
     0
 40
0.0
  0
LTYPE
  2
BORDER
 70
    64
  3
__ __ . __ __ . __ __ . __ __ . __ __ . __ __ .
 72
    65
 73
     6
 40
1.75
 49
0.5
 49
-0.25
 49
0.5
 49
-0.25
 49
0.0
 49
-0.25
  0
LTYPE
  2
BORDER2
 70
    64
  3
__.__.__.__.__.__.__.__.__.__.__.__.__.__.__.__
 72
    65
 73
     6
 40
0.875
 49
0.25
 49
-0.125
 49
0.25
 49
-0.125
 49
0.0
 49
-0.125
  0
LTYPE
  2
BORDERX2
 70
    64
  3
____  ____  .  ____  ____  .  ____  ____  .  __
 72
    65
 73
     6
 40
3.5
 49
1.0
 49
-0.5
 49
1.0
 49
-0.5
 49
0.0
 49
-0.5
  0
LTYPE
  2
CENTER
 70
    64
  3
____ _ ____ _ ____ _ ____ _ ____ _ ____ _ ____ 
 72
    65
 73
     4
 40
2.0
 49
1.25
 49
-0.25
 49
0.25
 49
-0.25
  0
LTYPE
  2
CENTER2
 70
    64
  3
___ _ ___ _ ___ _ ___ _ ___ _ ___ _ ___ _ ___ _
 72
    65
 73
     4
 40
1.125
 49
0.75
 49
-0.125
 49
0.125
 49
-0.125
  0
LTYPE
  2
CENTERX2
 70
    64
  3
________  __  ________  __  ________  __  _____
 72
    65
 73
     4
 40
4.0
 49
2.5
 49
-0.5
 49
0.5
 49
-0.5
  0
LTYPE
  2
DASHDOT
 70
    64
  3
__ . __ . __ . __ . __ . __ . __ . __ . __ . __
 72
    65
 73
     4
 40
1.0
 49
0.5
 49
-0.25
 49
0.0
 49
-0.25
  0
LTYPE
  2
DASHDOT2
 70
    64
  3
_._._._._._._._._._._._._._._._._._._._._._._._
 72
    65
 73
     4
 40
0.5
 49
0.25
 49
-0.125
 49
0.0
 49
-0.125
  0
LTYPE
  2
DASHDOTX2
 70
    64
  3
____  .  ____  .  ____  .  ____  .  ____  .  __
 72
    65
 73
     4
 40
2.0
 49
1.0
 49
-0.5
 49
0.0
 49
-0.5
  0
LTYPE
  2
DASHED
 70
    64
  3
__ __ __ __ __ __ __ __ __ __ __ __ __ __ __ __
 72
    65
 73
     2
 40
0.75
 49
0.5
 49
-0.25
  0
LTYPE
  2
DASHED2
 70
    64
  3
_ _ _ _ _ _ _ _ _ _ _ _ _ _ _ _ _ _ _ _ _ _ _ _
 72
    65
 73
     2
 40
0.375
 49
0.25
 49
-0.125
  0
LTYPE
  2
DASHEDX2
 70
    64
  3
____  ____  ____  ____  ____  ____  ____  ____ 
 72
    65
 73
     2
 40
1.5
 49
1.0
 49
-0.5
  0
LTYPE
  2
DIVIDE
 70
    64
  3
____ . . ____ . . ____ . . ____ . . ____ . . __
 72
    65
 73
     6
 40
1.25
 49
0.5
 49
-0.25
 49
0.0
 49
-0.25
 49
0.0
 49
-0.25
  0
LTYPE
  2
DIVIDE2
 70
    64
  3
__..__..__..__..__..__..__..__..__..__..__..__.
 72
    65
 73
     6
 40
0.625
 49
0.25
 49
-0.125
 49
0.0
 49
-0.125
 49
0.0
 49
-0.125
  0
LTYPE
  2
DIVIDEX2
 70
    64
  3
________  .  .  ________  .  .  ________  .  . 
 72
    65
 73
     6
 40
2.5
 49
1.0
 49
-0.5
 49
0.0
 49
-0.5
 49
0.0
 49
-0.5
  0
LTYPE
  2
DOT
 70
    64
  3
. . . . . . . . . . . . . . . . . . . . . . . .
 72
    65
 73
     2
 40
0.25
 49
0.0
 49
-0.25
  0
LTYPE
  2
DOT2
 70
    64
  3
...............................................
 72
    65
 73
     2
 40
0.125
 49
0.0
 49
-0.125
  0
LTYPE
  2
DOTX2
 70
    64
  3
.  .  .  .  .  .  .  .  .  .  .  .  .  .  .  . 
 72
    65
 73
     2
 40
0.5
 49
0.0
 49
-0.5
  0
LTYPE
  2
HIDDEN
 70
    64
  3
__ __ __ __ __ __ __ __ __ __ __ __ __ __ __ __
 72
    65
 73
     2
 40
0.375
 49
0.25
 49
-0.125
  0
LTYPE
  2
HIDDEN2
 70
    64
  3
_ _ _ _ _ _ _ _ _ _ _ _ _ _ _ _ _ _ _ _ _ _ _ _
 72
    65
 73
     2
 40
0.1875
 49
0.125
 49
-0.0625
  0
LTYPE
  2
HIDDENX2
 70
    64
  3
____ ____ ____ ____ ____ ____ ____ ____ ____ __
 72
    65
 73
     2
 40
0.75
 49
0.5
 49
-0.25
  0
LTYPE
  2
PHANTOM
 70
    64
  3
______  __  __  ______  __  __  ______  __  __ 
 72
    65
 73
     6
 40
2.5
 49
1.25
 49
-0.25
 49
0.25
 49
-0.25
 49
0.25
 49
-0.25
  0
LTYPE
  2
PHANTOM2
 70
    64
  3
___ _ _ ___ _ _ ___ _ _ ___ _ _ ___ _ _ ___ _ _
 72
    65
 73
     6
 40
1.25
 49
0.625
 49
-0.125
 49
0.125
 49
-0.125
 49
0.125
 49
-0.125
  0
LTYPE
  2
PHANTOMX2
 70
    64
  3
____________    ____    ____    ____________   
 72
    65
 73
     6
 40
5.0
 49
2.5
 49
-0.5
 49
0.5
 49
-0.5
 49
0.5
 49
-0.5
  0
ENDTAB
  0
TABLE
  2
STYLE
 70
     2
  0
STYLE
  2
STANDARD
 70
0
 40
0.0
 41
1.0
 50
0.0
 71
0
 42
0.2
  3
TXT
  4
BIGFONT
  0
STYLE
  2
STANDARD1
 70
     4
 40
0.0
 41
1.0
 50
0.0
 71
     0
 42
0.2
  3
TXT
  4
BIGFONT
  0
ENDTAB
   0
TABLE
   2
LAYER
  70
4
   0
LAYER
   2
0
  70
0
  62
7
   6
CONTINUOUS
   0
LAYER
   2
LEVEL001
  70
0
  62
7
   6
CONTINUOUS
   0
LAYER
   2
LEVEL003
  70
0
  62
7
   6
CONTINUOUS
   0
LAYER
   2
LEVEL004
  70
0
  62
7
   6
CONTINUOUS
   0
ENDTAB
   0
ENDSEC
   0
SECTION
   2
ENTITIES
   0
LINE
   8
LEVEL001
   6
CONTINUOUS
  62
7
  10
 123.500
  20
 112.000
  30
0.0
  11
 121.500
  21
 110.000
  31
0.0
   0
LINE
   8
LEVEL001
   6
CONTINUOUS
  62
7
  10
 56.5000
  20
 112.000
  30
0.0
  11
 58.5000
  21
 110.000
  31
0.0
   0
LINE
   8
LEVEL001
   6
CONTINUOUS
  62
7
  10
 58.5000
  20
 110.000
  30
0.0
  11
 121.500
  21
 110.000
  31
0.0
   0
LINE
   8
LEVEL003
   6
CONTINUOUS
  62
3
  10
 69.0000
  20
 106.000
  30
0.0
  11
 69.0000
  21
 93.0000
  31
0.0
   0
LINE
   8
LEVEL003
   6
CONTINUOUS
  62
3
  10
 111.000
  20
 106.000
  30
0.0
  11
 111.000
  21
 93.0000
  31
0.0
   0
LINE
   8
LEVEL003
   6
CONTINUOUS
  62
3
  10
 69.0000
  20
 95.0000
  30
0.0
  11
 111.000
  21
 95.0000
  31
0.0
   0
LINE
   8
LEVEL003
   6
CONTINUOUS
  62
3
  10
 69.0000
  20
 95.0000
  30
0.0
  11
 72.0000
  21
 94.4710
  31
0.0
   0
LINE
   8
LEVEL003
   6
CONTINUOUS
  62
3
  10
 69.0000
  20
 95.0000
  30
0.0
  11
 72.0000
  21
 95.5290
  31
0.0
   0
LINE
   8
LEVEL003
   6
CONTINUOUS
  62
3
  10
 111.000
  20
 95.0000
  30
0.0
  11
 108.000
  21
 95.5290
  31
0.0
   0
LINE
   8
LEVEL003
   6
CONTINUOUS
  62
3
  10
 111.000
  20
 95.0000
  30
0.0
  11
 108.000
  21
 94.4710
  31
0.0
   0
TEXT
   8
LEVEL003
  62
3
  10
 86.0000
  20
 95.8000
  30
0.0
  40
 4.00000
   1
%%c42
   7
STANDARD
  72
1
  11
 90.0000
  21
 95.8000
  31
0.0
   0
TEXT
   8
LEVEL003
  62
3
  10
 135.000
  20
 100.000
  30
0.0
  40
 4.00000
   1
ＮＰＴ３／８
   7
STANDARD
   0
LINE
   8
LEVEL003
   6
CONTINUOUS
  62
3
  10
 126.558
  20
 123.573
  30
0.0
  11
 135.000
  21
 100.000
  31
0.0
   0
LINE
   8
LEVEL003
   6
CONTINUOUS
  62
3
  10
 135.000
  20
 100.000
  30
0.0
  11
 160.000
  21
 100.000
  31
0.0
   0
LINE
   8
LEVEL003
   6
CONTINUOUS
  62
3
  10
 126.558
  20
 123.573
  30
0.0
  11
 127.071
  21
 120.571
  31
0.0
   0
LINE
   8
LEVEL003
   6
CONTINUOUS
  62
3
  10
 126.558
  20
 123.573
  30
0.0
  11
 128.067
  21
 120.927
  31
0.0
   0
LINE
   8
LEVEL001
   6
CONTINUOUS
  62
3
  10
 133.500
  20
 140.644
  30
0.0
  11
 129.884
  21
 139.675
  31
0.0
   0
LINE
   8
LEVEL001
   6
CONTINUOUS
  62
3
  10
 133.500
  20
 123.356
  30
0.0
  11
 129.884
  21
 124.325
  31
0.0
   0
LINE
   8
LEVEL001
   6
CONTINUOUS
  62
7
  10
 133.500
  20
 140.644
  30
0.0
  11
 134.984
  21
 141.500
  31
0.0
   0
LINE
   8
LEVEL001
   6
CONTINUOUS
  62
7
  10
 150.500
  20
 141.500
  30
0.0
  11
 134.984
  21
 141.500
  31
0.0
   0
LINE
   8
LEVEL001
   6
CONTINUOUS
  62
7
  10
 133.500
  20
 123.356
  30
0.0
  11
 134.984
  21
 122.500
  31
0.0
   0
LINE
   8
LEVEL001
   6
CONTINUOUS
  62
7
  10
 150.500
  20
 122.500
  30
0.0
  11
 134.984
  21
 122.500
  31
0.0
   0
ARC
   8
LEVEL001
   6
CONTINUOUS
  62
7
  10
 152.000
  20
 145.000
  30
0.0
  40
 1.50000
  50
 90.0000
  51
 180.000
   0
LINE
   8
LEVEL001
   6
CONTINUOUS
  62
7
  10
 152.000
  20
 146.500
  30
0.0
  11
 157.000
  21
 146.500
  31
0.0
   0
ARC
   8
LEVEL001
   6
CONTINUOUS
  62
7
  10
 152.000
  20
 119.000
  30
0.0
  40
 1.50000
  50
 180.000
  51
 270.000
   0
LINE
   8
LEVEL001
   6
CONTINUOUS
  62
7
  10
 150.500
  20
 119.000
  30
0.0
  11
 150.500
  21
 145.000
  31
0.0
   0
LINE
   8
LEVEL001
   6
CONTINUOUS
  62
7
  10
 152.000
  20
 117.500
  30
0.0
  11
 157.000
  21
 117.500
  31
0.0
   0
ARC
   8
LEVEL001
   6
CONTINUOUS
  62
7
  10
 173.000
  20
 145.000
  30
0.0
  40
 1.50000
  50
0.0
  51
 90.0000
   0
LINE
   8
LEVEL001
   6
CONTINUOUS
  62
7
  10
 168.000
  20
 146.500
  30
0.0
  11
 173.000
  21
 146.500
  31
0.0
   0
ARC
   8
LEVEL001
   6
CONTINUOUS
  62
7
  10
 173.000
  20
 119.000
  30
0.0
  40
 1.50000
  50
 270.000
  51
0.0
   0
LINE
   8
LEVEL001
   6
CONTINUOUS
  62
7
  10
 168.000
  20
 117.500
  30
0.0
  11
 173.000
  21
 117.500
  31
0.0
   0
LINE
   8
LEVEL001
   6
CONTINUOUS
  62
7
  10
 174.500
  20
 145.000
  30
0.0
  11
 174.500
  21
 119.000
  31
0.0
   0
ARC
   8
LEVEL001
   6
DASHDOT
  62
1
  10
 183.500
  20
 145.000
  30
0.0
  40
 1.00000
  50
0.0
  51
 90.0000
   0
LINE
   8
LEVEL001
   6
DASHDOT
  62
1
  10
 175.500
  20
 146.000
  30
0.0
  11
 183.500
  21
 146.000
  31
0.0
   0
ARC
   8
LEVEL001
   6
DASHDOT
  62
1
  10
 183.500
  20
 119.000
  30
0.0
  40
 1.00000
  50
 270.000
  51
0.0
   0
LINE
   8
LEVEL001
   6
DASHDOT
  62
1
  10
 175.500
  20
 118.000
  30
0.0
  11
 183.500
  21
 118.000
  31
0.0
   0
LINE
   8
LEVEL001
   6
DASHDOT
  62
1
  10
 184.500
  20
 145.000
  30
0.0
  11
 184.500
  21
 119.000
  31
0.0
   0
CIRCLE
   8
LEVEL001
   6
DASHDOT
  62
1
  10
 187.500
  20
 132.000
  30
0.0
  40
 1.50000
   0
ARC
   8
LEVEL001
   6
DASHDOT
  62
1
  10
 175.500
  20
 119.000
  30
0.0
  40
 1.00000
  50
 180.000
  51
 270.000
   0
ARC
   8
LEVEL001
   6
DASHDOT
  62
1
  10
 175.500
  20
 145.000
  30
0.0
  40
 1.00000
  50
 90.0000
  51
 180.000
   0
ARC
   8
LEVEL001
   6
DASHDOT
  62
1
  10
 186.500
  20
 137.500
  30
0.0
  40
 2.00000
  50
 180.000
  51
 270.000
   0
ARC
   8
LEVEL001
   6
DASHDOT
  62
1
  10
 186.500
  20
 126.500
  30
0.0
  40
 2.00000
  50
 90.0000
  51
 180.000
   0
LINE
   8
LEVEL001
   6
DASHDOT
  62
1
  10
 186.500
  20
 135.500
  30
0.0
  11
 187.000
  21
 135.500
  31
0.0
   0
LINE
   8
LEVEL001
   6
DASHDOT
  62
1
  10
 186.500
  20
 128.500
  30
0.0
  11
 187.000
  21
 128.500
  31
0.0
   0
ARC
   8
LEVEL001
   6
DASHDOT
  62
1
  10
 187.000
  20
 132.000
  30
0.0
  40
 3.50000
  50
 270.000
  51
 90.0000
   0
LINE
   8
LEVEL001
   6
CONTINUOUS
  62
7
  10
 134.984
  20
 122.500
  30
0.0
  11
 134.984
  21
 126.169
  31
0.0
   0
LINE
   8
LEVEL001
   6
CONTINUOUS
  62
7
  10
 134.984
  20
 137.831
  30
0.0
  11
 134.984
  21
 141.500
  31
0.0
   0
LINE
   8
LEVEL001
   6
CONTINUOUS
  62
7
  10
 129.500
  20
 127.961
  30
0.0
  11
 143.500
  21
 137.831
  31
0.0
   0
LINE
   8
LEVEL001
   6
CONTINUOUS
  62
7
  10
 129.500
  20
 136.039
  30
0.0
  11
 143.500
  21
 126.169
  31
0.0
   0
LINE
   8
LEVEL001
   6
CONTINUOUS
  62
3
  10
 129.884
  20
 139.674
  30
0.0
  11
 129.884
  21
 136.039
  31
0.0
   0
LINE
   8
LEVEL001
   6
CONTINUOUS
  62
3
  10
 129.884
  20
 127.961
  30
0.0
  11
 129.884
  21
 124.325
  31
0.0
   0
LINE
   8
LEVEL001
   6
CONTINUOUS
  62
7
  10
 133.500
  20
 140.644
  30
0.0
  11
 133.500
  21
 136.297
  31
0.0
   0
LINE
   8
LEVEL001
   6
CONTINUOUS
  62
7
  10
 133.500
  20
 127.703
  30
0.0
  11
 133.500
  21
 123.356
  31
0.0
   0
LINE
   8
LEVEL001
   6
CONTINUOUS
  62
3
  10
 157.000
  20
 119.000
  30
0.0
  11
 168.000
  21
 119.000
  31
0.0
   0
LINE
   8
LEVEL001
   6
CONTINUOUS
  62
3
  10
 157.000
  20
 121.000
  30
0.0
  11
 168.000
  21
 121.000
  31
0.0
   0
LINE
   8
LEVEL001
   6
CONTINUOUS
  62
3
  10
 157.000
  20
 123.000
  30
0.0
  11
 168.000
  21
 123.000
  31
0.0
   0
LINE
   8
LEVEL001
   6
CONTINUOUS
  62
3
  10
 157.000
  20
 125.000
  30
0.0
  11
 168.000
  21
 125.000
  31
0.0
   0
LINE
   8
LEVEL001
   6
CONTINUOUS
  62
3
  10
 157.000
  20
 127.000
  30
0.0
  11
 168.000
  21
 127.000
  31
0.0
   0
LINE
   8
LEVEL001
   6
CONTINUOUS
  62
3
  10
 157.000
  20
 129.000
  30
0.0
  11
 168.000
  21
 129.000
  31
0.0
   0
LINE
   8
LEVEL001
   6
CONTINUOUS
  62
3
  10
 157.000
  20
 131.000
  30
0.0
  11
 168.000
  21
 131.000
  31
0.0
   0
LINE
   8
LEVEL001
   6
CONTINUOUS
  62
3
  10
 157.000
  20
 133.000
  30
0.0
  11
 168.000
  21
 133.000
  31
0.0
   0
LINE
   8
LEVEL001
   6
CONTINUOUS
  62
3
  10
 157.000
  20
 135.000
  30
0.0
  11
 168.000
  21
 135.000
  31
0.0
   0
LINE
   8
LEVEL001
   6
CONTINUOUS
  62
3
  10
 157.000
  20
 137.000
  30
0.0
  11
 168.000
  21
 137.000
  31
0.0
   0
LINE
   8
LEVEL001
   6
CONTINUOUS
  62
3
  10
 157.000
  20
 139.000
  30
0.0
  11
 168.000
  21
 139.000
  31
0.0
   0
LINE
   8
LEVEL001
   6
CONTINUOUS
  62
3
  10
 157.000
  20
 141.000
  30
0.0
  11
 168.000
  21
 141.000
  31
0.0
   0
LINE
   8
LEVEL001
   6
CONTINUOUS
  62
3
  10
 157.000
  20
 143.000
  30
0.0
  11
 168.000
  21
 143.000
  31
0.0
   0
LINE
   8
LEVEL001
   6
CONTINUOUS
  62
3
  10
 157.000
  20
 145.000
  30
0.0
  11
 168.000
  21
 145.000
  31
0.0
   0
LINE
   8
LEVEL001
   6
CONTINUOUS
  62
7
  10
 129.500
  20
 127.961
  30
0.0
  11
 129.500
  21
 136.039
  31
0.0
   0
LINE
   8
LEVEL001
   6
CONTINUOUS
  62
7
  10
 129.500
  20
 136.039
  30
0.0
  11
 133.500
  21
 136.297
  31
0.0
   0
LINE
   8
LEVEL001
   6
CONTINUOUS
  62
7
  10
 133.500
  20
 136.297
  30
0.0
  11
 134.984
  21
 137.831
  31
0.0
   0
LINE
   8
LEVEL001
   6
CONTINUOUS
  62
7
  10
 134.984
  20
 137.831
  30
0.0
  11
 143.500
  21
 137.831
  31
0.0
   0
LINE
   8
LEVEL001
   6
CONTINUOUS
  62
7
  10
 143.500
  20
 137.831
  30
0.0
  11
 143.500
  21
 126.169
  31
0.0
   0
LINE
   8
LEVEL001
   6
CONTINUOUS
  62
7
  10
 143.500
  20
 126.169
  30
0.0
  11
 134.984
  21
 126.169
  31
0.0
   0
LINE
   8
LEVEL001
   6
CONTINUOUS
  62
7
  10
 134.984
  20
 126.169
  30
0.0
  11
 133.500
  21
 127.703
  31
0.0
   0
LINE
   8
LEVEL001
   6
CONTINUOUS
  62
7
  10
 133.500
  20
 127.703
  30
0.0
  11
 129.500
  21
 127.961
  31
0.0
   0
LINE
   8
LEVEL001
   6
CONTINUOUS
  62
7
  10
 157.000
  20
 117.000
  30
0.0
  11
 157.000
  21
 147.000
  31
0.0
   0
LINE
   8
LEVEL001
   6
CONTINUOUS
  62
7
  10
 157.000
  20
 147.000
  30
0.0
  11
 168.000
  21
 147.000
  31
0.0
   0
LINE
   8
LEVEL001
   6
CONTINUOUS
  62
7
  10
 168.000
  20
 147.000
  30
0.0
  11
 168.000
  21
 117.000
  31
0.0
   0
LINE
   8
LEVEL001
   6
CONTINUOUS
  62
7
  10
 168.000
  20
 117.000
  30
0.0
  11
 157.000
  21
 117.000
  31
0.0
   0
LINE
   8
LEVEL003
   6
CONTINUOUS
  62
3
  10
 196.000
  20
 132.000
  30
0.0
  11
 212.000
  21
 132.000
  31
0.0
   0
LINE
   8
LEVEL003
   6
CONTINUOUS
  62
3
  10
 122.500
  20
 110.000
  30
0.0
  11
 212.000
  21
 110.000
  31
0.0
   0
LINE
   8
LEVEL003
   6
CONTINUOUS
  62
3
  10
 210.000
  20
 132.000
  30
0.0
  11
 210.000
  21
 110.000
  31
0.0
   0
LINE
   8
LEVEL003
   6
CONTINUOUS
  62
3
  10
 210.000
  20
 132.000
  30
0.0
  11
 209.471
  21
 129.000
  31
0.0
   0
LINE
   8
LEVEL003
   6
CONTINUOUS
  62
3
  10
 210.000
  20
 132.000
  30
0.0
  11
 210.529
  21
 129.000
  31
0.0
   0
LINE
   8
LEVEL003
   6
CONTINUOUS
  62
3
  10
 210.000
  20
 110.000
  30
0.0
  11
 210.529
  21
 113.000
  31
0.0
   0
LINE
   8
LEVEL003
   6
CONTINUOUS
  62
3
  10
 210.000
  20
 110.000
  30
0.0
  11
 209.471
  21
 113.000
  31
0.0
   0
TEXT
   8
LEVEL003
  62
3
  10
 209.200
  20
 119.000
  30
0.0
  40
 4.00000
   1
22
  50
 90.0000
  41
 0.500000
   7
STANDARD
  72
1
  11
 209.200
  21
 121.000
  31
0.0
   0
CIRCLE
   8
LEVEL001
   6
CONTINUOUS
  62
7
  10
 90.0000
  20
 50.0000
  30
0.0
  40
 33.5000
   0
CIRCLE
   8
LEVEL001
   6
CONTINUOUS
  62
7
  10
 90.0000
  20
 71.0000
  30
0.0
  40
 4.25000
   0
CIRCLE
   8
LEVEL001
   6
CONTINUOUS
  62
3
  10
 90.0000
  20
 71.0000
  30
0.0
  40
 5.00000
   0
LINE
   8
LEVEL001
   6
DASHDOT
  62
1
  10
 98.0000
  20
 71.0000
  30
0.0
  11
 82.0000
  21
 71.0000
  31
0.0
   0
CIRCLE
   8
LEVEL001
   6
CONTINUOUS
  62
7
  10
 90.0000
  20
 29.0000
  30
0.0
  40
 4.25000
   0
CIRCLE
   8
LEVEL001
   6
CONTINUOUS
  62
3
  10
 90.0000
  20
 29.0000
  30
0.0
  40
 5.00000
   0
LINE
   8
LEVEL001
   6
DASHDOT
  62
1
  10
 98.0000
  20
 29.0000
  30
0.0
  11
 82.0000
  21
 29.0000
  31
0.0
   0
LINE
   8
LEVEL001
   6
CONTINUOUS
  62
7
  10
 90.0000
  20
 54.6188
  30
0.0
  11
 94.0000
  21
 52.3094
  31
0.0
   0
LINE
   8
LEVEL001
   6
CONTINUOUS
  62
7
  10
 94.0000
  20
 52.3094
  30
0.0
  11
 94.0000
  21
 47.6906
  31
0.0
   0
LINE
   8
LEVEL001
   6
CONTINUOUS
  62
7
  10
 94.0000
  20
 47.6906
  30
0.0
  11
 90.0000
  21
 45.3812
  31
0.0
   0
LINE
   8
LEVEL001
   6
CONTINUOUS
  62
7
  10
 90.0000
  20
 45.3812
  30
0.0
  11
 86.0000
  21
 47.6906
  31
0.0
   0
LINE
   8
LEVEL001
   6
CONTINUOUS
  62
7
  10
 86.0000
  20
 47.6906
  30
0.0
  11
 86.0000
  21
 52.3094
  31
0.0
   0
LINE
   8
LEVEL001
   6
CONTINUOUS
  62
7
  10
 86.0000
  20
 52.3094
  30
0.0
  11
 90.0000
  21
 54.6188
  31
0.0
   0
CIRCLE
   8
LEVEL001
   6
CONTINUOUS
  62
7
  10
 90.0000
  20
 50.0000
  30
0.0
  40
 8.33100
   0
CIRCLE
   8
LEVEL001
   6
CONTINUOUS
  62
3
  10
 90.0000
  20
 50.0000
  30
0.0
  40
 7.47500
   0
LINE
   8
LEVEL001
   6
DASHDOT
  62
1
  10
 90.0000
  20
 87.8081
  30
0.0
  11
 90.0000
  21
 12.1919
  31
0.0
   0
CIRCLE
   8
LEVEL001
   6
CONTINUOUS
  62
7
  10
 90.0000
  20
 50.0000
  30
0.0
  40
 9.33096
   0
CIRCLE
   8
LEVEL001
   6
CONTINUOUS
  62
7
  10
 90.0000
  20
 50.0000
  30
0.0
  40
 31.5000
   0
LINE
   8
LEVEL001
   6
CONTINUOUS
  62
3
  10
 128.887
  20
 57.5000
  30
0.0
  11
 128.887
  21
 42.5000
  31
0.0
   0
LINE
   8
LEVEL001
   6
CONTINUOUS
  62
7
  10
 132.504
  20
 57.5000
  30
0.0
  11
 132.504
  21
 42.5000
  31
0.0
   0
LINE
   8
LEVEL001
   6
CONTINUOUS
  62
7
  10
 128.504
  20
 58.5185
  30
0.0
  11
 122.504
  21
 58.3310
  31
0.0
   0
LINE
   8
LEVEL001
   6
CONTINUOUS
  62
3
  10
 128.504
  20
 57.6625
  30
0.0
  11
 122.504
  21
 57.4750
  31
0.0
   0
LINE
   8
LEVEL001
   6
CONTINUOUS
  62
3
  10
 128.499
  20
 42.3376
  30
0.0
  11
 122.504
  21
 42.5250
  31
0.0
   0
LINE
   8
LEVEL001
   6
CONTINUOUS
  62
7
  10
 128.504
  20
 41.4815
  30
0.0
  11
 122.504
  21
 41.6690
  31
0.0
   0
LINE
   8
LEVEL001
   6
CONTINUOUS
  62
7
  10
 133.987
  20
 42.5000
  30
0.0
  11
 133.987
  21
 57.5000
  31
0.0
   0
ARC
   8
LEVEL001
   6
CONTINUOUS
  62
7
  10
 151.004
  20
 63.0000
  30
0.0
  40
 1.50000
  50
 90.0000
  51
 180.000
   0
LINE
   8
LEVEL001
   6
CONTINUOUS
  62
7
  10
 151.004
  20
 64.5000
  30
0.0
  11
 156.004
  21
 64.5000
  31
0.0
   0
ARC
   8
LEVEL001
   6
CONTINUOUS
  62
7
  10
 151.004
  20
 37.0000
  30
0.0
  40
 1.50000
  50
 180.000
  51
 270.000
   0
LINE
   8
LEVEL001
   6
CONTINUOUS
  62
7
  10
 149.504
  20
 37.0000
  30
0.0
  11
 149.504
  21
 63.0000
  31
0.0
   0
LINE
   8
LEVEL001
   6
CONTINUOUS
  62
7
  10
 151.004
  20
 35.5000
  30
0.0
  11
 156.004
  21
 35.5000
  31
0.0
   0
ARC
   8
LEVEL001
   6
CONTINUOUS
  62
7
  10
 172.004
  20
 63.0000
  30
0.0
  40
 1.50000
  50
0.0
  51
 90.0000
   0
LINE
   8
LEVEL001
   6
CONTINUOUS
  62
7
  10
 167.004
  20
 64.5000
  30
0.0
  11
 172.004
  21
 64.5000
  31
0.0
   0
ARC
   8
LEVEL001
   6
CONTINUOUS
  62
7
  10
 172.004
  20
 37.0000
  30
0.0
  40
 1.50000
  50
 270.000
  51
 0.580812E-10
   0
LINE
   8
LEVEL001
   6
CONTINUOUS
  62
7
  10
 167.004
  20
 35.5000
  30
0.0
  11
 172.004
  21
 35.5000
  31
0.0
   0
LINE
   8
LEVEL001
   6
CONTINUOUS
  62
7
  10
 173.504
  20
 63.0000
  30
0.0
  11
 173.504
  21
 37.0000
  31
0.0
   0
ARC
   8
LEVEL001
   6
DASHDOT
  62
1
  10
 182.504
  20
 63.0000
  30
0.0
  40
 1.00000
  50
0.0
  51
 90.0000
   0
LINE
   8
LEVEL001
   6
DASHDOT
  62
1
  10
 174.504
  20
 64.0000
  30
0.0
  11
 182.504
  21
 64.0000
  31
0.0
   0
ARC
   8
LEVEL001
   6
DASHDOT
  62
1
  10
 182.504
  20
 37.0000
  30
0.0
  40
 1.00000
  50
 270.000
  51
0.0
   0
LINE
   8
LEVEL001
   6
DASHDOT
  62
1
  10
 174.504
  20
 36.0000
  30
0.0
  11
 182.504
  21
 36.0000
  31
0.0
   0
LINE
   8
LEVEL001
   6
DASHDOT
  62
1
  10
 183.504
  20
 63.0000
  30
0.0
  11
 183.504
  21
 37.0000
  31
0.0
   0
ARC
   8
LEVEL001
   6
DASHDOT
  62
1
  10
 174.504
  20
 37.0000
  30
0.0
  40
 1.00000
  50
 180.000
  51
 270.000
   0
ARC
   8
LEVEL001
   6
DASHDOT
  62
1
  10
 174.504
  20
 63.0000
  30
0.0
  40
 1.00000
  50
 90.0000
  51
 180.000
   0
LINE
   8
LEVEL001
   6
CONTINUOUS
  62
3
  10
 156.004
  20
 37.0000
  30
0.0
  11
 167.004
  21
 37.0000
  31
0.0
   0
LINE
   8
LEVEL001
   6
CONTINUOUS
  62
3
  10
 156.004
  20
 39.0000
  30
0.0
  11
 167.004
  21
 39.0000
  31
0.0
   0
LINE
   8
LEVEL001
   6
CONTINUOUS
  62
3
  10
 156.004
  20
 41.0000
  30
0.0
  11
 167.004
  21
 41.0000
  31
0.0
   0
LINE
   8
LEVEL001
   6
CONTINUOUS
  62
3
  10
 156.004
  20
 43.0000
  30
0.0
  11
 167.004
  21
 43.0000
  31
0.0
   0
LINE
   8
LEVEL001
   6
CONTINUOUS
  62
3
  10
 156.004
  20
 45.0000
  30
0.0
  11
 167.004
  21
 45.0000
  31
0.0
   0
LINE
   8
LEVEL001
   6
CONTINUOUS
  62
3
  10
 156.004
  20
 47.0000
  30
0.0
  11
 167.004
  21
 47.0000
  31
0.0
   0
LINE
   8
LEVEL001
   6
CONTINUOUS
  62
3
  10
 156.004
  20
 49.0000
  30
0.0
  11
 167.004
  21
 49.0000
  31
0.0
   0
LINE
   8
LEVEL001
   6
CONTINUOUS
  62
3
  10
 156.004
  20
 51.0000
  30
0.0
  11
 167.004
  21
 51.0000
  31
0.0
   0
LINE
   8
LEVEL001
   6
CONTINUOUS
  62
3
  10
 156.004
  20
 53.0000
  30
0.0
  11
 167.004
  21
 53.0000
  31
0.0
   0
LINE
   8
LEVEL001
   6
CONTINUOUS
  62
3
  10
 156.004
  20
 55.0000
  30
0.0
  11
 167.004
  21
 55.0000
  31
0.0
   0
LINE
   8
LEVEL001
   6
CONTINUOUS
  62
3
  10
 156.004
  20
 57.0000
  30
0.0
  11
 167.004
  21
 57.0000
  31
0.0
   0
LINE
   8
LEVEL001
   6
CONTINUOUS
  62
3
  10
 156.004
  20
 59.0000
  30
0.0
  11
 167.004
  21
 59.0000
  31
0.0
   0
LINE
   8
LEVEL001
   6
CONTINUOUS
  62
3
  10
 156.004
  20
 61.0000
  30
0.0
  11
 167.004
  21
 61.0000
  31
0.0
   0
LINE
   8
LEVEL001
   6
CONTINUOUS
  62
3
  10
 156.004
  20
 63.0000
  30
0.0
  11
 167.004
  21
 63.0000
  31
0.0
   0
LINE
   8
LEVEL001
   6
DASHDOT
  62
1
  10
 183.504
  20
 52.0000
  30
0.0
  11
 189.504
  21
 52.0000
  31
0.0
   0
LINE
   8
LEVEL001
   6
DASHDOT
  62
1
  10
 189.504
  20
 52.0000
  30
0.0
  11
 189.504
  21
 48.0000
  31
0.0
   0
LINE
   8
LEVEL001
   6
DASHDOT
  62
1
  10
 189.504
  20
 48.0000
  30
0.0
  11
 183.504
  21
 48.0000
  31
0.0
   0
LINE
   8
LEVEL001
   6
CONTINUOUS
  62
7
  10
 128.504
  20
 58.5185
  30
0.0
  11
 128.504
  21
 57.5000
  31
0.0
   0
LINE
   8
LEVEL001
   6
CONTINUOUS
  62
7
  10
 128.504
  20
 57.5000
  30
0.0
  11
 142.504
  21
 57.5000
  31
0.0
   0
LINE
   8
LEVEL001
   6
CONTINUOUS
  62
7
  10
 142.504
  20
 57.5000
  30
0.0
  11
 142.504
  21
 59.5000
  31
0.0
   0
LINE
   8
LEVEL001
   6
CONTINUOUS
  62
7
  10
 142.504
  20
 59.5000
  30
0.0
  11
 149.504
  21
 59.5000
  31
0.0
   0
LINE
   8
LEVEL001
   6
CONTINUOUS
  62
7
  10
 128.504
  20
 41.4815
  30
0.0
  11
 128.504
  21
 42.5000
  31
0.0
   0
LINE
   8
LEVEL001
   6
CONTINUOUS
  62
7
  10
 128.504
  20
 42.5000
  30
0.0
  11
 142.504
  21
 42.5000
  31
0.0
   0
LINE
   8
LEVEL001
   6
CONTINUOUS
  62
7
  10
 142.504
  20
 42.5000
  30
0.0
  11
 142.504
  21
 40.5000
  31
0.0
   0
LINE
   8
LEVEL001
   6
CONTINUOUS
  62
7
  10
 142.504
  20
 40.5000
  30
0.0
  11
 149.504
  21
 40.5000
  31
0.0
   0
LINE
   8
LEVEL001
   6
CONTINUOUS
  62
7
  10
 156.004
  20
 35.0000
  30
0.0
  11
 156.004
  21
 65.0000
  31
0.0
   0
LINE
   8
LEVEL001
   6
CONTINUOUS
  62
7
  10
 156.004
  20
 65.0000
  30
0.0
  11
 167.004
  21
 65.0000
  31
0.0
   0
LINE
   8
LEVEL001
   6
CONTINUOUS
  62
7
  10
 167.004
  20
 65.0000
  30
0.0
  11
 167.004
  21
 35.0000
  31
0.0
   0
LINE
   8
LEVEL001
   6
CONTINUOUS
  62
7
  10
 167.004
  20
 35.0000
  30
0.0
  11
 156.004
  21
 35.0000
  31
0.0
   0
LINE
   8
LEVEL001
   6
DASHDOT
  62
1
  10
 192.504
  20
 50.0000
  30
0.0
  11
 52.5000
  21
 50.0000
  31
0.0
   0
LINE
   8
LEVEL003
   6
CONTINUOUS
  62
3
  10
 122.500
  20
 110.000
  30
0.0
  11
 227.000
  21
 110.000
  31
0.0
   0
LINE
   8
LEVEL003
   6
CONTINUOUS
  62
3
  10
 225.000
  20
 110.000
  30
0.0
  11
 225.529
  21
 113.000
  31
0.0
   0
LINE
   8
LEVEL003
   6
CONTINUOUS
  62
3
  10
 225.000
  20
 110.000
  30
0.0
  11
 224.471
  21
 113.000
  31
0.0
   0
LINE
   8
LEVEL003
   6
CONTINUOUS
  62
3
  10
 67.0000
  20
 255.000
  30
0.0
  11
 113.000
  21
 255.000
  31
0.0
   0
LINE
   8
LEVEL003
   6
CONTINUOUS
  62
3
  10
 67.0000
  20
 255.000
  30
0.0
  11
 70.0000
  21
 254.471
  31
0.0
   0
LINE
   8
LEVEL003
   6
CONTINUOUS
  62
3
  10
 67.0000
  20
 255.000
  30
0.0
  11
 70.0000
  21
 255.529
  31
0.0
   0
LINE
   8
LEVEL003
   6
CONTINUOUS
  62
3
  10
 113.000
  20
 255.000
  30
0.0
  11
 110.000
  21
 255.529
  31
0.0
   0
LINE
   8
LEVEL003
   6
CONTINUOUS
  62
3
  10
 113.000
  20
 255.000
  30
0.0
  11
 110.000
  21
 254.471
  31
0.0
   0
TEXT
   8
LEVEL003
  62
3
  10
 86.0000
  20
 255.800
  30
0.0
  40
 4.00000
   1
%%c46
   7
STANDARD
  72
1
  11
 90.0000
  21
 255.800
  31
0.0
   0
LINE
   8
LEVEL003
   6
CONTINUOUS
  62
3
  10
 64.0000
  20
 245.000
  30
0.0
  11
 116.000
  21
 245.000
  31
0.0
   0
LINE
   8
LEVEL003
   6
CONTINUOUS
  62
3
  10
 64.0000
  20
 245.000
  30
0.0
  11
 67.0000
  21
 244.471
  31
0.0
   0
LINE
   8
LEVEL003
   6
CONTINUOUS
  62
3
  10
 64.0000
  20
 245.000
  30
0.0
  11
 67.0000
  21
 245.529
  31
0.0
   0
LINE
   8
LEVEL003
   6
CONTINUOUS
  62
3
  10
 116.000
  20
 245.000
  30
0.0
  11
 113.000
  21
 245.529
  31
0.0
   0
LINE
   8
LEVEL003
   6
CONTINUOUS
  62
3
  10
 116.000
  20
 245.000
  30
0.0
  11
 113.000
  21
 244.471
  31
0.0
   0
TEXT
   8
LEVEL003
  62
3
  10
 86.0000
  20
 245.800
  30
0.0
  40
 4.00000
   1
%%c52
   7
STANDARD
  72
1
  11
 90.0000
  21
 245.800
  31
0.0
   0
LINE
   8
LEVEL003
   6
CONTINUOUS
  62
3
  10
 56.5000
  20
 235.000
  30
0.0
  11
 123.500
  21
 235.000
  31
0.0
   0
LINE
   8
LEVEL003
   6
CONTINUOUS
  62
3
  10
 56.5000
  20
 235.000
  30
0.0
  11
 59.5000
  21
 234.471
  31
0.0
   0
LINE
   8
LEVEL003
   6
CONTINUOUS
  62
3
  10
 56.5000
  20
 235.000
  30
0.0
  11
 59.5000
  21
 235.529
  31
0.0
   0
LINE
   8
LEVEL003
   6
CONTINUOUS
  62
3
  10
 123.500
  20
 235.000
  30
0.0
  11
 120.500
  21
 235.529
  31
0.0
   0
LINE
   8
LEVEL003
   6
CONTINUOUS
  62
3
  10
 123.500
  20
 235.000
  30
0.0
  11
 120.500
  21
 234.471
  31
0.0
   0
TEXT
   8
LEVEL003
  62
3
  10
 86.0000
  20
 235.800
  30
0.0
  40
 4.00000
   1
%%c67
   7
STANDARD
  72
1
  11
 90.0000
  21
 235.800
  31
0.0
   0
LINE
   8
LEVEL001
   6
CONTINUOUS
  62
7
  10
 133.500
  20
 140.644
  30
0.0
  11
 123.500
  21
 140.331
  31
0.0
   0
LINE
   8
LEVEL001
   6
CONTINUOUS
  62
7
  10
 133.500
  20
 123.356
  30
0.0
  11
 123.500
  21
 123.669
  31
0.0
   0
LINE
   8
LEVEL001
   6
CONTINUOUS
  62
3
  10
 129.884
  20
 139.674
  30
0.0
  11
 123.500
  21
 139.475
  31
0.0
   0
LINE
   8
LEVEL001
   6
CONTINUOUS
  62
3
  10
 129.884
  20
 124.325
  30
0.0
  11
 123.500
  21
 124.525
  31
0.0
   0
LINE
   8
LEVEL001
   6
CONTINUOUS
  62
7
  10
 123.500
  20
 112.000
  30
0.0
  11
 56.5000
  21
 112.000
  31
0.0
   0
LINE
   8
LEVEL004
   6
DASHDOT
  62
1
  10
 111.000
  20
 107.000
  30
0.0
  11
 111.000
  21
 120.000
  31
0.0
   0
LINE
   8
LEVEL004
   6
DASHDOT
  62
1
  10
 69.0000
  20
 107.000
  30
0.0
  11
 69.0000
  21
 120.000
  31
0.0
   0
LINE
   8
LEVEL004
   6
DOT
  62
3
  10
 74.0000
  20
 110.000
  30
0.0
  11
 73.2500
  21
 110.750
  31
0.0
   0
LINE
   8
LEVEL004
   6
DOT
  62
3
  10
 73.2500
  20
 110.750
  30
0.0
  11
 73.2500
  21
 120.000
  31
0.0
   0
LINE
   8
LEVEL004
   6
DOT
  62
3
  10
 64.7500
  20
 120.000
  30
0.0
  11
 64.7500
  21
 110.750
  31
0.0
   0
LINE
   8
LEVEL004
   6
DOT
  62
3
  10
 64.7500
  20
 110.750
  30
0.0
  11
 64.0000
  21
 110.000
  31
0.0
   0
LINE
   8
LEVEL004
   6
DOT
  62
3
  10
 74.0000
  20
 110.000
  30
0.0
  11
 74.0000
  21
 120.000
  31
0.0
   0
LINE
   8
LEVEL004
   6
DOT
  62
3
  10
 64.0000
  20
 120.000
  30
0.0
  11
 64.0000
  21
 110.000
  31
0.0
   0
LINE
   8
LEVEL004
   6
DOT
  62
3
  10
 73.2500
  20
 110.750
  30
0.0
  11
 64.7500
  21
 110.750
  31
0.0
   0
LINE
   8
LEVEL003
   6
CONTINUOUS
  62
3
  10
 69.0000
  20
 110.000
  30
0.0
  11
 55.0000
  21
 95.0000
  31
0.0
   0
LINE
   8
LEVEL003
   6
CONTINUOUS
  62
3
  10
 69.0000
  20
 110.000
  30
0.0
  11
 66.5663
  21
 108.168
  31
0.0
   0
LINE
   8
LEVEL003
   6
CONTINUOUS
  62
3
  10
 69.0000
  20
 110.000
  30
0.0
  11
 67.3398
  21
 107.446
  31
0.0
   0
TEXT
   8
LEVEL003
  62
7
  10
 206.691
  20
 15.2200
  30
0.0
  40
 10.0000
   1
ＯＳＡＫＡ ＪＡＣＫ
   7
STANDARD
   0
CIRCLE
   8
LEVEL003
   6
CONTINUOUS
  62
7
  10
 194.718
  20
 22.2707
  30
0.0
  40
 3.00000
   0
LINE
   8
LEVEL003
   6
CONTINUOUS
  62
7
  10
 200.606
  20
 25.2707
  30
0.0
  11
 196.797
  21
 18.6707
  31
0.0
   0
LINE
   8
LEVEL003
   6
CONTINUOUS
  62
7
  10
 196.797
  20
 18.6707
  30
0.0
  11
 189.176
  21
 18.6707
  31
0.0
   0
LINE
   8
LEVEL003
   6
CONTINUOUS
  62
7
  10
 188.309
  20
 17.1707
  30
0.0
  11
 201.930
  21
 17.1707
  31
0.0
   0
LINE
   8
LEVEL003
   6
CONTINUOUS
  62
7
  10
 201.930
  20
 17.1707
  30
0.0
  11
 206.606
  21
 25.2707
  31
0.0
   0
LINE
   8
LEVEL003
   6
CONTINUOUS
  62
7
  10
 206.606
  20
 25.2707
  30
0.0
  11
 200.606
  21
 25.2707
  31
0.0
   0
LINE
   8
LEVEL003
   6
CONTINUOUS
  62
7
  10
 189.176
  20
 18.6707
  30
0.0
  11
 188.309
  21
 17.1707
  31
0.0
   0
LINE
   8
LEVEL001
   6
DASHDOT
  62
1
  10
 195.000
  20
 132.000
  30
0.0
  11
 115.000
  21
 132.000
  31
0.0
   0
TEXT
   8
LEVEL003
  62
3
  10
 10.7500
  20
 95.0000
  30
0.0
  40
 4.00000
   1
２－Ｍ１０×１５Ｌ
   7
STANDARD
   0
LINE
   8
LEVEL003
   6
CONTINUOUS
  62
3
  10
 55.0000
  20
 95.0000
  30
0.0
  11
 11.4400
  21
 95.0000
  31
0.0
   0
LINE
   8
LEVEL001
   6
CONTINUOUS
  62
7
  10
 122.250
  20
 412.000
  30
0.0
  11
 121.250
  21
 413.000
  31
0.0
   0
LINE
   8
LEVEL001
   6
CONTINUOUS
  62
7
  10
 122.250
  20
 409.000
  30
0.0
  11
 122.250
  21
 412.000
  31
0.0
   0
LINE
   8
LEVEL001
   6
CONTINUOUS
  62
7
  10
 122.750
  20
 409.000
  30
0.0
  11
 123.500
  21
 408.250
  31
0.0
   0
LINE
   8
LEVEL001
   6
CONTINUOUS
  62
7
  10
 123.500
  20
 408.250
  30
0.0
  11
 123.500
  21
 377.201
  31
0.0
   0
LINE
   8
LEVEL001
   6
CONTINUOUS
  62
3
  10
 122.750
  20
 380.000
  30
0.0
  11
 123.500
  21
 377.201
  31
0.0
   0
LINE
   8
LEVEL001
   6
CONTINUOUS
  62
7
  10
 57.7500
  20
 412.000
  30
0.0
  11
 58.7500
  21
 413.000
  31
0.0
   0
LINE
   8
LEVEL001
   6
CONTINUOUS
  62
7
  10
 57.7500
  20
 409.000
  30
0.0
  11
 57.7500
  21
 412.000
  31
0.0
   0
LINE
   8
LEVEL001
   6
CONTINUOUS
  62
7
  10
 57.2500
  20
 409.000
  30
0.0
  11
 56.5000
  21
 408.250
  31
0.0
   0
LINE
   8
LEVEL001
   6
CONTINUOUS
  62
7
  10
 56.5000
  20
 408.250
  30
0.0
  11
 56.5000
  21
 377.201
  31
0.0
   0
LINE
   8
LEVEL001
   6
CONTINUOUS
  62
3
  10
 57.2500
  20
 380.000
  30
0.0
  11
 56.5000
  21
 377.201
  31
0.0
   0
LINE
   8
LEVEL001
   6
DASHDOT
  62
1
  10
 126.500
  20
 409.000
  30
0.0
  11
 126.500
  21
 380.000
  31
0.0
   0
LINE
   8
LEVEL001
   6
DASHDOT
  62
1
  10
 122.750
  20
 409.000
  30
0.0
  11
 126.500
  21
 409.000
  31
0.0
   0
LINE
   8
LEVEL001
   6
DASHDOT
  62
1
  10
 123.500
  20
 380.000
  30
0.0
  11
 126.500
  21
 380.000
  31
0.0
   0
LINE
   8
LEVEL001
   6
DASHDOT
  62
1
  10
 53.5000
  20
 409.000
  30
0.0
  11
 53.5000
  21
 380.000
  31
0.0
   0
LINE
   8
LEVEL001
   6
DASHDOT
  62
1
  10
 57.2500
  20
 409.000
  30
0.0
  11
 53.5000
  21
 409.000
  31
0.0
   0
LINE
   8
LEVEL001
   6
DASHDOT
  62
1
  10
 56.5000
  20
 380.000
  30
0.0
  11
 53.5000
  21
 380.000
  31
0.0
   0
LINE
   8
LEVEL003
   6
CONTINUOUS
  62
3
  10
 70.0000
  20
 420.000
  30
0.0
  11
 70.0000
  21
 432.000
  31
0.0
   0
LINE
   8
LEVEL003
   6
CONTINUOUS
  62
3
  10
 110.000
  20
 420.000
  30
0.0
  11
 110.000
  21
 432.000
  31
0.0
   0
LINE
   8
LEVEL003
   6
CONTINUOUS
  62
3
  10
 70.0000
  20
 430.000
  30
0.0
  11
 110.000
  21
 430.000
  31
0.0
   0
LINE
   8
LEVEL003
   6
CONTINUOUS
  62
3
  10
 70.0000
  20
 430.000
  30
0.0
  11
 73.0000
  21
 429.471
  31
0.0
   0
LINE
   8
LEVEL003
   6
CONTINUOUS
  62
3
  10
 70.0000
  20
 430.000
  30
0.0
  11
 73.0000
  21
 430.529
  31
0.0
   0
LINE
   8
LEVEL003
   6
CONTINUOUS
  62
3
  10
 110.000
  20
 430.000
  30
0.0
  11
 107.000
  21
 430.529
  31
0.0
   0
LINE
   8
LEVEL003
   6
CONTINUOUS
  62
3
  10
 110.000
  20
 430.000
  30
0.0
  11
 107.000
  21
 429.471
  31
0.0
   0
TEXT
   8
LEVEL003
  62
3
  10
 86.0000
  20
 430.800
  30
0.0
  40
 4.00000
   1
%%c40
   7
STANDARD
  72
1
  11
 90.0000
  21
 430.800
  31
0.0
   0
LINE
   8
LEVEL003
   6
CONTINUOUS
  62
3
  10
 106.500
  20
 405.000
  30
0.0
  11
 140.000
  21
 425.000
  31
0.0
   0
LINE
   8
LEVEL003
   6
CONTINUOUS
  62
3
  10
 140.000
  20
 425.000
  30
0.0
  11
 160.000
  21
 425.000
  31
0.0
   0
LINE
   8
LEVEL003
   6
CONTINUOUS
  62
3
  10
 106.500
  20
 405.000
  30
0.0
  11
 109.347
  21
 406.084
  31
0.0
   0
LINE
   8
LEVEL003
   6
CONTINUOUS
  62
3
  10
 106.500
  20
 405.000
  30
0.0
  11
 108.805
  21
 406.992
  31
0.0
   0
TEXT
   8
LEVEL003
  62
3
  10
 140.000
  20
 425.000
  30
0.0
  40
 4.00000
   1
Ｍ３３×２
   7
STANDARD
   0
TEXT
   8
LEVEL003
  62
3
  10
 155.000
  20
 385.000
  30
0.0
  40
 4.00000
   1
Ｍ６７×１．５
   7
STANDARD
   0
LINE
   8
LEVEL003
   6
CONTINUOUS
  62
3
  10
 123.500
  20
 395.000
  30
0.0
  11
 155.000
  21
 385.000
  31
0.0
   0
LINE
   8
LEVEL003
   6
CONTINUOUS
  62
3
  10
 155.000
  20
 385.000
  30
0.0
  11
 185.000
  21
 385.000
  31
0.0
   0
LINE
   8
LEVEL003
   6
CONTINUOUS
  62
3
  10
 123.500
  20
 395.000
  30
0.0
  11
 126.199
  21
 393.588
  31
0.0
   0
LINE
   8
LEVEL003
   6
CONTINUOUS
  62
3
  10
 123.500
  20
 395.000
  30
0.0
  11
 126.519
  21
 394.596
  31
0.0
   0
LINE
   8
LEVEL003
   6
CONTINUOUS
  62
3
  10
 110.000
  20
 420.000
  30
0.0
  11
 227.000
  21
 420.000
  31
0.0
   0
LINE
   8
LEVEL003
   6
CONTINUOUS
  62
3
  10
 225.000
  20
 420.000
  30
0.0
  11
 225.000
  21
 110.000
  31
0.0
   0
LINE
   8
LEVEL003
   6
CONTINUOUS
  62
3
  10
 225.000
  20
 420.000
  30
0.0
  11
 224.471
  21
 417.000
  31
0.0
   0
LINE
   8
LEVEL003
   6
CONTINUOUS
  62
3
  10
 225.000
  20
 420.000
  30
0.0
  11
 225.529
  21
 417.000
  31
0.0
   0
LINE
   8
LEVEL001
   6
CONTINUOUS
  62
7
  10
 109.000
  20
 420.000
  30
0.0
  11
 110.000
  21
 419.000
  31
0.0
   0
LINE
   8
LEVEL001
   6
CONTINUOUS
  62
7
  10
 110.000
  20
 419.000
  30
0.0
  11
 110.000
  21
 413.000
  31
0.0
   0
LINE
   8
LEVEL001
   6
CONTINUOUS
  62
7
  10
 71.0000
  20
 420.000
  30
0.0
  11
 70.0000
  21
 419.000
  31
0.0
   0
LINE
   8
LEVEL001
   6
CONTINUOUS
  62
7
  10
 70.0000
  20
 419.000
  30
0.0
  11
 70.0000
  21
 413.000
  31
0.0
   0
LINE
   8
LEVEL001
   6
CONTINUOUS
  62
7
  10
 71.0000
  20
 420.000
  30
0.0
  11
 109.000
  21
 420.000
  31
0.0
   0
LINE
   8
LEVEL001
   6
CONTINUOUS
  62
3
  10
 122.750
  20
 409.000
  30
0.0
  11
 122.750
  21
 380.000
  31
0.0
   0
LINE
   8
LEVEL001
   6
CONTINUOUS
  62
3
  10
 57.2500
  20
 409.000
  30
0.0
  11
 57.2500
  21
 380.000
  31
0.0
   0
LINE
   8
LEVEL001
   6
DOT
  62
3
  10
 74.5000
  20
 410.000
  30
0.0
  11
 74.7500
  21
 410.000
  31
0.0
   0
LINE
   8
LEVEL001
   6
CONTINUOUS
  62
7
  10
 58.7500
  20
 413.000
  30
0.0
  11
 121.250
  21
 413.000
  31
0.0
   0
LINE
   8
LEVEL001
   6
CONTINUOUS
  62
7
  10
 70.0000
  20
 419.000
  30
0.0
  11
 110.000
  21
 419.000
  31
0.0
   0
LINE
   8
LEVEL001
   6
CONTINUOUS
  62
7
  10
 57.7500
  20
 412.000
  30
0.0
  11
 122.250
  21
 412.000
  31
0.0
   0
LINE
   8
LEVEL001
   6
CONTINUOUS
  62
7
  10
 57.2500
  20
 409.000
  30
0.0
  11
 122.750
  21
 409.000
  31
0.0
   0
LINE
   8
LEVEL001
   6
CONTINUOUS
  62
7
  10
 56.5000
  20
 377.201
  30
0.0
  11
 123.500
  21
 377.201
  31
0.0
   0
LINE
   8
LEVEL001
   6
CONTINUOUS
  62
3
  10
 123.500
  20
 380.000
  30
0.0
  11
 56.5000
  21
 380.000
  31
0.0
   0
LINE
   8
LEVEL001
   6
CONTINUOUS
  62
3
  10
 56.5000
  20
 408.250
  30
0.0
  11
 123.500
  21
 408.250
  31
0.0
   0
LINE
   8
LEVEL001
   6
DASHDOT
  62
1
  10
 90.0000
  20
 105.000
  30
0.0
  11
 90.0000
  21
 425.000
  31
0.0
   0
LINE
   8
LEVEL001
   6
CONTINUOUS
  62
7
  10
 123.500
  20
 112.000
  30
0.0
  11
 123.500
  21
 377.201
  31
0.0
   0
LINE
   8
LEVEL001
   6
CONTINUOUS
  62
7
  10
 56.5000
  20
 112.000
  30
0.0
  11
 56.5000
  21
 377.201
  31
0.0
   0
LINE
   8
LEVEL004
   6
DOT
  62
3
  10
 67.0000
  20
 165.000
  30
0.0
  11
 67.0000
  21
 411.000
  31
0.0
   0
LINE
   8
LEVEL004
   6
DOT
  62
3
  10
 64.0000
  20
 377.000
  30
0.0
  11
 64.0000
  21
 165.000
  31
0.0
   0
LINE
   8
LEVEL004
   6
DOT
  62
3
  10
 116.000
  20
 377.000
  30
0.0
  11
 116.000
  21
 165.000
  31
0.0
   0
LINE
   8
LEVEL004
   6
DOT
  62
3
  10
 113.000
  20
 165.000
  30
0.0
  11
 113.000
  21
 411.000
  31
0.0
   0
ARC
   8
LEVEL004
   6
DOT
  62
3
  10
 78.0000
  20
 420.000
  30
0.0
  40
 1.00000
  50
 180.000
  51
0.0
   0
ARC
   8
LEVEL004
   6
DOT
  62
3
  10
 84.0000
  20
 420.000
  30
0.0
  40
 1.00000
  50
 180.000
  51
0.0
   0
ARC
   8
LEVEL004
   6
DOT
  62
3
  10
 102.000
  20
 420.000
  30
0.0
  40
 1.00000
  50
 180.000
  51
0.0
   0
ARC
   8
LEVEL004
   6
DOT
  62
3
  10
 96.0000
  20
 420.000
  30
0.0
  40
 1.00000
  50
 180.000
  51
0.0
   0
LINE
   8
LEVEL004
   6
DOT
  62
3
  10
 73.5000
  20
 412.500
  30
0.0
  11
 73.0000
  21
 413.000
  31
0.0
   0
LINE
   8
LEVEL004
   6
DOT
  62
3
  10
 73.5000
  20
 412.500
  30
0.0
  11
 73.5000
  21
 410.990
  31
0.0
   0
ARC
   8
LEVEL004
   6
DOT
  62
3
  10
 73.2500
  20
 411.500
  30
0.0
  40
 1.50000
  50
0.0
  51
 90.0000
   0
LINE
   8
LEVEL004
   6
DOT
  62
3
  10
 74.7500
  20
 411.000
  30
0.0
  11
 73.5000
  21
 411.000
  31
0.0
   0
LINE
   8
LEVEL004
   6
DOT
  62
3
  10
 74.7500
  20
 411.500
  30
0.0
  11
 74.7500
  21
 405.964
  31
0.0
   0
LINE
   8
LEVEL004
   6
DOT
  62
3
  10
 73.5000
  20
 411.000
  30
0.0
  11
 74.5000
  21
 410.000
  31
0.0
   0
LINE
   8
LEVEL004
   6
DOT
  62
3
  10
 74.5000
  20
 410.000
  30
0.0
  11
 74.5000
  21
 391.000
  31
0.0
   0
LINE
   8
LEVEL004
   6
DOT
  62
3
  10
 73.5000
  20
 411.000
  30
0.0
  11
 73.5000
  21
 390.000
  31
0.0
   0
LINE
   8
LEVEL004
   6
DASHDOT
  62
1
  10
 71.7500
  20
 405.000
  30
0.0
  11
 90.9047
  21
 405.000
  31
0.0
   0
LINE
   8
LEVEL004
   6
DASHDOT
  62
1
  10
 87.0387
  20
 406.500
  30
0.0
  11
 86.6180
  21
 403.500
  31
0.0
   0
LINE
   8
LEVEL004
   6
DASHDOT
  62
1
  10
 86.6180
  20
 403.500
  30
0.0
  11
 86.1973
  21
 406.500
  31
0.0
   0
LINE
   8
LEVEL004
   6
DASHDOT
  62
1
  10
 86.1973
  20
 406.500
  30
0.0
  11
 85.7766
  21
 403.500
  31
0.0
   0
LINE
   8
LEVEL004
   6
DASHDOT
  62
1
  10
 85.7766
  20
 403.500
  30
0.0
  11
 85.3559
  21
 406.500
  31
0.0
   0
LINE
   8
LEVEL004
   6
DASHDOT
  62
1
  10
 85.3559
  20
 406.500
  30
0.0
  11
 84.9352
  21
 403.500
  31
0.0
   0
LINE
   8
LEVEL004
   6
DASHDOT
  62
1
  10
 84.9352
  20
 403.500
  30
0.0
  11
 84.5145
  21
 406.500
  31
0.0
   0
LINE
   8
LEVEL004
   6
DASHDOT
  62
1
  10
 84.5145
  20
 406.500
  30
0.0
  11
 84.0939
  21
 403.500
  31
0.0
   0
LINE
   8
LEVEL004
   6
DASHDOT
  62
1
  10
 84.0939
  20
 403.500
  30
0.0
  11
 83.6732
  21
 406.500
  31
0.0
   0
LINE
   8
LEVEL004
   6
DASHDOT
  62
1
  10
 83.6732
  20
 406.500
  30
0.0
  11
 83.2525
  21
 403.500
  31
0.0
   0
LINE
   8
LEVEL004
   6
DASHDOT
  62
1
  10
 83.2525
  20
 403.500
  30
0.0
  11
 82.8318
  21
 406.500
  31
0.0
   0
LINE
   8
LEVEL004
   6
DASHDOT
  62
1
  10
 82.8318
  20
 406.500
  30
0.0
  11
 82.4111
  21
 403.500
  31
0.0
   0
LINE
   8
LEVEL004
   6
DASHDOT
  62
1
  10
 82.4111
  20
 403.500
  30
0.0
  11
 81.9904
  21
 406.500
  31
0.0
   0
LINE
   8
LEVEL004
   6
DASHDOT
  62
1
  10
 81.9904
  20
 406.500
  30
0.0
  11
 81.5697
  21
 403.500
  31
0.0
   0
LINE
   8
LEVEL004
   6
DASHDOT
  62
1
  10
 81.5697
  20
 403.500
  30
0.0
  11
 81.1490
  21
 406.500
  31
0.0
   0
LINE
   8
LEVEL004
   6
DASHDOT
  62
1
  10
 81.1490
  20
 406.500
  30
0.0
  11
 80.7283
  21
 403.500
  31
0.0
   0
LINE
   8
LEVEL004
   6
DASHDOT
  62
1
  10
 80.7283
  20
 403.500
  30
0.0
  11
 80.3076
  21
 406.500
  31
0.0
   0
LINE
   8
LEVEL004
   6
DASHDOT
  62
1
  10
 80.3076
  20
 406.500
  30
0.0
  11
 79.8870
  21
 403.500
  31
0.0
   0
LINE
   8
LEVEL004
   6
DASHDOT
  62
1
  10
 79.8870
  20
 403.500
  30
0.0
  11
 79.4663
  21
 406.500
  31
0.0
   0
LINE
   8
LEVEL004
   6
DASHDOT
  62
1
  10
 79.4663
  20
 406.500
  30
0.0
  11
 79.0456
  21
 403.500
  31
0.0
   0
LINE
   8
LEVEL004
   6
DASHDOT
  62
1
  10
 79.0456
  20
 403.500
  30
0.0
  11
 78.6249
  21
 406.500
  31
0.0
   0
LINE
   8
LEVEL004
   6
DASHDOT
  62
1
  10
 78.6249
  20
 406.500
  30
0.0
  11
 78.2042
  21
 403.500
  31
0.0
   0
LINE
   8
LEVEL004
   6
DOT
  62
3
  10
 74.7500
  20
 400.000
  30
0.0
  11
 75.7500
  21
 399.000
  31
0.0
   0
CIRCLE
   8
LEVEL004
   6
DOT
  62
3
  10
 76.4844
  20
 405.000
  30
0.0
  40
 1.98438
   0
LINE
   8
LEVEL004
   6
DOT
  62
3
  10
 74.7500
  20
 404.036
  30
0.0
  11
 74.7500
  21
 400.000
  31
0.0
   0
LINE
   8
LEVEL004
   6
DOT
  62
3
  10
 86.7500
  20
 407.000
  30
0.0
  11
 86.7500
  21
 403.000
  31
0.0
   0
LINE
   8
LEVEL004
   6
DOT
  62
3
  10
 74.7500
  20
 403.000
  30
0.0
  11
 86.7500
  21
 403.000
  31
0.0
   0
LINE
   8
LEVEL004
   6
DOT
  62
3
  10
 86.7500
  20
 403.000
  30
0.0
  11
 87.9047
  21
 405.000
  31
0.0
   0
LINE
   8
LEVEL004
   6
DOT
  62
3
  10
 87.9047
  20
 405.000
  30
0.0
  11
 86.7500
  21
 407.000
  31
0.0
   0
LINE
   8
LEVEL004
   6
DOT
  62
3
  10
 86.7500
  20
 407.000
  30
0.0
  11
 74.7500
  21
 407.000
  31
0.0
   0
LINE
   8
LEVEL004
   6
DOT
  62
3
  10
 104.250
  20
 399.000
  30
0.0
  11
 75.7500
  21
 399.000
  31
0.0
   0
LINE
   8
LEVEL004
   6
DOT
  62
3
  10
 105.250
  20
 411.500
  30
0.0
  11
 105.250
  21
 400.000
  31
0.0
   0
LINE
   8
LEVEL004
   6
DOT
  62
3
  10
 105.250
  20
 400.000
  30
0.0
  11
 104.250
  21
 399.000
  31
0.0
   0
LINE
   8
LEVEL004
   6
DOT
  62
3
  10
 106.500
  20
 411.000
  30
0.0
  11
 105.500
  21
 410.000
  31
0.0
   0
LINE
   8
LEVEL004
   6
DOT
  62
3
  10
 105.500
  20
 410.000
  30
0.0
  11
 105.500
  21
 391.000
  31
0.0
   0
LINE
   8
LEVEL004
   6
DOT
  62
3
  10
 106.500
  20
 411.000
  30
0.0
  11
 106.500
  21
 390.000
  31
0.0
   0
LINE
   8
LEVEL004
   6
DOT
  62
3
  10
 106.500
  20
 412.500
  30
0.0
  11
 106.500
  21
 410.990
  31
0.0
   0
LINE
   8
LEVEL004
   6
DOT
  62
3
  10
 105.250
  20
 411.000
  30
0.0
  11
 106.500
  21
 411.000
  31
0.0
   0
LINE
   8
LEVEL004
   6
DOT
  62
3
  10
 106.500
  20
 412.500
  30
0.0
  11
 107.000
  21
 413.000
  31
0.0
   0
ARC
   8
LEVEL004
   6
DOT
  62
3
  10
 106.750
  20
 411.500
  30
0.0
  40
 1.50000
  50
 90.0000
  51
 180.000
   0
LINE
   8
LEVEL004
   6
DOT
  62
3
  10
 105.500
  20
 410.000
  30
0.0
  11
 105.250
  21
 410.000
  31
0.0
   0
ARC
   8
LEVEL004
   6
DOT
  62
3
  10
 105.500
  20
 390.000
  30
0.0
  40
 1.00000
  50
0.0
  51
 90.0000
   0
ARC
   8
LEVEL004
   6
DOT
  62
3
  10
 105.500
  20
 389.000
  30
0.0
  40
 1.00000
  50
 270.000
  51
0.0
   0
LINE
   8
LEVEL004
   6
DOT
  62
3
  10
 106.500
  20
 390.000
  30
0.0
  11
 106.500
  21
 389.000
  31
0.0
   0
LINE
   8
LEVEL004
   6
DOT
  62
3
  10
 105.500
  20
 391.000
  30
0.0
  11
 74.5000
  21
 391.000
  31
0.0
   0
LINE
   8
LEVEL004
   6
DOT
  62
3
  10
 74.5000
  20
 388.000
  30
0.0
  11
 105.500
  21
 388.000
  31
0.0
   0
ARC
   8
LEVEL004
   6
DOT
  62
3
  10
 74.5000
  20
 390.000
  30
0.0
  40
 1.00000
  50
 90.0000
  51
 180.000
   0
ARC
   8
LEVEL004
   6
DOT
  62
3
  10
 74.5000
  20
 389.000
  30
0.0
  40
 1.00000
  50
 180.000
  51
 270.000
   0
LINE
   8
LEVEL004
   6
DOT
  62
3
  10
 73.5000
  20
 390.000
  30
0.0
  11
 73.5000
  21
 389.000
  31
0.0
   0
TEXT
   8
LEVEL003
  62
7
  10
 209.602
  20
 32.1134
  30
0.0
  40
 6.00000
   1
Model : Ｅ１５Ｓ２０
   7
STANDARD
   0
TEXT
   8
LEVEL003
  62
3
  10
 224.200
  20
 263.000
  30
0.0
  40
 4.00000
   1
310
  50
 90.0000
  41
 0.500000
   7
STANDARD
  72
1
  11
 224.200
  21
 266.000
  31
0.0
   0
LINE
   8
LEVEL003
   6
CONTINUOUS
  62
3
  10
 122.250
  20
 413.000
  30
0.0
  11
 142.000
  21
 413.000
  31
0.0
   0
LINE
   8
LEVEL003
   6
CONTINUOUS
  62
3
  10
 127.500
  20
 409.000
  30
0.0
  11
 142.000
  21
 409.000
  31
0.0
   0
LINE
   8
LEVEL003
   6
CONTINUOUS
  62
3
  10
 140.000
  20
 413.000
  30
0.0
  11
 140.000
  21
 409.000
  31
0.0
   0
LINE
   8
LEVEL003
   6
CONTINUOUS
  62
3
  10
 140.000
  20
 409.000
  30
0.0
  11
 140.000
  21
 405.000
  31
0.0
   0
LINE
   8
LEVEL003
   6
CONTINUOUS
  62
3
  10
 140.000
  20
 413.000
  30
0.0
  11
 140.529
  21
 416.000
  31
0.0
   0
LINE
   8
LEVEL003
   6
CONTINUOUS
  62
3
  10
 140.000
  20
 413.000
  30
0.0
  11
 139.471
  21
 416.000
  31
0.0
   0
LINE
   8
LEVEL003
   6
CONTINUOUS
  62
3
  10
 140.000
  20
 409.000
  30
0.0
  11
 139.471
  21
 406.000
  31
0.0
   0
LINE
   8
LEVEL003
   6
CONTINUOUS
  62
3
  10
 140.000
  20
 409.000
  30
0.0
  11
 140.529
  21
 406.000
  31
0.0
   0
LINE
   8
LEVEL003
   6
CONTINUOUS
  62
3
  10
 140.000
  20
 413.000
  30
0.0
  11
 140.000
  21
 416.750
  31
0.0
   0
LINE
   8
LEVEL003
   6
CONTINUOUS
  62
3
  10
 140.000
  20
 409.000
  30
0.0
  11
 140.000
  21
 405.000
  31
0.0
   0
TEXT
   8
LEVEL003
  62
3
  10
 139.200
  20
 405.000
  30
0.0
  40
 4.00000
   1
4
  50
 90.0000
   7
STANDARD
  72
1
  11
 139.200
  21
 407.000
  31
0.0
   0
LINE
   8
LEVEL003
   6
CONTINUOUS
  62
3
  10
 110.000
  20
 420.000
  30
0.0
  11
 152.000
  21
 420.000
  31
0.0
   0
LINE
   8
LEVEL003
   6
CONTINUOUS
  62
3
  10
 122.250
  20
 413.000
  30
0.0
  11
 152.000
  21
 413.000
  31
0.0
   0
LINE
   8
LEVEL003
   6
CONTINUOUS
  62
3
  10
 150.000
  20
 420.000
  30
0.0
  11
 150.000
  21
 413.000
  31
0.0
   0
LINE
   8
LEVEL003
   6
CONTINUOUS
  62
3
  10
 150.000
  20
 420.000
  30
0.0
  11
 149.471
  21
 417.000
  31
0.0
   0
LINE
   8
LEVEL003
   6
CONTINUOUS
  62
3
  10
 150.000
  20
 420.000
  30
0.0
  11
 150.529
  21
 417.000
  31
0.0
   0
LINE
   8
LEVEL003
   6
CONTINUOUS
  62
3
  10
 150.000
  20
 413.000
  30
0.0
  11
 150.529
  21
 416.000
  31
0.0
   0
LINE
   8
LEVEL003
   6
CONTINUOUS
  62
3
  10
 150.000
  20
 413.000
  30
0.0
  11
 149.471
  21
 416.000
  31
0.0
   0
TEXT
   8
LEVEL003
  62
3
  10
 149.200
  20
 414.500
  30
0.0
  40
 4.00000
   1
7
  50
 90.0000
   7
STANDARD
  72
1
  11
 149.200
  21
 416.500
  31
0.0
   0
LINE
   8
LEVEL003
   6
CONTINUOUS
  62
3
  10
 122.250
  20
 413.000
  30
0.0
  11
 152.000
  21
 413.000
  31
0.0
   0
LINE
   8
LEVEL003
   6
CONTINUOUS
  62
3
  10
 127.500
  20
 380.000
  30
0.0
  11
 152.000
  21
 380.000
  31
0.0
   0
LINE
   8
LEVEL003
   6
CONTINUOUS
  62
3
  10
 150.000
  20
 413.000
  30
0.0
  11
 150.000
  21
 380.000
  31
0.0
   0
LINE
   8
LEVEL003
   6
CONTINUOUS
  62
3
  10
 150.000
  20
 413.000
  30
0.0
  11
 149.471
  21
 410.000
  31
0.0
   0
LINE
   8
LEVEL003
   6
CONTINUOUS
  62
3
  10
 150.000
  20
 413.000
  30
0.0
  11
 150.529
  21
 410.000
  31
0.0
   0
LINE
   8
LEVEL003
   6
CONTINUOUS
  62
3
  10
 150.000
  20
 380.000
  30
0.0
  11
 150.529
  21
 383.000
  31
0.0
   0
LINE
   8
LEVEL003
   6
CONTINUOUS
  62
3
  10
 150.000
  20
 380.000
  30
0.0
  11
 149.471
  21
 383.000
  31
0.0
   0
TEXT
   8
LEVEL003
  62
3
  10
 149.200
  20
 392.500
  30
0.0
  40
 4.00000
   1
33
  50
 90.0000
   7
STANDARD
  72
1
  11
 149.200
  21
 396.500
  31
0.0
   0
LINE
   8
LEVEL003
   6
CONTINUOUS
  62
3
  10
 97.5000
  20
 388.000
  30
0.0
  11
 97.5000
  21
 388.000
  31
0.0
   0
LINE
   8
LEVEL003
   6
CONTINUOUS
  62
3
  10
 105.750
  20
 413.000
  30
0.0
  11
 95.5000
  21
 413.000
  31
0.0
   0
LINE
   8
LEVEL003
   6
CONTINUOUS
  62
3
  10
 97.5000
  20
 388.000
  30
0.0
  11
 97.5000
  21
 413.000
  31
0.0
   0
LINE
   8
LEVEL003
   6
CONTINUOUS
  62
3
  10
 97.5000
  20
 388.000
  30
0.0
  11
 98.0290
  21
 391.000
  31
0.0
   0
LINE
   8
LEVEL003
   6
CONTINUOUS
  62
3
  10
 97.5000
  20
 388.000
  30
0.0
  11
 96.9710
  21
 391.000
  31
0.0
   0
LINE
   8
LEVEL003
   6
CONTINUOUS
  62
3
  10
 97.5000
  20
 413.000
  30
0.0
  11
 96.9710
  21
 410.000
  31
0.0
   0
LINE
   8
LEVEL003
   6
CONTINUOUS
  62
3
  10
 97.5000
  20
 413.000
  30
0.0
  11
 98.0290
  21
 410.000
  31
0.0
   0
TEXT
   8
LEVEL003
  62
3
  10
 96.7000
  20
 401.500
  30
0.0
  40
 4.00000
   1
25
  50
 90.0000
   7
STANDARD
  72
1
  11
 96.7000
  21
 405.500
  31
0.0
   0
ENDSEC
   0
EOF
