   0
SECTION
   2
HEADER
   9
$LIMMIN
  10
0.0
  20
0.0
   9
$LIMMAX
  10
 420.000
  20
 297.000
   9
$EXTMIN
  10
0.0
  20
0.0
   9
$EXTMAX
  10
 420.000
  20
 297.000
   9
$LTSCALE
  40
 8.40000
   0
ENDSEC
   0
SECTION
   2
TABLES
  0
TABLE
  2
LTYPE
 70
    25
  0
LTYPE
  2
CONTINUOUS
 70
    64
  3
Solid line
 72
    65
 73
     0
 40
0.0
  0
LTYPE
  2
BORDER
 70
    64
  3
__ __ . __ __ . __ __ . __ __ . __ __ . __ __ .
 72
    65
 73
     6
 40
1.75
 49
0.5
 49
-0.25
 49
0.5
 49
-0.25
 49
0.0
 49
-0.25
  0
LTYPE
  2
BORDER2
 70
    64
  3
__.__.__.__.__.__.__.__.__.__.__.__.__.__.__.__
 72
    65
 73
     6
 40
0.875
 49
0.25
 49
-0.125
 49
0.25
 49
-0.125
 49
0.0
 49
-0.125
  0
LTYPE
  2
BORDERX2
 70
    64
  3
____  ____  .  ____  ____  .  ____  ____  .  __
 72
    65
 73
     6
 40
3.5
 49
1.0
 49
-0.5
 49
1.0
 49
-0.5
 49
0.0
 49
-0.5
  0
LTYPE
  2
CENTER
 70
    64
  3
____ _ ____ _ ____ _ ____ _ ____ _ ____ _ ____ 
 72
    65
 73
     4
 40
2.0
 49
1.25
 49
-0.25
 49
0.25
 49
-0.25
  0
LTYPE
  2
CENTER2
 70
    64
  3
___ _ ___ _ ___ _ ___ _ ___ _ ___ _ ___ _ ___ _
 72
    65
 73
     4
 40
1.125
 49
0.75
 49
-0.125
 49
0.125
 49
-0.125
  0
LTYPE
  2
CENTERX2
 70
    64
  3
________  __  ________  __  ________  __  _____
 72
    65
 73
     4
 40
4.0
 49
2.5
 49
-0.5
 49
0.5
 49
-0.5
  0
LTYPE
  2
DASHDOT
 70
    64
  3
__ . __ . __ . __ . __ . __ . __ . __ . __ . __
 72
    65
 73
     4
 40
1.0
 49
0.5
 49
-0.25
 49
0.0
 49
-0.25
  0
LTYPE
  2
DASHDOT2
 70
    64
  3
_._._._._._._._._._._._._._._._._._._._._._._._
 72
    65
 73
     4
 40
0.5
 49
0.25
 49
-0.125
 49
0.0
 49
-0.125
  0
LTYPE
  2
DASHDOTX2
 70
    64
  3
____  .  ____  .  ____  .  ____  .  ____  .  __
 72
    65
 73
     4
 40
2.0
 49
1.0
 49
-0.5
 49
0.0
 49
-0.5
  0
LTYPE
  2
DASHED
 70
    64
  3
__ __ __ __ __ __ __ __ __ __ __ __ __ __ __ __
 72
    65
 73
     2
 40
0.75
 49
0.5
 49
-0.25
  0
LTYPE
  2
DASHED2
 70
    64
  3
_ _ _ _ _ _ _ _ _ _ _ _ _ _ _ _ _ _ _ _ _ _ _ _
 72
    65
 73
     2
 40
0.375
 49
0.25
 49
-0.125
  0
LTYPE
  2
DASHEDX2
 70
    64
  3
____  ____  ____  ____  ____  ____  ____  ____ 
 72
    65
 73
     2
 40
1.5
 49
1.0
 49
-0.5
  0
LTYPE
  2
DIVIDE
 70
    64
  3
____ . . ____ . . ____ . . ____ . . ____ . . __
 72
    65
 73
     6
 40
1.25
 49
0.5
 49
-0.25
 49
0.0
 49
-0.25
 49
0.0
 49
-0.25
  0
LTYPE
  2
DIVIDE2
 70
    64
  3
__..__..__..__..__..__..__..__..__..__..__..__.
 72
    65
 73
     6
 40
0.625
 49
0.25
 49
-0.125
 49
0.0
 49
-0.125
 49
0.0
 49
-0.125
  0
LTYPE
  2
DIVIDEX2
 70
    64
  3
________  .  .  ________  .  .  ________  .  . 
 72
    65
 73
     6
 40
2.5
 49
1.0
 49
-0.5
 49
0.0
 49
-0.5
 49
0.0
 49
-0.5
  0
LTYPE
  2
DOT
 70
    64
  3
. . . . . . . . . . . . . . . . . . . . . . . .
 72
    65
 73
     2
 40
0.25
 49
0.0
 49
-0.25
  0
LTYPE
  2
DOT2
 70
    64
  3
...............................................
 72
    65
 73
     2
 40
0.125
 49
0.0
 49
-0.125
  0
LTYPE
  2
DOTX2
 70
    64
  3
.  .  .  .  .  .  .  .  .  .  .  .  .  .  .  . 
 72
    65
 73
     2
 40
0.5
 49
0.0
 49
-0.5
  0
LTYPE
  2
HIDDEN
 70
    64
  3
__ __ __ __ __ __ __ __ __ __ __ __ __ __ __ __
 72
    65
 73
     2
 40
0.375
 49
0.25
 49
-0.125
  0
LTYPE
  2
HIDDEN2
 70
    64
  3
_ _ _ _ _ _ _ _ _ _ _ _ _ _ _ _ _ _ _ _ _ _ _ _
 72
    65
 73
     2
 40
0.1875
 49
0.125
 49
-0.0625
  0
LTYPE
  2
HIDDENX2
 70
    64
  3
____ ____ ____ ____ ____ ____ ____ ____ ____ __
 72
    65
 73
     2
 40
0.75
 49
0.5
 49
-0.25
  0
LTYPE
  2
PHANTOM
 70
    64
  3
______  __  __  ______  __  __  ______  __  __ 
 72
    65
 73
     6
 40
2.5
 49
1.25
 49
-0.25
 49
0.25
 49
-0.25
 49
0.25
 49
-0.25
  0
LTYPE
  2
PHANTOM2
 70
    64
  3
___ _ _ ___ _ _ ___ _ _ ___ _ _ ___ _ _ ___ _ _
 72
    65
 73
     6
 40
1.25
 49
0.625
 49
-0.125
 49
0.125
 49
-0.125
 49
0.125
 49
-0.125
  0
LTYPE
  2
PHANTOMX2
 70
    64
  3
____________    ____    ____    ____________   
 72
    65
 73
     6
 40
5.0
 49
2.5
 49
-0.5
 49
0.5
 49
-0.5
 49
0.5
 49
-0.5
  0
ENDTAB
  0
TABLE
  2
STYLE
 70
     2
  0
STYLE
  2
STANDARD
 70
0
 40
0.0
 41
1.0
 50
0.0
 71
0
 42
0.2
  3
TXT
  4
BIGFONT
  0
STYLE
  2
STANDARD1
 70
     4
 40
0.0
 41
1.0
 50
0.0
 71
     0
 42
0.2
  3
TXT
  4
BIGFONT
  0
ENDTAB
   0
TABLE
   2
LAYER
  70
4
   0
LAYER
   2
0
  70
0
  62
7
   6
CONTINUOUS
   0
LAYER
   2
LEVEL001
  70
0
  62
7
   6
CONTINUOUS
   0
LAYER
   2
LEVEL003
  70
0
  62
7
   6
CONTINUOUS
   0
LAYER
   2
LEVEL004
  70
0
  62
7
   6
CONTINUOUS
   0
ENDTAB
   0
ENDSEC
   0
SECTION
   2
ENTITIES
   0
POINT
   8
LEVEL001
  62
7
  10
 136.504
  20
 139.913
  30
0.0
   0
LINE
   8
LEVEL003
   6
CONTINUOUS
  62
3
  10
 70.0000
  20
 236.000
  30
0.0
  11
 70.0000
  21
 252.000
  31
0.0
   0
LINE
   8
LEVEL003
   6
CONTINUOUS
  62
3
  10
 120.000
  20
 236.000
  30
0.0
  11
 120.000
  21
 252.000
  31
0.0
   0
LINE
   8
LEVEL003
   6
CONTINUOUS
  62
3
  10
 70.0000
  20
 250.000
  30
0.0
  11
 120.000
  21
 250.000
  31
0.0
   0
LINE
   8
LEVEL003
   6
CONTINUOUS
  62
3
  10
 70.0000
  20
 250.000
  30
0.0
  11
 73.0000
  21
 249.471
  31
0.0
   0
LINE
   8
LEVEL003
   6
CONTINUOUS
  62
3
  10
 70.0000
  20
 250.000
  30
0.0
  11
 73.0000
  21
 250.529
  31
0.0
   0
LINE
   8
LEVEL003
   6
CONTINUOUS
  62
3
  10
 120.000
  20
 250.000
  30
0.0
  11
 117.000
  21
 250.529
  31
0.0
   0
LINE
   8
LEVEL003
   6
CONTINUOUS
  62
3
  10
 120.000
  20
 250.000
  30
0.0
  11
 117.000
  21
 249.471
  31
0.0
   0
TEXT
   8
LEVEL003
  62
3
  10
 91.0000
  20
 250.800
  30
0.0
  40
 4.00000
   1
%%c50
   7
STANDARD
  72
1
  11
 95.0000
  21
 250.800
  31
0.0
   0
LINE
   8
LEVEL003
   6
CONTINUOUS
  62
3
  10
 67.0000
  20
 234.000
  30
0.0
  11
 67.0000
  21
 262.000
  31
0.0
   0
LINE
   8
LEVEL003
   6
CONTINUOUS
  62
3
  10
 123.000
  20
 234.000
  30
0.0
  11
 123.000
  21
 262.000
  31
0.0
   0
LINE
   8
LEVEL003
   6
CONTINUOUS
  62
3
  10
 67.0000
  20
 260.000
  30
0.0
  11
 123.000
  21
 260.000
  31
0.0
   0
LINE
   8
LEVEL003
   6
CONTINUOUS
  62
3
  10
 67.0000
  20
 260.000
  30
0.0
  11
 70.0000
  21
 259.471
  31
0.0
   0
LINE
   8
LEVEL003
   6
CONTINUOUS
  62
3
  10
 67.0000
  20
 260.000
  30
0.0
  11
 70.0000
  21
 260.529
  31
0.0
   0
LINE
   8
LEVEL003
   6
CONTINUOUS
  62
3
  10
 123.000
  20
 260.000
  30
0.0
  11
 120.000
  21
 260.529
  31
0.0
   0
LINE
   8
LEVEL003
   6
CONTINUOUS
  62
3
  10
 123.000
  20
 260.000
  30
0.0
  11
 120.000
  21
 259.471
  31
0.0
   0
TEXT
   8
LEVEL003
  62
3
  10
 91.0000
  20
 260.800
  30
0.0
  40
 4.00000
   1
%%c56
   7
STANDARD
  72
1
  11
 95.0000
  21
 260.800
  31
0.0
   0
LINE
   8
LEVEL003
   6
CONTINUOUS
  62
3
  10
 67.5000
  20
 116.000
  30
0.0
  11
 67.5000
  21
 103.000
  31
0.0
   0
LINE
   8
LEVEL003
   6
CONTINUOUS
  62
3
  10
 122.500
  20
 116.000
  30
0.0
  11
 122.500
  21
 103.000
  31
0.0
   0
LINE
   8
LEVEL003
   6
CONTINUOUS
  62
3
  10
 67.5000
  20
 105.000
  30
0.0
  11
 122.500
  21
 105.000
  31
0.0
   0
LINE
   8
LEVEL003
   6
CONTINUOUS
  62
3
  10
 67.5000
  20
 105.000
  30
0.0
  11
 70.5000
  21
 104.471
  31
0.0
   0
LINE
   8
LEVEL003
   6
CONTINUOUS
  62
3
  10
 67.5000
  20
 105.000
  30
0.0
  11
 70.5000
  21
 105.529
  31
0.0
   0
LINE
   8
LEVEL003
   6
CONTINUOUS
  62
3
  10
 122.500
  20
 105.000
  30
0.0
  11
 119.500
  21
 105.529
  31
0.0
   0
LINE
   8
LEVEL003
   6
CONTINUOUS
  62
3
  10
 122.500
  20
 105.000
  30
0.0
  11
 119.500
  21
 104.471
  31
0.0
   0
TEXT
   8
LEVEL003
  62
3
  10
 91.0000
  20
 105.800
  30
0.0
  40
 4.00000
   1
%%c55
   7
STANDARD
  72
1
  11
 95.0000
  21
 105.800
  31
0.0
   0
LINE
   8
LEVEL003
   6
CONTINUOUS
  62
3
  10
 52.5000
  20
 120.000
  30
0.0
  11
 52.5000
  21
 93.0000
  31
0.0
   0
LINE
   8
LEVEL003
   6
CONTINUOUS
  62
3
  10
 137.500
  20
 120.000
  30
0.0
  11
 137.500
  21
 93.0000
  31
0.0
   0
LINE
   8
LEVEL003
   6
CONTINUOUS
  62
3
  10
 52.5000
  20
 95.0000
  30
0.0
  11
 137.500
  21
 95.0000
  31
0.0
   0
LINE
   8
LEVEL003
   6
CONTINUOUS
  62
3
  10
 52.5000
  20
 95.0000
  30
0.0
  11
 55.5000
  21
 94.4710
  31
0.0
   0
LINE
   8
LEVEL003
   6
CONTINUOUS
  62
3
  10
 52.5000
  20
 95.0000
  30
0.0
  11
 55.5000
  21
 95.5290
  31
0.0
   0
LINE
   8
LEVEL003
   6
CONTINUOUS
  62
3
  10
 137.500
  20
 95.0000
  30
0.0
  11
 134.500
  21
 95.5290
  31
0.0
   0
LINE
   8
LEVEL003
   6
CONTINUOUS
  62
3
  10
 137.500
  20
 95.0000
  30
0.0
  11
 134.500
  21
 94.4710
  31
0.0
   0
TEXT
   8
LEVEL003
  62
3
  10
 91.0000
  20
 95.8000
  30
0.0
  40
 4.00000
   1
%%c85
   7
STANDARD
  72
1
  11
 95.0000
  21
 95.8000
  31
0.0
   0
TEXT
   8
LEVEL003
  62
3
  10
 150.000
  20
 110.000
  30
0.0
  40
 4.00000
   1
ＮＰＴ３／８
   7
STANDARD
   0
LINE
   8
LEVEL003
   6
CONTINUOUS
  62
3
  10
 141.558
  20
 131.856
  30
0.0
  11
 150.000
  21
 110.000
  31
0.0
   0
LINE
   8
LEVEL003
   6
CONTINUOUS
  62
3
  10
 150.000
  20
 110.000
  30
0.0
  11
 175.000
  21
 110.000
  31
0.0
   0
LINE
   8
LEVEL003
   6
CONTINUOUS
  62
3
  10
 141.558
  20
 131.856
  30
0.0
  11
 142.145
  21
 128.867
  31
0.0
   0
LINE
   8
LEVEL003
   6
CONTINUOUS
  62
3
  10
 141.558
  20
 131.856
  30
0.0
  11
 143.132
  21
 129.248
  31
0.0
   0
TEXT
   8
LEVEL003
  62
3
  10
 170.000
  20
 220.000
  30
0.0
  40
 4.00000
   1
Ｍ８５×２
   7
STANDARD
   0
LINE
   8
LEVEL003
   6
CONTINUOUS
  62
3
  10
 137.500
  20
 210.000
  30
0.0
  11
 160.000
  21
 220.000
  31
0.0
   0
LINE
   8
LEVEL003
   6
CONTINUOUS
  62
3
  10
 160.000
  20
 220.000
  30
0.0
  11
 190.000
  21
 220.000
  31
0.0
   0
LINE
   8
LEVEL003
   6
CONTINUOUS
  62
3
  10
 137.500
  20
 210.000
  30
0.0
  11
 140.456
  21
 210.735
  31
0.0
   0
LINE
   8
LEVEL003
   6
CONTINUOUS
  62
3
  10
 137.500
  20
 210.000
  30
0.0
  11
 140.027
  21
 211.702
  31
0.0
   0
LINE
   8
LEVEL003
   6
CONTINUOUS
  62
3
  10
 115.000
  20
 220.000
  30
0.0
  11
 135.000
  21
 250.000
  31
0.0
   0
LINE
   8
LEVEL003
   6
CONTINUOUS
  62
3
  10
 135.000
  20
 250.000
  30
0.0
  11
 155.000
  21
 250.000
  31
0.0
   0
LINE
   8
LEVEL003
   6
CONTINUOUS
  62
3
  10
 115.000
  20
 220.000
  30
0.0
  11
 117.104
  21
 222.203
  31
0.0
   0
LINE
   8
LEVEL003
   6
CONTINUOUS
  62
3
  10
 115.000
  20
 220.000
  30
0.0
  11
 116.224
  21
 222.790
  31
0.0
   0
TEXT
   8
LEVEL003
  62
3
  10
 135.000
  20
 250.000
  30
0.0
  40
 4.00000
   1
Ｍ４０×２
   7
STANDARD
   0
LINE
   8
LEVEL001
   6
CONTINUOUS
  62
3
  10
 145.713
  20
 149.395
  30
0.0
  11
 142.194
  21
 148.115
  31
0.0
   0
LINE
   8
LEVEL001
   6
CONTINUOUS
  62
3
  10
 147.219
  20
 132.174
  30
0.0
  11
 143.532
  21
 132.824
  31
0.0
   0
LINE
   8
LEVEL001
   6
CONTINUOUS
  62
7
  10
 145.713
  20
 149.395
  30
0.0
  11
 147.116
  21
 150.378
  31
0.0
   0
LINE
   8
LEVEL001
   6
CONTINUOUS
  62
7
  10
 162.573
  20
 151.730
  30
0.0
  11
 147.116
  21
 150.378
  31
0.0
   0
LINE
   8
LEVEL001
   6
CONTINUOUS
  62
7
  10
 147.219
  20
 132.174
  30
0.0
  11
 148.772
  21
 131.450
  31
0.0
   0
LINE
   8
LEVEL001
   6
CONTINUOUS
  62
7
  10
 164.229
  20
 132.802
  30
0.0
  11
 148.772
  21
 131.450
  31
0.0
   0
ARC
   8
LEVEL001
   6
CONTINUOUS
  62
7
  10
 163.762
  20
 155.347
  30
0.0
  40
 1.50000
  50
 95.0001
  51
 185.000
   0
LINE
   8
LEVEL001
   6
CONTINUOUS
  62
7
  10
 163.632
  20
 156.842
  30
0.0
  11
 168.613
  21
 157.277
  31
0.0
   0
ARC
   8
LEVEL001
   6
CONTINUOUS
  62
7
  10
 166.028
  20
 129.446
  30
0.0
  40
 1.50000
  50
 185.000
  51
 275.000
   0
LINE
   8
LEVEL001
   6
CONTINUOUS
  62
7
  10
 164.534
  20
 129.316
  30
0.0
  11
 162.268
  21
 155.217
  31
0.0
   0
LINE
   8
LEVEL001
   6
CONTINUOUS
  62
7
  10
 166.159
  20
 127.952
  30
0.0
  11
 171.140
  21
 128.388
  31
0.0
   0
ARC
   8
LEVEL001
   6
CONTINUOUS
  62
7
  10
 184.683
  20
 157.178
  30
0.0
  40
 1.50000
  50
 5.00008
  51
 95.0002
   0
LINE
   8
LEVEL001
   6
CONTINUOUS
  62
7
  10
 179.571
  20
 158.236
  30
0.0
  11
 184.552
  21
 158.672
  31
0.0
   0
ARC
   8
LEVEL001
   6
CONTINUOUS
  62
7
  10
 186.949
  20
 131.277
  30
0.0
  40
 1.50000
  50
 275.000
  51
 4.99990
   0
LINE
   8
LEVEL001
   6
CONTINUOUS
  62
7
  10
 182.098
  20
 129.346
  30
0.0
  11
 187.079
  21
 129.782
  31
0.0
   0
LINE
   8
LEVEL001
   6
CONTINUOUS
  62
7
  10
 186.177
  20
 157.308
  30
0.0
  11
 188.443
  21
 131.407
  31
0.0
   0
ARC
   8
LEVEL001
   6
DASHDOT
  62
1
  10
 195.143
  20
 158.093
  30
0.0
  40
 1.00000
  50
 5.00064
  51
 95.0005
   0
LINE
   8
LEVEL001
   6
DASHDOT
  62
1
  10
 187.086
  20
 158.392
  30
0.0
  11
 195.055
  21
 159.089
  31
0.0
   0
ARC
   8
LEVEL001
   6
DASHDOT
  62
1
  10
 197.409
  20
 132.192
  30
0.0
  40
 1.00000
  50
 275.000
  51
 5.00002
   0
LINE
   8
LEVEL001
   6
DASHDOT
  62
1
  10
 189.526
  20
 130.498
  30
0.0
  11
 197.496
  21
 131.195
  31
0.0
   0
LINE
   8
LEVEL001
   6
DASHDOT
  62
1
  10
 196.139
  20
 158.180
  30
0.0
  11
 198.405
  21
 132.279
  31
0.0
   0
CIRCLE
   8
LEVEL001
   6
DASHDOT
  62
1
  10
 200.260
  20
 145.491
  30
0.0
  40
 1.50000
   0
ARC
   8
LEVEL001
   6
DASHDOT
  62
1
  10
 189.439
  20
 131.494
  30
0.0
  40
 1.00000
  50
 185.000
  51
 275.000
   0
ARC
   8
LEVEL001
   6
DASHDOT
  62
1
  10
 187.173
  20
 157.395
  30
0.0
  40
 1.00000
  50
 95.0006
  51
 185.001
   0
ARC
   8
LEVEL001
   6
DASHDOT
  62
1
  10
 198.785
  20
 150.883
  30
0.0
  40
 2.00000
  50
 185.000
  51
 275.000
   0
ARC
   8
LEVEL001
   6
DASHDOT
  62
1
  10
 199.744
  20
 139.925
  30
0.0
  40
 2.00000
  50
 95.0002
  51
 185.000
   0
LINE
   8
LEVEL001
   6
DASHDOT
  62
1
  10
 198.959
  20
 148.890
  30
0.0
  11
 199.457
  21
 148.934
  31
0.0
   0
LINE
   8
LEVEL001
   6
DASHDOT
  62
1
  10
 199.569
  20
 141.917
  30
0.0
  11
 200.067
  21
 141.961
  31
0.0
   0
ARC
   8
LEVEL001
   6
DASHDOT
  62
1
  10
 199.762
  20
 145.447
  30
0.0
  40
 3.50000
  50
 275.000
  51
 95.0000
   0
LINE
   8
LEVEL001
   6
CONTINUOUS
  62
7
  10
 148.772
  20
 131.450
  30
0.0
  11
 148.452
  21
 135.105
  31
0.0
   0
LINE
   8
LEVEL001
   6
CONTINUOUS
  62
7
  10
 147.436
  20
 146.722
  30
0.0
  11
 147.116
  21
 150.378
  31
0.0
   0
LINE
   8
LEVEL001
   6
CONTINUOUS
  62
7
  10
 142.833
  20
 136.412
  30
0.0
  11
 155.920
  21
 147.465
  31
0.0
   0
LINE
   8
LEVEL001
   6
CONTINUOUS
  62
7
  10
 142.129
  20
 144.460
  30
0.0
  11
 156.936
  21
 135.847
  31
0.0
   0
LINE
   8
LEVEL001
   6
CONTINUOUS
  62
3
  10
 142.194
  20
 148.115
  30
0.0
  11
 142.511
  21
 144.493
  31
0.0
   0
LINE
   8
LEVEL001
   6
CONTINUOUS
  62
3
  10
 143.215
  20
 136.445
  30
0.0
  11
 143.532
  21
 132.824
  31
0.0
   0
LINE
   8
LEVEL001
   6
CONTINUOUS
  62
7
  10
 145.713
  20
 149.395
  30
0.0
  11
 146.091
  21
 145.065
  31
0.0
   0
LINE
   8
LEVEL001
   6
CONTINUOUS
  62
7
  10
 146.840
  20
 136.504
  30
0.0
  11
 147.219
  21
 132.174
  31
0.0
   0
LINE
   8
LEVEL001
   6
CONTINUOUS
  62
3
  10
 171.009
  20
 129.882
  30
0.0
  11
 181.968
  21
 130.841
  31
0.0
   0
LINE
   8
LEVEL001
   6
CONTINUOUS
  62
3
  10
 170.835
  20
 131.874
  30
0.0
  11
 181.793
  21
 132.833
  31
0.0
   0
LINE
   8
LEVEL001
   6
CONTINUOUS
  62
3
  10
 170.661
  20
 133.867
  30
0.0
  11
 181.619
  21
 134.826
  31
0.0
   0
LINE
   8
LEVEL001
   6
CONTINUOUS
  62
3
  10
 170.487
  20
 135.859
  30
0.0
  11
 181.445
  21
 136.818
  31
0.0
   0
LINE
   8
LEVEL001
   6
CONTINUOUS
  62
3
  10
 170.312
  20
 137.852
  30
0.0
  11
 181.270
  21
 138.810
  31
0.0
   0
LINE
   8
LEVEL001
   6
CONTINUOUS
  62
3
  10
 170.138
  20
 139.844
  30
0.0
  11
 181.096
  21
 140.803
  31
0.0
   0
LINE
   8
LEVEL001
   6
CONTINUOUS
  62
3
  10
 169.964
  20
 141.836
  30
0.0
  11
 180.922
  21
 142.795
  31
0.0
   0
LINE
   8
LEVEL001
   6
CONTINUOUS
  62
3
  10
 169.789
  20
 143.829
  30
0.0
  11
 180.747
  21
 144.787
  31
0.0
   0
LINE
   8
LEVEL001
   6
CONTINUOUS
  62
3
  10
 169.615
  20
 145.821
  30
0.0
  11
 180.573
  21
 146.780
  31
0.0
   0
LINE
   8
LEVEL001
   6
CONTINUOUS
  62
3
  10
 169.441
  20
 147.814
  30
0.0
  11
 180.399
  21
 148.772
  31
0.0
   0
LINE
   8
LEVEL001
   6
CONTINUOUS
  62
3
  10
 169.266
  20
 149.806
  30
0.0
  11
 180.224
  21
 150.765
  31
0.0
   0
LINE
   8
LEVEL001
   6
CONTINUOUS
  62
3
  10
 169.092
  20
 151.798
  30
0.0
  11
 180.050
  21
 152.757
  31
0.0
   0
LINE
   8
LEVEL001
   6
CONTINUOUS
  62
3
  10
 168.918
  20
 153.791
  30
0.0
  11
 179.876
  21
 154.749
  31
0.0
   0
LINE
   8
LEVEL001
   6
CONTINUOUS
  62
3
  10
 168.743
  20
 155.783
  30
0.0
  11
 179.702
  21
 156.742
  31
0.0
   0
LINE
   8
LEVEL001
   6
CONTINUOUS
  62
7
  10
 142.833
  20
 136.412
  30
0.0
  11
 142.129
  21
 144.460
  31
0.0
   0
LINE
   8
LEVEL001
   6
CONTINUOUS
  62
7
  10
 142.129
  20
 144.460
  30
0.0
  11
 146.091
  21
 145.065
  31
0.0
   0
LINE
   8
LEVEL001
   6
CONTINUOUS
  62
7
  10
 146.091
  20
 145.065
  30
0.0
  11
 147.436
  21
 146.722
  31
0.0
   0
LINE
   8
LEVEL001
   6
CONTINUOUS
  62
7
  10
 147.436
  20
 146.722
  30
0.0
  11
 155.920
  21
 147.465
  31
0.0
   0
LINE
   8
LEVEL001
   6
CONTINUOUS
  62
7
  10
 155.920
  20
 147.465
  30
0.0
  11
 156.936
  21
 135.847
  31
0.0
   0
LINE
   8
LEVEL001
   6
CONTINUOUS
  62
7
  10
 156.936
  20
 135.847
  30
0.0
  11
 148.452
  21
 135.105
  31
0.0
   0
LINE
   8
LEVEL001
   6
CONTINUOUS
  62
7
  10
 148.452
  20
 135.105
  30
0.0
  11
 146.840
  21
 136.504
  31
0.0
   0
LINE
   8
LEVEL001
   6
CONTINUOUS
  62
7
  10
 146.840
  20
 136.504
  30
0.0
  11
 142.833
  21
 136.412
  31
0.0
   0
LINE
   8
LEVEL001
   6
CONTINUOUS
  62
7
  10
 171.184
  20
 127.890
  30
0.0
  11
 168.569
  21
 157.775
  31
0.0
   0
LINE
   8
LEVEL001
   6
CONTINUOUS
  62
7
  10
 168.569
  20
 157.775
  30
0.0
  11
 179.527
  21
 158.734
  31
0.0
   0
LINE
   8
LEVEL001
   6
CONTINUOUS
  62
7
  10
 179.527
  20
 158.734
  30
0.0
  11
 182.142
  21
 128.848
  31
0.0
   0
LINE
   8
LEVEL001
   6
CONTINUOUS
  62
7
  10
 182.142
  20
 128.848
  30
0.0
  11
 171.184
  21
 127.890
  31
0.0
   0
LINE
   8
LEVEL003
   6
CONTINUOUS
  62
3
  10
 137.500
  20
 120.000
  30
0.0
  11
 242.000
  21
 120.000
  31
0.0
   0
LINE
   8
LEVEL003
   6
CONTINUOUS
  62
3
  10
 120.000
  20
 236.000
  30
0.0
  11
 242.000
  21
 236.000
  31
0.0
   0
LINE
   8
LEVEL003
   6
CONTINUOUS
  62
3
  10
 240.000
  20
 120.000
  30
0.0
  11
 240.000
  21
 236.000
  31
0.0
   0
LINE
   8
LEVEL003
   6
CONTINUOUS
  62
3
  10
 240.000
  20
 120.000
  30
0.0
  11
 240.529
  21
 123.000
  31
0.0
   0
LINE
   8
LEVEL003
   6
CONTINUOUS
  62
3
  10
 240.000
  20
 120.000
  30
0.0
  11
 239.471
  21
 123.000
  31
0.0
   0
LINE
   8
LEVEL003
   6
CONTINUOUS
  62
3
  10
 240.000
  20
 236.000
  30
0.0
  11
 239.471
  21
 233.000
  31
0.0
   0
LINE
   8
LEVEL003
   6
CONTINUOUS
  62
3
  10
 240.000
  20
 236.000
  30
0.0
  11
 240.529
  21
 233.000
  31
0.0
   0
TEXT
   8
LEVEL003
  62
3
  10
 239.200
  20
 175.000
  30
0.0
  40
 4.00000
   1
116
  50
 90.0000
  41
 0.500000
   7
STANDARD
  72
1
  11
 239.200
  21
 178.000
  31
0.0
   0
LINE
   8
LEVEL001
   6
CONTINUOUS
  62
7
  10
 136.000
  20
 232.000
  30
0.0
  11
 135.000
  21
 233.000
  31
0.0
   0
LINE
   8
LEVEL001
   6
CONTINUOUS
  62
7
  10
 136.000
  20
 228.000
  30
0.0
  11
 136.000
  21
 232.000
  31
0.0
   0
LINE
   8
LEVEL001
   6
CONTINUOUS
  62
7
  10
 136.500
  20
 228.000
  30
0.0
  11
 137.500
  21
 227.000
  31
0.0
   0
LINE
   8
LEVEL001
   6
CONTINUOUS
  62
7
  10
 137.500
  20
 227.000
  30
0.0
  11
 137.500
  21
 189.268
  31
0.0
   0
LINE
   8
LEVEL001
   6
CONTINUOUS
  62
3
  10
 136.500
  20
 193.000
  30
0.0
  11
 137.500
  21
 189.268
  31
0.0
   0
LINE
   8
LEVEL001
   6
CONTINUOUS
  62
7
  10
 122.500
  20
 235.000
  30
0.0
  11
 123.000
  21
 233.000
  31
0.0
   0
LINE
   8
LEVEL001
   6
CONTINUOUS
  62
7
  10
 120.000
  20
 235.000
  30
0.0
  11
 119.000
  21
 236.000
  31
0.0
   0
LINE
   8
LEVEL001
   6
CONTINUOUS
  62
7
  10
 54.0000
  20
 232.000
  30
0.0
  11
 55.0000
  21
 233.000
  31
0.0
   0
LINE
   8
LEVEL001
   6
CONTINUOUS
  62
7
  10
 54.0000
  20
 228.000
  30
0.0
  11
 54.0000
  21
 232.000
  31
0.0
   0
LINE
   8
LEVEL001
   6
CONTINUOUS
  62
7
  10
 52.5000
  20
 121.000
  30
0.0
  11
 52.5000
  21
 189.268
  31
0.0
   0
LINE
   8
LEVEL001
   6
CONTINUOUS
  62
7
  10
 53.5000
  20
 228.000
  30
0.0
  11
 52.5000
  21
 227.000
  31
0.0
   0
LINE
   8
LEVEL001
   6
CONTINUOUS
  62
7
  10
 52.5000
  20
 227.000
  30
0.0
  11
 52.5000
  21
 189.268
  31
0.0
   0
LINE
   8
LEVEL001
   6
CONTINUOUS
  62
3
  10
 53.5000
  20
 193.000
  30
0.0
  11
 52.5000
  21
 189.268
  31
0.0
   0
LINE
   8
LEVEL001
   6
CONTINUOUS
  62
7
  10
 67.5000
  20
 235.000
  30
0.0
  11
 67.0000
  21
 233.000
  31
0.0
   0
LINE
   8
LEVEL001
   6
CONTINUOUS
  62
7
  10
 70.0000
  20
 235.000
  30
0.0
  11
 71.0000
  21
 236.000
  31
0.0
   0
LINE
   8
LEVEL001
   6
CONTINUOUS
  62
7
  10
 119.000
  20
 236.000
  30
0.0
  11
 71.0000
  21
 236.000
  31
0.0
   0
LINE
   8
LEVEL001
   6
DASHDOT
  62
1
  10
 140.500
  20
 228.000
  30
0.0
  11
 140.500
  21
 193.000
  31
0.0
   0
LINE
   8
LEVEL001
   6
DASHDOT
  62
1
  10
 136.500
  20
 228.000
  30
0.0
  11
 140.500
  21
 228.000
  31
0.0
   0
LINE
   8
LEVEL001
   6
DASHDOT
  62
1
  10
 137.500
  20
 193.000
  30
0.0
  11
 140.500
  21
 193.000
  31
0.0
   0
LINE
   8
LEVEL001
   6
DASHDOT
  62
1
  10
 49.5000
  20
 228.000
  30
0.0
  11
 49.5000
  21
 193.000
  31
0.0
   0
LINE
   8
LEVEL001
   6
DASHDOT
  62
1
  10
 53.5000
  20
 228.000
  30
0.0
  11
 49.5000
  21
 228.000
  31
0.0
   0
LINE
   8
LEVEL001
   6
DASHDOT
  62
1
  10
 52.5000
  20
 193.000
  30
0.0
  11
 49.5000
  21
 193.000
  31
0.0
   0
LINE
   8
LEVEL001
   6
DASHDOT
  62
1
  10
 95.0000
  20
 115.000
  30
0.0
  11
 95.0000
  21
 240.000
  31
0.0
   0
LINE
   8
LEVEL001
   6
CONTINUOUS
  62
7
  10
 52.5000
  20
 121.000
  30
0.0
  11
 53.5000
  21
 120.000
  31
0.0
   0
LINE
   8
LEVEL001
   6
CONTINUOUS
  62
7
  10
 53.5000
  20
 120.000
  30
0.0
  11
 136.500
  21
 120.000
  31
0.0
   0
LINE
   8
LEVEL001
   6
CONTINUOUS
  62
7
  10
 137.500
  20
 121.000
  30
0.0
  11
 136.500
  21
 120.000
  31
0.0
   0
CIRCLE
   8
LEVEL001
   6
CONTINUOUS
  62
7
  10
 95.0000
  20
 47.5000
  30
0.0
  40
 42.5000
   0
CIRCLE
   8
LEVEL001
   6
DASHDOT
  62
1
  10
 95.0000
  20
 47.5000
  30
0.0
  40
 27.5000
   0
CIRCLE
   8
LEVEL001
   6
CONTINUOUS
  62
7
  10
 95.0000
  20
 47.5000
  30
0.0
  40
 41.5000
   0
CIRCLE
   8
LEVEL001
   6
CONTINUOUS
  62
7
  10
 114.445
  20
 66.9454
  30
0.0
  40
 4.25000
   0
CIRCLE
   8
LEVEL001
   6
CONTINUOUS
  62
3
  10
 114.445
  20
 66.9454
  30
0.0
  40
 5.00000
   0
LINE
   8
LEVEL001
   6
DASHDOT
  62
1
  10
 120.102
  20
 72.6023
  30
0.0
  11
 108.789
  21
 61.2886
  31
0.0
   0
CIRCLE
   8
LEVEL001
   6
CONTINUOUS
  62
7
  10
 114.445
  20
 28.0546
  30
0.0
  40
 4.25000
   0
CIRCLE
   8
LEVEL001
   6
CONTINUOUS
  62
3
  10
 114.445
  20
 28.0546
  30
0.0
  40
 5.00000
   0
LINE
   8
LEVEL001
   6
DASHDOT
  62
1
  10
 120.102
  20
 22.3977
  30
0.0
  11
 108.789
  21
 33.7114
  31
0.0
   0
CIRCLE
   8
LEVEL001
   6
CONTINUOUS
  62
7
  10
 75.5546
  20
 66.9454
  30
0.0
  40
 4.25000
   0
CIRCLE
   8
LEVEL001
   6
CONTINUOUS
  62
3
  10
 75.5546
  20
 66.9454
  30
0.0
  40
 5.00000
   0
LINE
   8
LEVEL001
   6
DASHDOT
  62
1
  10
 69.8977
  20
 72.6023
  30
0.0
  11
 81.2114
  21
 61.2886
  31
0.0
   0
CIRCLE
   8
LEVEL001
   6
CONTINUOUS
  62
7
  10
 75.5546
  20
 28.0546
  30
0.0
  40
 4.25000
   0
CIRCLE
   8
LEVEL001
   6
CONTINUOUS
  62
3
  10
 75.5546
  20
 28.0546
  30
0.0
  40
 5.00000
   0
LINE
   8
LEVEL001
   6
DASHDOT
  62
1
  10
 69.8977
  20
 22.3977
  30
0.0
  11
 81.2114
  21
 33.7114
  31
0.0
   0
ARC
   8
LEVEL001
   6
CONTINUOUS
  62
7
  10
 165.004
  20
 60.5000
  30
0.0
  40
 1.50000
  50
 90.0000
  51
 180.000
   0
LINE
   8
LEVEL001
   6
CONTINUOUS
  62
7
  10
 165.004
  20
 62.0000
  30
0.0
  11
 170.004
  21
 62.0000
  31
0.0
   0
ARC
   8
LEVEL001
   6
CONTINUOUS
  62
7
  10
 165.004
  20
 34.5000
  30
0.0
  40
 1.50000
  50
 180.000
  51
 270.000
   0
LINE
   8
LEVEL001
   6
CONTINUOUS
  62
7
  10
 163.504
  20
 34.5000
  30
0.0
  11
 163.504
  21
 60.5000
  31
0.0
   0
LINE
   8
LEVEL001
   6
CONTINUOUS
  62
7
  10
 165.004
  20
 33.0000
  30
0.0
  11
 170.004
  21
 33.0000
  31
0.0
   0
ARC
   8
LEVEL001
   6
CONTINUOUS
  62
7
  10
 186.004
  20
 60.5000
  30
0.0
  40
 1.50000
  50
0.0
  51
 90.0000
   0
LINE
   8
LEVEL001
   6
CONTINUOUS
  62
7
  10
 181.004
  20
 62.0000
  30
0.0
  11
 186.004
  21
 62.0000
  31
0.0
   0
ARC
   8
LEVEL001
   6
CONTINUOUS
  62
7
  10
 186.004
  20
 34.5000
  30
0.0
  40
 1.50000
  50
 270.000
  51
0.0
   0
LINE
   8
LEVEL001
   6
CONTINUOUS
  62
7
  10
 181.004
  20
 33.0000
  30
0.0
  11
 186.004
  21
 33.0000
  31
0.0
   0
LINE
   8
LEVEL001
   6
CONTINUOUS
  62
7
  10
 187.504
  20
 60.5000
  30
0.0
  11
 187.504
  21
 34.5000
  31
0.0
   0
ARC
   8
LEVEL001
   6
DASHDOT
  62
1
  10
 196.504
  20
 60.5000
  30
0.0
  40
 1.00000
  50
0.0
  51
 90.0000
   0
LINE
   8
LEVEL001
   6
DASHDOT
  62
1
  10
 188.504
  20
 61.5000
  30
0.0
  11
 196.504
  21
 61.5000
  31
0.0
   0
ARC
   8
LEVEL001
   6
DASHDOT
  62
1
  10
 196.504
  20
 34.5000
  30
0.0
  40
 1.00000
  50
 270.000
  51
0.0
   0
LINE
   8
LEVEL001
   6
DASHDOT
  62
1
  10
 188.504
  20
 33.5000
  30
0.0
  11
 196.504
  21
 33.5000
  31
0.0
   0
LINE
   8
LEVEL001
   6
DASHDOT
  62
1
  10
 197.504
  20
 60.5000
  30
0.0
  11
 197.504
  21
 34.5000
  31
0.0
   0
ARC
   8
LEVEL001
   6
DASHDOT
  62
1
  10
 188.504
  20
 34.5000
  30
0.0
  40
 1.00000
  50
 180.000
  51
 270.000
   0
ARC
   8
LEVEL001
   6
DASHDOT
  62
1
  10
 188.504
  20
 60.5000
  30
0.0
  40
 1.00000
  50
 90.0000
  51
 180.000
   0
LINE
   8
LEVEL001
   6
CONTINUOUS
  62
3
  10
 142.887
  20
 55.0000
  30
0.0
  11
 142.887
  21
 40.0000
  31
0.0
   0
LINE
   8
LEVEL001
   6
CONTINUOUS
  62
7
  10
 146.504
  20
 55.0000
  30
0.0
  11
 146.504
  21
 40.0000
  31
0.0
   0
LINE
   8
LEVEL001
   6
CONTINUOUS
  62
7
  10
 147.987
  20
 40.0000
  30
0.0
  11
 147.987
  21
 55.0000
  31
0.0
   0
LINE
   8
LEVEL001
   6
CONTINUOUS
  62
3
  10
 170.004
  20
 34.5000
  30
0.0
  11
 181.004
  21
 34.5000
  31
0.0
   0
LINE
   8
LEVEL001
   6
CONTINUOUS
  62
3
  10
 170.004
  20
 36.5000
  30
0.0
  11
 181.004
  21
 36.5000
  31
0.0
   0
LINE
   8
LEVEL001
   6
CONTINUOUS
  62
3
  10
 170.004
  20
 38.5000
  30
0.0
  11
 181.004
  21
 38.5000
  31
0.0
   0
LINE
   8
LEVEL001
   6
CONTINUOUS
  62
3
  10
 170.004
  20
 40.5000
  30
0.0
  11
 181.004
  21
 40.5000
  31
0.0
   0
LINE
   8
LEVEL001
   6
CONTINUOUS
  62
3
  10
 170.004
  20
 42.5000
  30
0.0
  11
 181.004
  21
 42.5000
  31
0.0
   0
LINE
   8
LEVEL001
   6
CONTINUOUS
  62
3
  10
 170.004
  20
 44.5000
  30
0.0
  11
 181.004
  21
 44.5000
  31
0.0
   0
LINE
   8
LEVEL001
   6
CONTINUOUS
  62
3
  10
 170.004
  20
 46.5000
  30
0.0
  11
 181.004
  21
 46.5000
  31
0.0
   0
LINE
   8
LEVEL001
   6
CONTINUOUS
  62
3
  10
 170.004
  20
 48.5000
  30
0.0
  11
 181.004
  21
 48.5000
  31
0.0
   0
LINE
   8
LEVEL001
   6
CONTINUOUS
  62
3
  10
 170.004
  20
 50.5000
  30
0.0
  11
 181.004
  21
 50.5000
  31
0.0
   0
LINE
   8
LEVEL001
   6
CONTINUOUS
  62
3
  10
 170.004
  20
 52.5000
  30
0.0
  11
 181.004
  21
 52.5000
  31
0.0
   0
LINE
   8
LEVEL001
   6
CONTINUOUS
  62
3
  10
 170.004
  20
 54.5000
  30
0.0
  11
 181.004
  21
 54.5000
  31
0.0
   0
LINE
   8
LEVEL001
   6
CONTINUOUS
  62
3
  10
 170.004
  20
 56.5000
  30
0.0
  11
 181.004
  21
 56.5000
  31
0.0
   0
LINE
   8
LEVEL001
   6
CONTINUOUS
  62
3
  10
 170.004
  20
 58.5000
  30
0.0
  11
 181.004
  21
 58.5000
  31
0.0
   0
LINE
   8
LEVEL001
   6
CONTINUOUS
  62
3
  10
 170.004
  20
 60.5000
  30
0.0
  11
 181.004
  21
 60.5000
  31
0.0
   0
LINE
   8
LEVEL001
   6
DASHDOT
  62
1
  10
 197.504
  20
 49.5000
  30
0.0
  11
 203.504
  21
 49.5000
  31
0.0
   0
LINE
   8
LEVEL001
   6
DASHDOT
  62
1
  10
 203.504
  20
 49.5000
  30
0.0
  11
 203.504
  21
 45.5000
  31
0.0
   0
LINE
   8
LEVEL001
   6
DASHDOT
  62
1
  10
 203.504
  20
 45.5000
  30
0.0
  11
 197.504
  21
 45.5000
  31
0.0
   0
LINE
   8
LEVEL001
   6
CONTINUOUS
  62
7
  10
 142.504
  20
 56.0185
  30
0.0
  11
 142.504
  21
 55.0000
  31
0.0
   0
LINE
   8
LEVEL001
   6
CONTINUOUS
  62
7
  10
 142.504
  20
 55.0000
  30
0.0
  11
 156.504
  21
 55.0000
  31
0.0
   0
LINE
   8
LEVEL001
   6
CONTINUOUS
  62
7
  10
 156.504
  20
 55.0000
  30
0.0
  11
 156.504
  21
 57.0000
  31
0.0
   0
LINE
   8
LEVEL001
   6
CONTINUOUS
  62
7
  10
 156.504
  20
 57.0000
  30
0.0
  11
 163.504
  21
 57.0000
  31
0.0
   0
LINE
   8
LEVEL001
   6
CONTINUOUS
  62
7
  10
 142.504
  20
 38.9815
  30
0.0
  11
 142.504
  21
 40.0000
  31
0.0
   0
LINE
   8
LEVEL001
   6
CONTINUOUS
  62
7
  10
 142.504
  20
 40.0000
  30
0.0
  11
 156.504
  21
 40.0000
  31
0.0
   0
LINE
   8
LEVEL001
   6
CONTINUOUS
  62
7
  10
 156.504
  20
 40.0000
  30
0.0
  11
 156.504
  21
 38.0000
  31
0.0
   0
LINE
   8
LEVEL001
   6
CONTINUOUS
  62
7
  10
 156.504
  20
 38.0000
  30
0.0
  11
 163.504
  21
 38.0000
  31
0.0
   0
LINE
   8
LEVEL001
   6
CONTINUOUS
  62
7
  10
 170.004
  20
 32.5000
  30
0.0
  11
 170.004
  21
 62.5000
  31
0.0
   0
LINE
   8
LEVEL001
   6
CONTINUOUS
  62
7
  10
 170.004
  20
 62.5000
  30
0.0
  11
 181.004
  21
 62.5000
  31
0.0
   0
LINE
   8
LEVEL001
   6
CONTINUOUS
  62
7
  10
 181.004
  20
 62.5000
  30
0.0
  11
 181.004
  21
 32.5000
  31
0.0
   0
LINE
   8
LEVEL001
   6
CONTINUOUS
  62
7
  10
 181.004
  20
 32.5000
  30
0.0
  11
 170.004
  21
 32.5000
  31
0.0
   0
LINE
   8
LEVEL001
   6
DASHDOT
  62
1
  10
 47.1875
  20
 47.5000
  30
0.0
  11
 206.504
  21
 47.5000
  31
0.0
   0
LINE
   8
LEVEL001
   6
CONTINUOUS
  62
3
  10
 142.499
  20
 39.8376
  30
0.0
  11
 136.836
  21
 40.0146
  31
0.0
   0
LINE
   8
LEVEL001
   6
CONTINUOUS
  62
3
  10
 142.504
  20
 55.1625
  30
0.0
  11
 136.836
  21
 54.9854
  31
0.0
   0
LINE
   8
LEVEL001
   6
CONTINUOUS
  62
7
  10
 142.504
  20
 56.0185
  30
0.0
  11
 136.674
  21
 55.8363
  31
0.0
   0
LINE
   8
LEVEL001
   6
CONTINUOUS
  62
7
  10
 142.504
  20
 38.9815
  30
0.0
  11
 136.674
  21
 39.1637
  31
0.0
   0
LINE
   8
LEVEL001
   6
CONTINUOUS
  62
7
  10
 95.0000
  20
 52.1188
  30
0.0
  11
 99.0000
  21
 49.8094
  31
0.0
   0
LINE
   8
LEVEL001
   6
CONTINUOUS
  62
7
  10
 99.0000
  20
 49.8094
  30
0.0
  11
 99.0000
  21
 45.1906
  31
0.0
   0
LINE
   8
LEVEL001
   6
CONTINUOUS
  62
7
  10
 99.0000
  20
 45.1906
  30
0.0
  11
 95.0000
  21
 42.8812
  31
0.0
   0
LINE
   8
LEVEL001
   6
CONTINUOUS
  62
7
  10
 95.0000
  20
 42.8812
  30
0.0
  11
 91.0000
  21
 45.1906
  31
0.0
   0
LINE
   8
LEVEL001
   6
CONTINUOUS
  62
7
  10
 91.0000
  20
 45.1906
  30
0.0
  11
 91.0000
  21
 49.8094
  31
0.0
   0
LINE
   8
LEVEL001
   6
CONTINUOUS
  62
7
  10
 91.0000
  20
 49.8094
  30
0.0
  11
 95.0000
  21
 52.1188
  31
0.0
   0
CIRCLE
   8
LEVEL001
   6
CONTINUOUS
  62
7
  10
 95.0000
  20
 47.5000
  30
0.0
  40
 8.33100
   0
CIRCLE
   8
LEVEL001
   6
CONTINUOUS
  62
3
  10
 95.0000
  20
 47.5000
  30
0.0
  40
 7.47500
   0
CIRCLE
   8
LEVEL001
   6
CONTINUOUS
  62
7
  10
 95.0000
  20
 47.5000
  30
0.0
  40
 9.83093
   0
LINE
   8
LEVEL001
   6
DASHDOT
  62
1
  10
 95.0000
  20
 2.50000
  30
0.0
  11
 95.0000
  21
 92.5000
  31
0.0
   0
LINE
   8
LEVEL001
   6
CONTINUOUS
  62
7
  10
 137.500
  20
 121.000
  30
0.0
  11
 137.500
  21
 189.268
  31
0.0
   0
LINE
   8
LEVEL001
   6
CONTINUOUS
  62
7
  10
 147.219
  20
 132.174
  30
0.0
  11
 137.500
  21
 131.629
  31
0.0
   0
LINE
   8
LEVEL001
   6
CONTINUOUS
  62
3
  10
 142.194
  20
 148.115
  30
0.0
  11
 137.500
  21
 147.556
  31
0.0
   0
LINE
   8
LEVEL001
   6
CONTINUOUS
  62
7
  10
 145.713
  20
 149.395
  30
0.0
  11
 137.500
  21
 148.417
  31
0.0
   0
LINE
   8
LEVEL001
   6
CONTINUOUS
  62
3
  10
 143.532
  20
 132.824
  30
0.0
  11
 137.500
  21
 132.486
  31
0.0
   0
LINE
   8
LEVEL001
   6
DASHDOT
  62
1
  10
 207.526
  20
 146.126
  30
0.0
  11
 130.057
  21
 139.349
  31
0.0
   0
LINE
   8
LEVEL001
   6
DOT
  62
3
  10
 72.0000
  20
 228.000
  30
0.0
  11
 74.7500
  21
 228.000
  31
0.0
   0
LINE
   8
LEVEL001
   6
DOT
  62
3
  10
 118.000
  20
 228.000
  30
0.0
  11
 115.250
  21
 228.000
  31
0.0
   0
LINE
   8
LEVEL001
   6
DOT
  62
3
  10
 114.000
  20
 225.000
  30
0.0
  11
 113.750
  21
 225.000
  31
0.0
   0
LINE
   8
LEVEL001
   6
CONTINUOUS
  62
3
  10
 136.500
  20
 228.000
  30
0.0
  11
 136.500
  21
 193.000
  31
0.0
   0
LINE
   8
LEVEL001
   6
CONTINUOUS
  62
3
  10
 53.5000
  20
 228.000
  30
0.0
  11
 53.5000
  21
 193.000
  31
0.0
   0
LINE
   8
LEVEL001
   6
CONTINUOUS
  62
7
  10
 137.500
  20
 189.268
  30
0.0
  11
 52.5000
  21
 189.268
  31
0.0
   0
LINE
   8
LEVEL003
   6
CONTINUOUS
  62
3
  10
 62.5000
  20
 175.000
  30
0.0
  11
 127.500
  21
 175.000
  31
0.0
   0
LINE
   8
LEVEL003
   6
CONTINUOUS
  62
3
  10
 62.5000
  20
 175.000
  30
0.0
  11
 65.5000
  21
 174.471
  31
0.0
   0
LINE
   8
LEVEL003
   6
CONTINUOUS
  62
3
  10
 62.5000
  20
 175.000
  30
0.0
  11
 65.5000
  21
 175.529
  31
0.0
   0
LINE
   8
LEVEL003
   6
CONTINUOUS
  62
3
  10
 127.500
  20
 175.000
  30
0.0
  11
 124.500
  21
 175.529
  31
0.0
   0
LINE
   8
LEVEL003
   6
CONTINUOUS
  62
3
  10
 127.500
  20
 175.000
  30
0.0
  11
 124.500
  21
 174.471
  31
0.0
   0
TEXT
   8
LEVEL003
  62
3
  10
 91.0000
  20
 175.800
  30
0.0
  40
 4.00000
   1
%%c65
   7
STANDARD
  72
1
  11
 95.0000
  21
 175.800
  31
0.0
   0
LINE
   8
LEVEL001
   6
CONTINUOUS
  62
7
  10
 67.5000
  20
 235.000
  30
0.0
  11
 122.500
  21
 235.000
  31
0.0
   0
LINE
   8
LEVEL001
   6
CONTINUOUS
  62
7
  10
 55.0000
  20
 233.000
  30
0.0
  11
 135.000
  21
 233.000
  31
0.0
   0
LINE
   8
LEVEL001
   6
CONTINUOUS
  62
7
  10
 136.000
  20
 232.000
  30
0.0
  11
 54.0000
  21
 232.000
  31
0.0
   0
LINE
   8
LEVEL001
   6
CONTINUOUS
  62
3
  10
 137.500
  20
 227.000
  30
0.0
  11
 52.5000
  21
 227.000
  31
0.0
   0
LINE
   8
LEVEL001
   6
CONTINUOUS
  62
7
  10
 53.5000
  20
 228.000
  30
0.0
  11
 136.500
  21
 228.000
  31
0.0
   0
LINE
   8
LEVEL001
   6
CONTINUOUS
  62
3
  10
 52.5000
  20
 193.000
  30
0.0
  11
 137.500
  21
 193.000
  31
0.0
   0
LINE
   8
LEVEL003
   6
CONTINUOUS
  62
3
  10
 67.5000
  20
 120.000
  30
0.0
  11
 50.0000
  21
 105.000
  31
0.0
   0
LINE
   8
LEVEL003
   6
CONTINUOUS
  62
3
  10
 67.5000
  20
 120.000
  30
0.0
  11
 64.8780
  21
 118.449
  31
0.0
   0
LINE
   8
LEVEL003
   6
CONTINUOUS
  62
3
  10
 67.5000
  20
 120.000
  30
0.0
  11
 65.5665
  21
 117.646
  31
0.0
   0
LINE
   8
LEVEL004
   6
DASHDOT
  62
1
  10
 67.5000
  20
 117.000
  30
0.0
  11
 67.5000
  21
 130.000
  31
0.0
   0
LINE
   8
LEVEL004
   6
DOT
  62
3
  10
 71.7500
  20
 120.750
  30
0.0
  11
 63.2500
  21
 120.750
  31
0.0
   0
LINE
   8
LEVEL004
   6
DOT
  62
3
  10
 72.5000
  20
 120.000
  30
0.0
  11
 71.7500
  21
 120.750
  31
0.0
   0
LINE
   8
LEVEL004
   6
DOT
  62
3
  10
 71.7500
  20
 120.750
  30
0.0
  11
 71.7500
  21
 130.000
  31
0.0
   0
LINE
   8
LEVEL004
   6
DOT
  62
3
  10
 63.2500
  20
 130.000
  30
0.0
  11
 63.2500
  21
 120.750
  31
0.0
   0
LINE
   8
LEVEL004
   6
DOT
  62
3
  10
 63.2500
  20
 120.750
  30
0.0
  11
 62.5000
  21
 120.000
  31
0.0
   0
LINE
   8
LEVEL004
   6
DOT
  62
3
  10
 72.5000
  20
 120.000
  30
0.0
  11
 72.5000
  21
 130.000
  31
0.0
   0
LINE
   8
LEVEL004
   6
DOT
  62
3
  10
 62.5000
  20
 130.000
  30
0.0
  11
 62.5000
  21
 120.000
  31
0.0
   0
LINE
   8
LEVEL004
   6
DASHDOT
  62
1
  10
 122.500
  20
 117.000
  30
0.0
  11
 122.500
  21
 130.000
  31
0.0
   0
LINE
   8
LEVEL004
   6
DOT
  62
3
  10
 123.000
  20
 180.000
  30
0.0
  11
 123.000
  21
 233.000
  31
0.0
   0
LINE
   8
LEVEL004
   6
DOT
  62
3
  10
 127.500
  20
 197.000
  30
0.0
  11
 127.500
  21
 154.000
  31
0.0
   0
LINE
   8
LEVEL004
   6
DOT
  62
3
  10
 67.0000
  20
 180.000
  30
0.0
  11
 67.0000
  21
 233.000
  31
0.0
   0
LINE
   8
LEVEL004
   6
DOT
  62
3
  10
 62.5000
  20
 197.000
  30
0.0
  11
 62.5000
  21
 154.000
  31
0.0
   0
ARC
   8
LEVEL004
   6
DOT
  62
3
  10
 105.000
  20
 236.000
  30
0.0
  40
 1.00000
  50
 180.000
  51
0.0
   0
ARC
   8
LEVEL004
   6
DOT
  62
3
  10
 112.500
  20
 236.000
  30
0.0
  40
 1.00000
  50
 180.000
  51
0.0
   0
ARC
   8
LEVEL004
   6
DOT
  62
3
  10
 85.0000
  20
 236.000
  30
0.0
  40
 1.00000
  50
 180.000
  51
0.0
   0
ARC
   8
LEVEL004
   6
DOT
  62
3
  10
 77.5000
  20
 236.000
  30
0.0
  40
 1.00000
  50
 180.000
  51
0.0
   0
LINE
   8
LEVEL004
   6
DOT
  62
3
  10
 70.0000
  20
 230.000
  30
0.0
  11
 72.0000
  21
 228.000
  31
0.0
   0
ARC
   8
LEVEL004
   6
DOT
  62
3
  10
 72.0000
  20
 230.000
  30
0.0
  40
 2.00000
  50
 180.000
  51
 270.000
   0
LINE
   8
LEVEL004
   6
DOT
  62
3
  10
 70.0000
  20
 235.000
  30
0.0
  11
 70.0000
  21
 230.000
  31
0.0
   0
LINE
   8
LEVEL004
   6
DOT
  62
3
  10
 75.0000
  20
 227.500
  30
0.0
  11
 74.5000
  21
 228.000
  31
0.0
   0
LINE
   8
LEVEL004
   6
DOT
  62
3
  10
 75.0000
  20
 227.500
  30
0.0
  11
 75.0000
  21
 225.990
  31
0.0
   0
ARC
   8
LEVEL004
   6
DOT
  62
3
  10
 74.7500
  20
 226.500
  30
0.0
  40
 1.50000
  50
0.0
  51
 90.0000
   0
LINE
   8
LEVEL004
   6
DOT
  62
3
  10
 120.000
  20
 230.000
  30
0.0
  11
 118.000
  21
 228.000
  31
0.0
   0
ARC
   8
LEVEL004
   6
DOT
  62
3
  10
 118.000
  20
 230.000
  30
0.0
  40
 2.00000
  50
 270.000
  51
0.0
   0
LINE
   8
LEVEL004
   6
DOT
  62
3
  10
 120.000
  20
 235.000
  30
0.0
  11
 120.000
  21
 230.000
  31
0.0
   0
LINE
   8
LEVEL004
   6
DOT
  62
3
  10
 115.000
  20
 227.500
  30
0.0
  11
 115.500
  21
 228.000
  31
0.0
   0
LINE
   8
LEVEL004
   6
DOT
  62
3
  10
 115.000
  20
 227.500
  30
0.0
  11
 115.000
  21
 225.990
  31
0.0
   0
ARC
   8
LEVEL004
   6
DOT
  62
3
  10
 115.250
  20
 226.500
  30
0.0
  40
 1.50000
  50
 90.0000
  51
 180.000
   0
LINE
   8
LEVEL004
   6
DOT
  62
3
  10
 115.000
  20
 226.000
  30
0.0
  11
 114.000
  21
 225.000
  31
0.0
   0
LINE
   8
LEVEL004
   6
DOT
  62
3
  10
 114.000
  20
 225.000
  30
0.0
  11
 114.000
  21
 216.000
  31
0.0
   0
LINE
   8
LEVEL004
   6
DOT
  62
3
  10
 115.000
  20
 226.000
  30
0.0
  11
 115.000
  21
 215.000
  31
0.0
   0
LINE
   8
LEVEL004
   6
DOT
  62
3
  10
 113.750
  20
 226.500
  30
0.0
  11
 113.750
  21
 215.000
  31
0.0
   0
ARC
   8
LEVEL004
   6
DOT
  62
3
  10
 114.000
  20
 215.000
  30
0.0
  40
 1.00000
  50
0.0
  51
 90.0000
   0
ARC
   8
LEVEL004
   6
DOT
  62
3
  10
 114.000
  20
 214.000
  30
0.0
  40
 1.00000
  50
 270.000
  51
0.0
   0
LINE
   8
LEVEL004
   6
DOT
  62
3
  10
 115.000
  20
 215.000
  30
0.0
  11
 115.000
  21
 214.000
  31
0.0
   0
LINE
   8
LEVEL004
   6
DOT
  62
3
  10
 114.000
  20
 216.000
  30
0.0
  11
 113.750
  21
 216.000
  31
0.0
   0
LINE
   8
LEVEL004
   6
DOT
  62
3
  10
 113.750
  20
 215.000
  30
0.0
  11
 112.750
  21
 214.000
  31
0.0
   0
LINE
   8
LEVEL004
   6
DOT
  62
3
  10
 112.750
  20
 214.000
  30
0.0
  11
 77.2500
  21
 214.000
  31
0.0
   0
LINE
   8
LEVEL004
   6
DOT
  62
3
  10
 114.000
  20
 213.000
  30
0.0
  11
 76.0000
  21
 213.000
  31
0.0
   0
LINE
   8
LEVEL004
   6
DASHDOT
  62
1
  10
 73.2500
  20
 220.000
  30
0.0
  11
 92.4047
  21
 220.000
  31
0.0
   0
LINE
   8
LEVEL004
   6
DASHDOT
  62
1
  10
 88.5387
  20
 218.500
  30
0.0
  11
 88.1180
  21
 221.500
  31
0.0
   0
LINE
   8
LEVEL004
   6
DASHDOT
  62
1
  10
 88.1180
  20
 221.500
  30
0.0
  11
 87.6974
  21
 218.500
  31
0.0
   0
LINE
   8
LEVEL004
   6
DASHDOT
  62
1
  10
 87.6974
  20
 218.500
  30
0.0
  11
 87.2767
  21
 221.500
  31
0.0
   0
LINE
   8
LEVEL004
   6
DASHDOT
  62
1
  10
 87.2767
  20
 221.500
  30
0.0
  11
 86.8560
  21
 218.500
  31
0.0
   0
LINE
   8
LEVEL004
   6
DASHDOT
  62
1
  10
 86.8560
  20
 218.500
  30
0.0
  11
 86.4353
  21
 221.500
  31
0.0
   0
LINE
   8
LEVEL004
   6
DASHDOT
  62
1
  10
 86.4353
  20
 221.500
  30
0.0
  11
 86.0146
  21
 218.500
  31
0.0
   0
LINE
   8
LEVEL004
   6
DASHDOT
  62
1
  10
 86.0146
  20
 218.500
  30
0.0
  11
 85.5939
  21
 221.500
  31
0.0
   0
LINE
   8
LEVEL004
   6
DASHDOT
  62
1
  10
 85.5939
  20
 221.500
  30
0.0
  11
 85.1732
  21
 218.500
  31
0.0
   0
LINE
   8
LEVEL004
   6
DASHDOT
  62
1
  10
 85.1732
  20
 218.500
  30
0.0
  11
 84.7525
  21
 221.500
  31
0.0
   0
LINE
   8
LEVEL004
   6
DASHDOT
  62
1
  10
 84.7525
  20
 221.500
  30
0.0
  11
 84.3318
  21
 218.500
  31
0.0
   0
LINE
   8
LEVEL004
   6
DASHDOT
  62
1
  10
 84.3318
  20
 218.500
  30
0.0
  11
 83.9111
  21
 221.500
  31
0.0
   0
LINE
   8
LEVEL004
   6
DASHDOT
  62
1
  10
 83.9111
  20
 221.500
  30
0.0
  11
 83.4905
  21
 218.500
  31
0.0
   0
LINE
   8
LEVEL004
   6
DASHDOT
  62
1
  10
 83.4905
  20
 218.500
  30
0.0
  11
 83.0698
  21
 221.500
  31
0.0
   0
LINE
   8
LEVEL004
   6
DASHDOT
  62
1
  10
 83.0698
  20
 221.500
  30
0.0
  11
 82.6491
  21
 218.500
  31
0.0
   0
LINE
   8
LEVEL004
   6
DASHDOT
  62
1
  10
 82.6491
  20
 218.500
  30
0.0
  11
 82.2284
  21
 221.500
  31
0.0
   0
LINE
   8
LEVEL004
   6
DASHDOT
  62
1
  10
 82.2284
  20
 221.500
  30
0.0
  11
 81.8077
  21
 218.500
  31
0.0
   0
LINE
   8
LEVEL004
   6
DASHDOT
  62
1
  10
 81.8077
  20
 218.500
  30
0.0
  11
 81.3870
  21
 221.500
  31
0.0
   0
LINE
   8
LEVEL004
   6
DASHDOT
  62
1
  10
 81.3870
  20
 221.500
  30
0.0
  11
 80.9663
  21
 218.500
  31
0.0
   0
LINE
   8
LEVEL004
   6
DASHDOT
  62
1
  10
 80.9663
  20
 218.500
  30
0.0
  11
 80.5456
  21
 221.500
  31
0.0
   0
LINE
   8
LEVEL004
   6
DASHDOT
  62
1
  10
 80.5456
  20
 221.500
  30
0.0
  11
 80.1249
  21
 218.500
  31
0.0
   0
LINE
   8
LEVEL004
   6
DASHDOT
  62
1
  10
 80.1249
  20
 218.500
  30
0.0
  11
 79.7043
  21
 221.500
  31
0.0
   0
LINE
   8
LEVEL004
   6
DOT
  62
3
  10
 75.0000
  20
 226.000
  30
0.0
  11
 76.0000
  21
 225.000
  31
0.0
   0
LINE
   8
LEVEL004
   6
DOT
  62
3
  10
 76.0000
  20
 225.000
  30
0.0
  11
 76.0000
  21
 216.000
  31
0.0
   0
ARC
   8
LEVEL004
   6
DOT
  62
3
  10
 76.0000
  20
 215.000
  30
0.0
  40
 1.00000
  50
 90.0000
  51
 180.000
   0
ARC
   8
LEVEL004
   6
DOT
  62
3
  10
 76.0000
  20
 214.000
  30
0.0
  40
 1.00000
  50
 180.000
  51
 270.000
   0
LINE
   8
LEVEL004
   6
DOT
  62
3
  10
 75.0000
  20
 215.000
  30
0.0
  11
 75.0000
  21
 214.000
  31
0.0
   0
LINE
   8
LEVEL004
   6
DOT
  62
3
  10
 75.0000
  20
 226.000
  30
0.0
  11
 75.0000
  21
 215.000
  31
0.0
   0
LINE
   8
LEVEL004
   6
DOT
  62
3
  10
 76.0000
  20
 225.000
  30
0.0
  11
 76.2500
  21
 225.000
  31
0.0
   0
LINE
   8
LEVEL004
   6
DOT
  62
3
  10
 76.0000
  20
 216.000
  30
0.0
  11
 76.2500
  21
 216.000
  31
0.0
   0
LINE
   8
LEVEL004
   6
DOT
  62
3
  10
 76.2500
  20
 215.000
  30
0.0
  11
 77.2500
  21
 214.000
  31
0.0
   0
LINE
   8
LEVEL004
   6
DOT
  62
3
  10
 76.2500
  20
 218.000
  30
0.0
  11
 88.2500
  21
 218.000
  31
0.0
   0
LINE
   8
LEVEL004
   6
DOT
  62
3
  10
 88.2500
  20
 218.000
  30
0.0
  11
 89.4047
  21
 220.000
  31
0.0
   0
LINE
   8
LEVEL004
   6
DOT
  62
3
  10
 89.4047
  20
 220.000
  30
0.0
  11
 88.2500
  21
 222.000
  31
0.0
   0
LINE
   8
LEVEL004
   6
DOT
  62
3
  10
 88.2500
  20
 222.000
  30
0.0
  11
 76.2500
  21
 222.000
  31
0.0
   0
LINE
   8
LEVEL004
   6
DOT
  62
3
  10
 88.2500
  20
 222.000
  30
0.0
  11
 88.2500
  21
 218.000
  31
0.0
   0
CIRCLE
   8
LEVEL004
   6
DOT
  62
3
  10
 77.9844
  20
 220.000
  30
0.0
  40
 1.98438
   0
LINE
   8
LEVEL004
   6
DOT
  62
3
  10
 76.2500
  20
 226.500
  30
0.0
  11
 76.2500
  21
 220.964
  31
0.0
   0
LINE
   8
LEVEL004
   6
DOT
  62
3
  10
 76.2500
  20
 219.036
  30
0.0
  11
 76.2500
  21
 215.000
  31
0.0
   0
TEXT
   8
LEVEL003
  62
7
  10
 206.691
  20
 10.2200
  30
0.0
  40
 10.0000
   1
ＯＳＡＫＡ ＪＡＣＫ
   7
STANDARD
   0
CIRCLE
   8
LEVEL003
   6
CONTINUOUS
  62
7
  10
 194.718
  20
 17.2707
  30
0.0
  40
 3.00000
   0
LINE
   8
LEVEL003
   6
CONTINUOUS
  62
7
  10
 200.606
  20
 20.2707
  30
0.0
  11
 196.797
  21
 13.6707
  31
0.0
   0
LINE
   8
LEVEL003
   6
CONTINUOUS
  62
7
  10
 196.797
  20
 13.6707
  30
0.0
  11
 189.176
  21
 13.6707
  31
0.0
   0
LINE
   8
LEVEL003
   6
CONTINUOUS
  62
7
  10
 188.309
  20
 12.1707
  30
0.0
  11
 201.930
  21
 12.1707
  31
0.0
   0
LINE
   8
LEVEL003
   6
CONTINUOUS
  62
7
  10
 201.930
  20
 12.1707
  30
0.0
  11
 206.606
  21
 20.2707
  31
0.0
   0
LINE
   8
LEVEL003
   6
CONTINUOUS
  62
7
  10
 206.606
  20
 20.2707
  30
0.0
  11
 200.606
  21
 20.2707
  31
0.0
   0
LINE
   8
LEVEL003
   6
CONTINUOUS
  62
7
  10
 189.176
  20
 13.6707
  30
0.0
  11
 188.309
  21
 12.1707
  31
0.0
   0
TEXT
   8
LEVEL003
  62
7
  10
 209.602
  20
 27.1134
  30
0.0
  40
 6.00000
   1
Model : Ｅ２３Ｓ２.５
   7
STANDARD
   0
TEXT
   8
LEVEL003
  62
3
  10
 7.64407
  20
 105.000
  30
0.0
  40
 4.00000
   1
４－Ｍ１０×１５Ｌ
   7
STANDARD
   0
LINE
   8
LEVEL003
   6
CONTINUOUS
  62
3
  10
 50.0000
  20
 105.000
  30
0.0
  11
 8.97902
  21
 105.000
  31
0.0
   0
LINE
   8
LEVEL003
   6
CONTINUOUS
  62
3
  10
 136.000
  20
 233.000
  30
0.0
  11
 157.000
  21
 233.000
  31
0.0
   0
LINE
   8
LEVEL003
   6
CONTINUOUS
  62
3
  10
 141.500
  20
 228.000
  30
0.0
  11
 157.000
  21
 228.000
  31
0.0
   0
LINE
   8
LEVEL003
   6
CONTINUOUS
  62
3
  10
 155.000
  20
 233.000
  30
0.0
  11
 155.000
  21
 228.000
  31
0.0
   0
LINE
   8
LEVEL003
   6
CONTINUOUS
  62
3
  10
 155.000
  20
 233.000
  30
0.0
  11
 155.529
  21
 236.000
  31
0.0
   0
LINE
   8
LEVEL003
   6
CONTINUOUS
  62
3
  10
 155.000
  20
 233.000
  30
0.0
  11
 154.471
  21
 236.000
  31
0.0
   0
LINE
   8
LEVEL003
   6
CONTINUOUS
  62
3
  10
 155.000
  20
 228.000
  30
0.0
  11
 154.471
  21
 225.000
  31
0.0
   0
LINE
   8
LEVEL003
   6
CONTINUOUS
  62
3
  10
 155.000
  20
 228.000
  30
0.0
  11
 155.529
  21
 225.000
  31
0.0
   0
LINE
   8
LEVEL003
   6
CONTINUOUS
  62
3
  10
 155.000
  20
 233.000
  30
0.0
  11
 155.000
  21
 236.750
  31
0.0
   0
LINE
   8
LEVEL003
   6
CONTINUOUS
  62
3
  10
 155.000
  20
 228.000
  30
0.0
  11
 155.000
  21
 224.250
  31
0.0
   0
TEXT
   8
LEVEL003
  62
3
  10
 154.200
  20
 228.500
  30
0.0
  40
 4.00000
   1
5
  50
 90.0000
   7
STANDARD
  72
1
  11
 154.200
  21
 230.500
  31
0.0
   0
LINE
   8
LEVEL003
   6
CONTINUOUS
  62
3
  10
 120.000
  20
 236.000
  30
0.0
  11
 167.000
  21
 236.000
  31
0.0
   0
LINE
   8
LEVEL003
   6
CONTINUOUS
  62
3
  10
 136.000
  20
 233.000
  30
0.0
  11
 167.000
  21
 233.000
  31
0.0
   0
LINE
   8
LEVEL003
   6
CONTINUOUS
  62
3
  10
 165.000
  20
 236.000
  30
0.0
  11
 165.000
  21
 233.000
  31
0.0
   0
LINE
   8
LEVEL003
   6
CONTINUOUS
  62
3
  10
 165.000
  20
 236.000
  30
0.0
  11
 165.000
  21
 244.000
  31
0.0
   0
LINE
   8
LEVEL003
   6
CONTINUOUS
  62
3
  10
 165.000
  20
 236.000
  30
0.0
  11
 165.529
  21
 239.000
  31
0.0
   0
LINE
   8
LEVEL003
   6
CONTINUOUS
  62
3
  10
 165.000
  20
 236.000
  30
0.0
  11
 164.471
  21
 239.000
  31
0.0
   0
LINE
   8
LEVEL003
   6
CONTINUOUS
  62
3
  10
 165.000
  20
 233.000
  30
0.0
  11
 164.471
  21
 230.000
  31
0.0
   0
LINE
   8
LEVEL003
   6
CONTINUOUS
  62
3
  10
 165.000
  20
 233.000
  30
0.0
  11
 165.529
  21
 230.000
  31
0.0
   0
LINE
   8
LEVEL003
   6
CONTINUOUS
  62
3
  10
 165.000
  20
 236.000
  30
0.0
  11
 165.000
  21
 244.000
  31
0.0
   0
LINE
   8
LEVEL003
   6
CONTINUOUS
  62
3
  10
 165.000
  20
 233.000
  30
0.0
  11
 165.000
  21
 229.250
  31
0.0
   0
TEXT
   8
LEVEL003
  62
3
  10
 164.200
  20
 240.000
  30
0.0
  40
 4.00000
   1
3
  50
 90.0000
   7
STANDARD
  72
1
  11
 164.200
  21
 242.000
  31
0.0
   0
LINE
   8
LEVEL003
   6
CONTINUOUS
  62
3
  10
 136.000
  20
 233.000
  30
0.0
  11
 167.000
  21
 233.000
  31
0.0
   0
LINE
   8
LEVEL003
   6
CONTINUOUS
  62
3
  10
 141.500
  20
 193.000
  30
0.0
  11
 167.000
  21
 193.000
  31
0.0
   0
LINE
   8
LEVEL003
   6
CONTINUOUS
  62
3
  10
 165.000
  20
 233.000
  30
0.0
  11
 165.000
  21
 193.000
  31
0.0
   0
LINE
   8
LEVEL003
   6
CONTINUOUS
  62
3
  10
 165.000
  20
 233.000
  30
0.0
  11
 164.471
  21
 230.000
  31
0.0
   0
LINE
   8
LEVEL003
   6
CONTINUOUS
  62
3
  10
 165.000
  20
 233.000
  30
0.0
  11
 165.529
  21
 230.000
  31
0.0
   0
LINE
   8
LEVEL003
   6
CONTINUOUS
  62
3
  10
 165.000
  20
 193.000
  30
0.0
  11
 165.529
  21
 196.000
  31
0.0
   0
LINE
   8
LEVEL003
   6
CONTINUOUS
  62
3
  10
 165.000
  20
 193.000
  30
0.0
  11
 164.471
  21
 196.000
  31
0.0
   0
TEXT
   8
LEVEL003
  62
3
  10
 164.200
  20
 209.000
  30
0.0
  40
 4.00000
   1
40
  50
 90.0000
   7
STANDARD
  72
1
  11
 164.200
  21
 213.000
  31
0.0
   0
LINE
   8
LEVEL003
   6
CONTINUOUS
  62
3
  10
 110.000
  20
 213.000
  30
0.0
  11
 110.000
  21
 213.000
  31
0.0
   0
LINE
   8
LEVEL003
   6
CONTINUOUS
  62
3
  10
 114.250
  20
 228.000
  30
0.0
  11
 108.000
  21
 228.000
  31
0.0
   0
LINE
   8
LEVEL003
   6
CONTINUOUS
  62
3
  10
 110.000
  20
 213.000
  30
0.0
  11
 110.000
  21
 228.000
  31
0.0
   0
LINE
   8
LEVEL003
   6
CONTINUOUS
  62
3
  10
 110.000
  20
 213.000
  30
0.0
  11
 110.529
  21
 216.000
  31
0.0
   0
LINE
   8
LEVEL003
   6
CONTINUOUS
  62
3
  10
 110.000
  20
 213.000
  30
0.0
  11
 109.471
  21
 216.000
  31
0.0
   0
LINE
   8
LEVEL003
   6
CONTINUOUS
  62
3
  10
 110.000
  20
 228.000
  30
0.0
  11
 109.471
  21
 225.000
  31
0.0
   0
LINE
   8
LEVEL003
   6
CONTINUOUS
  62
3
  10
 110.000
  20
 228.000
  30
0.0
  11
 110.529
  21
 225.000
  31
0.0
   0
TEXT
   8
LEVEL003
  62
3
  10
 109.200
  20
 216.500
  30
0.0
  40
 4.00000
   1
15
  50
 90.0000
   7
STANDARD
  72
1
  11
 109.200
  21
 220.500
  31
0.0
   0
LINE
   8
LEVEL003
   6
CONTINUOUS
  62
3
  10
 110.000
  20
 236.000
  30
0.0
  11
 110.000
  21
 236.000
  31
0.0
   0
LINE
   8
LEVEL003
   6
CONTINUOUS
  62
3
  10
 114.250
  20
 228.000
  30
0.0
  11
 108.000
  21
 228.000
  31
0.0
   0
LINE
   8
LEVEL003
   6
CONTINUOUS
  62
3
  10
 110.000
  20
 236.000
  30
0.0
  11
 110.000
  21
 228.000
  31
0.0
   0
LINE
   8
LEVEL003
   6
CONTINUOUS
  62
3
  10
 110.000
  20
 236.000
  30
0.0
  11
 110.529
  21
 239.000
  31
0.0
   0
LINE
   8
LEVEL003
   6
CONTINUOUS
  62
3
  10
 110.000
  20
 236.000
  30
0.0
  11
 109.471
  21
 239.000
  31
0.0
   0
LINE
   8
LEVEL003
   6
CONTINUOUS
  62
3
  10
 110.000
  20
 228.000
  30
0.0
  11
 109.471
  21
 225.000
  31
0.0
   0
LINE
   8
LEVEL003
   6
CONTINUOUS
  62
3
  10
 110.000
  20
 228.000
  30
0.0
  11
 110.529
  21
 225.000
  31
0.0
   0
LINE
   8
LEVEL003
   6
CONTINUOUS
  62
3
  10
 110.000
  20
 236.000
  30
0.0
  11
 110.000
  21
 239.750
  31
0.0
   0
LINE
   8
LEVEL003
   6
CONTINUOUS
  62
3
  10
 110.000
  20
 228.000
  30
0.0
  11
 110.000
  21
 224.250
  31
0.0
   0
TEXT
   8
LEVEL003
  62
3
  10
 109.200
  20
 230.000
  30
0.0
  40
 4.00000
   1
8
  50
 90.0000
   7
STANDARD
  72
1
  11
 109.200
  21
 232.000
  31
0.0
   0
ENDSEC
   0
EOF
