   0
SECTION
   2
HEADER
   9
$LIMMIN
  10
0.0
  20
0.0
   9
$LIMMAX
  10
 630.000
  20
 594.000
   9
$EXTMIN
  10
0.0
  20
0.0
   9
$EXTMAX
  10
 630.000
  20
 594.000
   9
$LTSCALE
  40
 12.6000
   0
ENDSEC
   0
SECTION
   2
TABLES
  0
TABLE
  2
LTYPE
 70
    25
  0
LTYPE
  2
CONTINUOUS
 70
    64
  3
Solid line
 72
    65
 73
     0
 40
0.0
  0
LTYPE
  2
BORDER
 70
    64
  3
__ __ . __ __ . __ __ . __ __ . __ __ . __ __ .
 72
    65
 73
     6
 40
1.75
 49
0.5
 49
-0.25
 49
0.5
 49
-0.25
 49
0.0
 49
-0.25
  0
LTYPE
  2
BORDER2
 70
    64
  3
__.__.__.__.__.__.__.__.__.__.__.__.__.__.__.__
 72
    65
 73
     6
 40
0.875
 49
0.25
 49
-0.125
 49
0.25
 49
-0.125
 49
0.0
 49
-0.125
  0
LTYPE
  2
BORDERX2
 70
    64
  3
____  ____  .  ____  ____  .  ____  ____  .  __
 72
    65
 73
     6
 40
3.5
 49
1.0
 49
-0.5
 49
1.0
 49
-0.5
 49
0.0
 49
-0.5
  0
LTYPE
  2
CENTER
 70
    64
  3
____ _ ____ _ ____ _ ____ _ ____ _ ____ _ ____ 
 72
    65
 73
     4
 40
2.0
 49
1.25
 49
-0.25
 49
0.25
 49
-0.25
  0
LTYPE
  2
CENTER2
 70
    64
  3
___ _ ___ _ ___ _ ___ _ ___ _ ___ _ ___ _ ___ _
 72
    65
 73
     4
 40
1.125
 49
0.75
 49
-0.125
 49
0.125
 49
-0.125
  0
LTYPE
  2
CENTERX2
 70
    64
  3
________  __  ________  __  ________  __  _____
 72
    65
 73
     4
 40
4.0
 49
2.5
 49
-0.5
 49
0.5
 49
-0.5
  0
LTYPE
  2
DASHDOT
 70
    64
  3
__ . __ . __ . __ . __ . __ . __ . __ . __ . __
 72
    65
 73
     4
 40
1.0
 49
0.5
 49
-0.25
 49
0.0
 49
-0.25
  0
LTYPE
  2
DASHDOT2
 70
    64
  3
_._._._._._._._._._._._._._._._._._._._._._._._
 72
    65
 73
     4
 40
0.5
 49
0.25
 49
-0.125
 49
0.0
 49
-0.125
  0
LTYPE
  2
DASHDOTX2
 70
    64
  3
____  .  ____  .  ____  .  ____  .  ____  .  __
 72
    65
 73
     4
 40
2.0
 49
1.0
 49
-0.5
 49
0.0
 49
-0.5
  0
LTYPE
  2
DASHED
 70
    64
  3
__ __ __ __ __ __ __ __ __ __ __ __ __ __ __ __
 72
    65
 73
     2
 40
0.75
 49
0.5
 49
-0.25
  0
LTYPE
  2
DASHED2
 70
    64
  3
_ _ _ _ _ _ _ _ _ _ _ _ _ _ _ _ _ _ _ _ _ _ _ _
 72
    65
 73
     2
 40
0.375
 49
0.25
 49
-0.125
  0
LTYPE
  2
DASHEDX2
 70
    64
  3
____  ____  ____  ____  ____  ____  ____  ____ 
 72
    65
 73
     2
 40
1.5
 49
1.0
 49
-0.5
  0
LTYPE
  2
DIVIDE
 70
    64
  3
____ . . ____ . . ____ . . ____ . . ____ . . __
 72
    65
 73
     6
 40
1.25
 49
0.5
 49
-0.25
 49
0.0
 49
-0.25
 49
0.0
 49
-0.25
  0
LTYPE
  2
DIVIDE2
 70
    64
  3
__..__..__..__..__..__..__..__..__..__..__..__.
 72
    65
 73
     6
 40
0.625
 49
0.25
 49
-0.125
 49
0.0
 49
-0.125
 49
0.0
 49
-0.125
  0
LTYPE
  2
DIVIDEX2
 70
    64
  3
________  .  .  ________  .  .  ________  .  . 
 72
    65
 73
     6
 40
2.5
 49
1.0
 49
-0.5
 49
0.0
 49
-0.5
 49
0.0
 49
-0.5
  0
LTYPE
  2
DOT
 70
    64
  3
. . . . . . . . . . . . . . . . . . . . . . . .
 72
    65
 73
     2
 40
0.25
 49
0.0
 49
-0.25
  0
LTYPE
  2
DOT2
 70
    64
  3
...............................................
 72
    65
 73
     2
 40
0.125
 49
0.0
 49
-0.125
  0
LTYPE
  2
DOTX2
 70
    64
  3
.  .  .  .  .  .  .  .  .  .  .  .  .  .  .  . 
 72
    65
 73
     2
 40
0.5
 49
0.0
 49
-0.5
  0
LTYPE
  2
HIDDEN
 70
    64
  3
__ __ __ __ __ __ __ __ __ __ __ __ __ __ __ __
 72
    65
 73
     2
 40
0.375
 49
0.25
 49
-0.125
  0
LTYPE
  2
HIDDEN2
 70
    64
  3
_ _ _ _ _ _ _ _ _ _ _ _ _ _ _ _ _ _ _ _ _ _ _ _
 72
    65
 73
     2
 40
0.1875
 49
0.125
 49
-0.0625
  0
LTYPE
  2
HIDDENX2
 70
    64
  3
____ ____ ____ ____ ____ ____ ____ ____ ____ __
 72
    65
 73
     2
 40
0.75
 49
0.5
 49
-0.25
  0
LTYPE
  2
PHANTOM
 70
    64
  3
______  __  __  ______  __  __  ______  __  __ 
 72
    65
 73
     6
 40
2.5
 49
1.25
 49
-0.25
 49
0.25
 49
-0.25
 49
0.25
 49
-0.25
  0
LTYPE
  2
PHANTOM2
 70
    64
  3
___ _ _ ___ _ _ ___ _ _ ___ _ _ ___ _ _ ___ _ _
 72
    65
 73
     6
 40
1.25
 49
0.625
 49
-0.125
 49
0.125
 49
-0.125
 49
0.125
 49
-0.125
  0
LTYPE
  2
PHANTOMX2
 70
    64
  3
____________    ____    ____    ____________   
 72
    65
 73
     6
 40
5.0
 49
2.5
 49
-0.5
 49
0.5
 49
-0.5
 49
0.5
 49
-0.5
  0
ENDTAB
  0
TABLE
  2
STYLE
 70
     2
  0
STYLE
  2
STANDARD
 70
0
 40
0.0
 41
1.0
 50
0.0
 71
0
 42
0.2
  3
TXT
  4
BIGFONT
  0
STYLE
  2
STANDARD1
 70
     4
 40
0.0
 41
1.0
 50
0.0
 71
     0
 42
0.2
  3
TXT
  4
BIGFONT
  0
ENDTAB
   0
TABLE
   2
LAYER
  70
4
   0
LAYER
   2
0
  70
0
  62
7
   6
CONTINUOUS
   0
LAYER
   2
LEVEL001
  70
0
  62
7
   6
CONTINUOUS
   0
LAYER
   2
LEVEL003
  70
0
  62
7
   6
CONTINUOUS
   0
LAYER
   2
LEVEL004
  70
0
  62
7
   6
CONTINUOUS
   0
ENDTAB
   0
ENDSEC
   0
SECTION
   2
ENTITIES
   0
LINE
   8
LEVEL001
   6
CONTINUOUS
  62
7
  10
 150.000
  20
 64.6188
  30
0.0
  11
 154.000
  21
 62.3094
  31
0.0
   0
LINE
   8
LEVEL001
   6
CONTINUOUS
  62
7
  10
 154.000
  20
 62.3094
  30
0.0
  11
 154.000
  21
 57.6906
  31
0.0
   0
LINE
   8
LEVEL001
   6
CONTINUOUS
  62
7
  10
 154.000
  20
 57.6906
  30
0.0
  11
 150.000
  21
 55.3812
  31
0.0
   0
LINE
   8
LEVEL001
   6
CONTINUOUS
  62
7
  10
 150.000
  20
 55.3812
  30
0.0
  11
 146.000
  21
 57.6906
  31
0.0
   0
LINE
   8
LEVEL001
   6
CONTINUOUS
  62
7
  10
 146.000
  20
 57.6906
  30
0.0
  11
 146.000
  21
 62.3094
  31
0.0
   0
LINE
   8
LEVEL001
   6
CONTINUOUS
  62
7
  10
 146.000
  20
 62.3094
  30
0.0
  11
 150.000
  21
 64.6188
  31
0.0
   0
CIRCLE
   8
LEVEL001
   6
CONTINUOUS
  62
7
  10
 150.000
  20
 60.0000
  30
0.0
  40
 8.33100
   0
CIRCLE
   8
LEVEL001
   6
CONTINUOUS
  62
3
  10
 150.000
  20
 60.0000
  30
0.0
  40
 7.47500
   0
CIRCLE
   8
LEVEL001
   6
CONTINUOUS
  62
7
  10
 150.000
  20
 60.0000
  30
0.0
  40
 42.5000
   0
CIRCLE
   8
LEVEL001
   6
CONTINUOUS
  62
7
  10
 150.000
  20
 60.0000
  30
0.0
  40
 41.5000
   0
CIRCLE
   8
LEVEL001
   6
CONTINUOUS
  62
7
  10
 150.000
  20
 60.0000
  30
0.0
  40
 9.83093
   0
LINE
   8
LEVEL001
   6
DASHDOT
  62
1
  10
 150.000
  20
 108.195
  30
0.0
  11
 150.000
  21
 11.8050
  31
0.0
   0
LINE
   8
LEVEL001
   6
CONTINUOUS
  62
3
  10
 198.884
  20
 67.5000
  30
0.0
  11
 198.884
  21
 52.5000
  31
0.0
   0
LINE
   8
LEVEL001
   6
CONTINUOUS
  62
7
  10
 202.500
  20
 67.5000
  30
0.0
  11
 202.500
  21
 52.5000
  31
0.0
   0
LINE
   8
LEVEL001
   6
CONTINUOUS
  62
7
  10
 203.984
  20
 52.5000
  30
0.0
  11
 203.984
  21
 67.5000
  31
0.0
   0
LINE
   8
LEVEL001
   6
CONTINUOUS
  62
7
  10
 198.500
  20
 68.5185
  30
0.0
  11
 192.500
  21
 68.3310
  31
0.0
   0
LINE
   8
LEVEL001
   6
CONTINUOUS
  62
3
  10
 198.500
  20
 67.6625
  30
0.0
  11
 192.500
  21
 67.4750
  31
0.0
   0
LINE
   8
LEVEL001
   6
CONTINUOUS
  62
3
  10
 198.495
  20
 52.3376
  30
0.0
  11
 192.500
  21
 52.5250
  31
0.0
   0
LINE
   8
LEVEL001
   6
CONTINUOUS
  62
7
  10
 198.500
  20
 51.4815
  30
0.0
  11
 192.500
  21
 51.6690
  31
0.0
   0
CIRCLE
   8
LEVEL001
   6
CONTINUOUS
  62
7
  10
 130.555
  20
 79.4454
  30
0.0
  40
 4.25000
   0
CIRCLE
   8
LEVEL001
   6
CONTINUOUS
  62
3
  10
 130.555
  20
 79.4454
  30
0.0
  40
 5.00000
   0
LINE
   8
LEVEL001
   6
DASHDOT
  62
1
  10
 124.898
  20
 85.1023
  30
0.0
  11
 136.211
  21
 73.7886
  31
0.0
   0
CIRCLE
   8
LEVEL001
   6
CONTINUOUS
  62
7
  10
 169.445
  20
 79.4454
  30
0.0
  40
 4.25000
   0
CIRCLE
   8
LEVEL001
   6
CONTINUOUS
  62
3
  10
 169.445
  20
 79.4454
  30
0.0
  40
 5.00000
   0
LINE
   8
LEVEL001
   6
DASHDOT
  62
1
  10
 175.102
  20
 85.1023
  30
0.0
  11
 163.789
  21
 73.7886
  31
0.0
   0
CIRCLE
   8
LEVEL001
   6
CONTINUOUS
  62
7
  10
 130.555
  20
 40.5546
  30
0.0
  40
 4.25000
   0
CIRCLE
   8
LEVEL001
   6
CONTINUOUS
  62
3
  10
 130.555
  20
 40.5546
  30
0.0
  40
 5.00000
   0
LINE
   8
LEVEL001
   6
DASHDOT
  62
1
  10
 124.898
  20
 34.8977
  30
0.0
  11
 136.211
  21
 46.2114
  31
0.0
   0
CIRCLE
   8
LEVEL001
   6
CONTINUOUS
  62
7
  10
 169.445
  20
 40.5546
  30
0.0
  40
 4.25000
   0
CIRCLE
   8
LEVEL001
   6
CONTINUOUS
  62
3
  10
 169.445
  20
 40.5546
  30
0.0
  40
 5.00000
   0
LINE
   8
LEVEL001
   6
DASHDOT
  62
1
  10
 175.102
  20
 34.8977
  30
0.0
  11
 163.789
  21
 46.2114
  31
0.0
   0
CIRCLE
   8
LEVEL001
   6
DASHDOT
  62
1
  10
 150.000
  20
 60.0000
  30
0.0
  40
 27.5000
   0
ARC
   8
LEVEL001
   6
CONTINUOUS
  62
7
  10
 221.000
  20
 73.0000
  30
0.0
  40
 1.50000
  50
 90.0000
  51
 180.000
   0
LINE
   8
LEVEL001
   6
CONTINUOUS
  62
7
  10
 221.000
  20
 74.5000
  30
0.0
  11
 226.000
  21
 74.5000
  31
0.0
   0
ARC
   8
LEVEL001
   6
CONTINUOUS
  62
7
  10
 221.000
  20
 47.0000
  30
0.0
  40
 1.50000
  50
 180.000
  51
 270.000
   0
LINE
   8
LEVEL001
   6
CONTINUOUS
  62
7
  10
 219.500
  20
 47.0000
  30
0.0
  11
 219.500
  21
 73.0000
  31
0.0
   0
LINE
   8
LEVEL001
   6
CONTINUOUS
  62
7
  10
 221.000
  20
 45.5000
  30
0.0
  11
 226.000
  21
 45.5000
  31
0.0
   0
ARC
   8
LEVEL001
   6
CONTINUOUS
  62
7
  10
 242.000
  20
 73.0000
  30
0.0
  40
 1.50000
  50
0.0
  51
 90.0000
   0
LINE
   8
LEVEL001
   6
CONTINUOUS
  62
7
  10
 237.000
  20
 74.5000
  30
0.0
  11
 242.000
  21
 74.5000
  31
0.0
   0
ARC
   8
LEVEL001
   6
CONTINUOUS
  62
7
  10
 242.000
  20
 47.0000
  30
0.0
  40
 1.50000
  50
 270.000
  51
0.0
   0
LINE
   8
LEVEL001
   6
CONTINUOUS
  62
7
  10
 237.000
  20
 45.5000
  30
0.0
  11
 242.000
  21
 45.5000
  31
0.0
   0
LINE
   8
LEVEL001
   6
CONTINUOUS
  62
7
  10
 243.500
  20
 73.0000
  30
0.0
  11
 243.500
  21
 47.0000
  31
0.0
   0
ARC
   8
LEVEL001
   6
DASHDOT
  62
1
  10
 252.500
  20
 73.0000
  30
0.0
  40
 1.00000
  50
0.0
  51
 90.0000
   0
LINE
   8
LEVEL001
   6
DASHDOT
  62
1
  10
 244.500
  20
 74.0000
  30
0.0
  11
 252.500
  21
 74.0000
  31
0.0
   0
ARC
   8
LEVEL001
   6
DASHDOT
  62
1
  10
 252.500
  20
 47.0000
  30
0.0
  40
 1.00000
  50
 270.000
  51
 0.244267E-11
   0
LINE
   8
LEVEL001
   6
DASHDOT
  62
1
  10
 244.500
  20
 46.0000
  30
0.0
  11
 252.500
  21
 46.0000
  31
0.0
   0
LINE
   8
LEVEL001
   6
DASHDOT
  62
1
  10
 253.500
  20
 73.0000
  30
0.0
  11
 253.500
  21
 47.0000
  31
0.0
   0
ARC
   8
LEVEL001
   6
DASHDOT
  62
1
  10
 244.500
  20
 47.0000
  30
0.0
  40
 1.00000
  50
 180.000
  51
 270.000
   0
ARC
   8
LEVEL001
   6
DASHDOT
  62
1
  10
 244.500
  20
 73.0000
  30
0.0
  40
 1.00000
  50
 90.0000
  51
 180.000
   0
LINE
   8
LEVEL001
   6
CONTINUOUS
  62
3
  10
 226.000
  20
 47.0000
  30
0.0
  11
 237.000
  21
 47.0000
  31
0.0
   0
LINE
   8
LEVEL001
   6
CONTINUOUS
  62
3
  10
 226.000
  20
 49.0000
  30
0.0
  11
 237.000
  21
 49.0000
  31
0.0
   0
LINE
   8
LEVEL001
   6
CONTINUOUS
  62
3
  10
 226.000
  20
 51.0000
  30
0.0
  11
 237.000
  21
 51.0000
  31
0.0
   0
LINE
   8
LEVEL001
   6
CONTINUOUS
  62
3
  10
 226.000
  20
 53.0000
  30
0.0
  11
 237.000
  21
 53.0000
  31
0.0
   0
LINE
   8
LEVEL001
   6
CONTINUOUS
  62
3
  10
 226.000
  20
 55.0000
  30
0.0
  11
 237.000
  21
 55.0000
  31
0.0
   0
LINE
   8
LEVEL001
   6
CONTINUOUS
  62
3
  10
 226.000
  20
 57.0000
  30
0.0
  11
 237.000
  21
 57.0000
  31
0.0
   0
LINE
   8
LEVEL001
   6
CONTINUOUS
  62
3
  10
 226.000
  20
 59.0000
  30
0.0
  11
 237.000
  21
 59.0000
  31
0.0
   0
LINE
   8
LEVEL001
   6
CONTINUOUS
  62
3
  10
 226.000
  20
 61.0000
  30
0.0
  11
 237.000
  21
 61.0000
  31
0.0
   0
LINE
   8
LEVEL001
   6
CONTINUOUS
  62
3
  10
 226.000
  20
 63.0000
  30
0.0
  11
 237.000
  21
 63.0000
  31
0.0
   0
LINE
   8
LEVEL001
   6
CONTINUOUS
  62
3
  10
 226.000
  20
 65.0000
  30
0.0
  11
 237.000
  21
 65.0000
  31
0.0
   0
LINE
   8
LEVEL001
   6
CONTINUOUS
  62
3
  10
 226.000
  20
 67.0000
  30
0.0
  11
 237.000
  21
 67.0000
  31
0.0
   0
LINE
   8
LEVEL001
   6
CONTINUOUS
  62
3
  10
 226.000
  20
 69.0000
  30
0.0
  11
 237.000
  21
 69.0000
  31
0.0
   0
LINE
   8
LEVEL001
   6
CONTINUOUS
  62
3
  10
 226.000
  20
 71.0000
  30
0.0
  11
 237.000
  21
 71.0000
  31
0.0
   0
LINE
   8
LEVEL001
   6
CONTINUOUS
  62
3
  10
 226.000
  20
 73.0000
  30
0.0
  11
 237.000
  21
 73.0000
  31
0.0
   0
LINE
   8
LEVEL001
   6
DASHDOT
  62
1
  10
 253.500
  20
 62.0000
  30
0.0
  11
 259.500
  21
 62.0000
  31
0.0
   0
LINE
   8
LEVEL001
   6
DASHDOT
  62
1
  10
 259.500
  20
 62.0000
  30
0.0
  11
 259.500
  21
 58.0000
  31
0.0
   0
LINE
   8
LEVEL001
   6
DASHDOT
  62
1
  10
 259.500
  20
 58.0000
  30
0.0
  11
 253.500
  21
 58.0000
  31
0.0
   0
LINE
   8
LEVEL001
   6
CONTINUOUS
  62
7
  10
 198.500
  20
 68.5185
  30
0.0
  11
 198.500
  21
 67.5000
  31
0.0
   0
LINE
   8
LEVEL001
   6
CONTINUOUS
  62
7
  10
 198.500
  20
 67.5000
  30
0.0
  11
 212.500
  21
 67.5000
  31
0.0
   0
LINE
   8
LEVEL001
   6
CONTINUOUS
  62
7
  10
 212.500
  20
 67.5000
  30
0.0
  11
 212.500
  21
 69.5000
  31
0.0
   0
LINE
   8
LEVEL001
   6
CONTINUOUS
  62
7
  10
 212.500
  20
 69.5000
  30
0.0
  11
 219.500
  21
 69.5000
  31
0.0
   0
LINE
   8
LEVEL001
   6
CONTINUOUS
  62
7
  10
 198.500
  20
 51.4815
  30
0.0
  11
 198.500
  21
 52.5000
  31
0.0
   0
LINE
   8
LEVEL001
   6
CONTINUOUS
  62
7
  10
 198.500
  20
 52.5000
  30
0.0
  11
 212.500
  21
 52.5000
  31
0.0
   0
LINE
   8
LEVEL001
   6
CONTINUOUS
  62
7
  10
 212.500
  20
 52.5000
  30
0.0
  11
 212.500
  21
 50.5000
  31
0.0
   0
LINE
   8
LEVEL001
   6
CONTINUOUS
  62
7
  10
 212.500
  20
 50.5000
  30
0.0
  11
 219.500
  21
 50.5000
  31
0.0
   0
LINE
   8
LEVEL001
   6
CONTINUOUS
  62
7
  10
 226.000
  20
 45.0000
  30
0.0
  11
 226.000
  21
 75.0000
  31
0.0
   0
LINE
   8
LEVEL001
   6
CONTINUOUS
  62
7
  10
 226.000
  20
 75.0000
  30
0.0
  11
 237.000
  21
 75.0000
  31
0.0
   0
LINE
   8
LEVEL001
   6
CONTINUOUS
  62
7
  10
 237.000
  20
 75.0000
  30
0.0
  11
 237.000
  21
 45.0000
  31
0.0
   0
LINE
   8
LEVEL001
   6
CONTINUOUS
  62
7
  10
 237.000
  20
 45.0000
  30
0.0
  11
 226.000
  21
 45.0000
  31
0.0
   0
LINE
   8
LEVEL001
   6
DASHDOT
  62
1
  10
 262.500
  20
 60.0000
  30
0.0
  11
 101.805
  21
 60.0000
  31
0.0
   0
TEXT
   8
LEVEL003
  62
3
  10
 210.000
  20
 127.500
  30
0.0
  40
 6.00000
   1
ＮＰＴ３／８
   7
STANDARD
   0
LINE
   8
LEVEL003
   6
CONTINUOUS
  62
3
  10
 195.793
  20
 156.066
  30
0.0
  11
 210.000
  21
 127.500
  31
0.0
   0
LINE
   8
LEVEL003
   6
CONTINUOUS
  62
3
  10
 195.793
  20
 156.066
  30
0.0
  11
 197.086
  21
 151.684
  31
0.0
   0
LINE
   8
LEVEL003
   6
CONTINUOUS
  62
3
  10
 195.793
  20
 156.066
  30
0.0
  11
 198.507
  21
 152.390
  31
0.0
   0
LINE
   8
LEVEL003
   6
CONTINUOUS
  62
3
  10
 122.500
  20
 138.000
  30
0.0
  11
 122.500
  21
 124.500
  31
0.0
   0
LINE
   8
LEVEL003
   6
CONTINUOUS
  62
3
  10
 177.500
  20
 138.000
  30
0.0
  11
 177.500
  21
 124.500
  31
0.0
   0
LINE
   8
LEVEL003
   6
CONTINUOUS
  62
3
  10
 122.500
  20
 127.500
  30
0.0
  11
 177.500
  21
 127.500
  31
0.0
   0
LINE
   8
LEVEL003
   6
CONTINUOUS
  62
3
  10
 122.500
  20
 127.500
  30
0.0
  11
 127.000
  21
 126.707
  31
0.0
   0
LINE
   8
LEVEL003
   6
CONTINUOUS
  62
3
  10
 122.500
  20
 127.500
  30
0.0
  11
 127.000
  21
 128.293
  31
0.0
   0
LINE
   8
LEVEL003
   6
CONTINUOUS
  62
3
  10
 177.500
  20
 127.500
  30
0.0
  11
 173.000
  21
 128.293
  31
0.0
   0
LINE
   8
LEVEL003
   6
CONTINUOUS
  62
3
  10
 177.500
  20
 127.500
  30
0.0
  11
 173.000
  21
 126.707
  31
0.0
   0
TEXT
   8
LEVEL003
  62
3
  10
 144.000
  20
 128.700
  30
0.0
  40
 6.00000
   1
%%c55
   7
STANDARD
  72
1
  11
 150.000
  21
 128.700
  31
0.0
   0
LINE
   8
LEVEL001
   6
CONTINUOUS
  62
3
  10
 202.500
  20
 155.856
  30
0.0
  11
 198.884
  21
 156.826
  31
0.0
   0
LINE
   8
LEVEL001
   6
CONTINUOUS
  62
7
  10
 202.500
  20
 155.856
  30
0.0
  11
 203.984
  21
 155.000
  31
0.0
   0
LINE
   8
LEVEL001
   6
CONTINUOUS
  62
7
  10
 219.500
  20
 155.000
  30
0.0
  11
 203.984
  21
 155.000
  31
0.0
   0
ARC
   8
LEVEL001
   6
CONTINUOUS
  62
7
  10
 221.000
  20
 151.500
  30
0.0
  40
 1.50000
  50
 180.000
  51
 270.000
   0
LINE
   8
LEVEL001
   6
CONTINUOUS
  62
7
  10
 219.500
  20
 151.500
  30
0.0
  11
 219.500
  21
 177.500
  31
0.0
   0
LINE
   8
LEVEL001
   6
CONTINUOUS
  62
7
  10
 221.000
  20
 150.000
  30
0.0
  11
 226.000
  21
 150.000
  31
0.0
   0
ARC
   8
LEVEL001
   6
CONTINUOUS
  62
7
  10
 242.000
  20
 151.500
  30
0.0
  40
 1.50000
  50
 270.000
  51
0.0
   0
LINE
   8
LEVEL001
   6
CONTINUOUS
  62
7
  10
 237.000
  20
 150.000
  30
0.0
  11
 242.000
  21
 150.000
  31
0.0
   0
LINE
   8
LEVEL001
   6
CONTINUOUS
  62
7
  10
 243.500
  20
 177.500
  30
0.0
  11
 243.500
  21
 151.500
  31
0.0
   0
ARC
   8
LEVEL001
   6
DASHDOT
  62
1
  10
 252.500
  20
 151.500
  30
0.0
  40
 1.00000
  50
 270.000
  51
0.0
   0
LINE
   8
LEVEL001
   6
DASHDOT
  62
1
  10
 244.500
  20
 150.500
  30
0.0
  11
 252.500
  21
 150.500
  31
0.0
   0
LINE
   8
LEVEL001
   6
DASHDOT
  62
1
  10
 253.500
  20
 177.500
  30
0.0
  11
 253.500
  21
 151.500
  31
0.0
   0
CIRCLE
   8
LEVEL001
   6
DASHDOT
  62
1
  10
 256.500
  20
 164.500
  30
0.0
  40
 1.50000
   0
ARC
   8
LEVEL001
   6
DASHDOT
  62
1
  10
 244.500
  20
 151.500
  30
0.0
  40
 1.00000
  50
 180.001
  51
 270.000
   0
ARC
   8
LEVEL001
   6
DASHDOT
  62
1
  10
 255.500
  20
 159.000
  30
0.0
  40
 2.00000
  50
 90.0002
  51
 180.000
   0
LINE
   8
LEVEL001
   6
DASHDOT
  62
1
  10
 255.500
  20
 161.000
  30
0.0
  11
 256.000
  21
 161.000
  31
0.0
   0
ARC
   8
LEVEL001
   6
DASHDOT
  62
1
  10
 255.993
  20
 164.500
  30
0.0
  40
 3.50000
  50
 270.121
  51
 89.8785
   0
LINE
   8
LEVEL001
   6
CONTINUOUS
  62
7
  10
 203.984
  20
 155.000
  30
0.0
  11
 203.984
  21
 158.669
  31
0.0
   0
LINE
   8
LEVEL001
   6
CONTINUOUS
  62
7
  10
 198.500
  20
 160.461
  30
0.0
  11
 212.500
  21
 170.331
  31
0.0
   0
LINE
   8
LEVEL001
   6
CONTINUOUS
  62
7
  10
 198.500
  20
 168.539
  30
0.0
  11
 212.500
  21
 158.669
  31
0.0
   0
LINE
   8
LEVEL001
   6
CONTINUOUS
  62
3
  10
 198.884
  20
 160.461
  30
0.0
  11
 198.884
  21
 156.826
  31
0.0
   0
LINE
   8
LEVEL001
   6
CONTINUOUS
  62
7
  10
 202.500
  20
 160.203
  30
0.0
  11
 202.500
  21
 155.856
  31
0.0
   0
LINE
   8
LEVEL001
   6
CONTINUOUS
  62
3
  10
 226.000
  20
 151.500
  30
0.0
  11
 237.000
  21
 151.500
  31
0.0
   0
LINE
   8
LEVEL001
   6
CONTINUOUS
  62
3
  10
 226.000
  20
 153.500
  30
0.0
  11
 237.000
  21
 153.500
  31
0.0
   0
LINE
   8
LEVEL001
   6
CONTINUOUS
  62
3
  10
 226.000
  20
 155.500
  30
0.0
  11
 237.000
  21
 155.500
  31
0.0
   0
LINE
   8
LEVEL001
   6
CONTINUOUS
  62
3
  10
 226.000
  20
 157.500
  30
0.0
  11
 237.000
  21
 157.500
  31
0.0
   0
LINE
   8
LEVEL001
   6
CONTINUOUS
  62
3
  10
 226.000
  20
 159.500
  30
0.0
  11
 237.000
  21
 159.500
  31
0.0
   0
LINE
   8
LEVEL001
   6
CONTINUOUS
  62
3
  10
 226.000
  20
 161.500
  30
0.0
  11
 237.000
  21
 161.500
  31
0.0
   0
LINE
   8
LEVEL001
   6
CONTINUOUS
  62
3
  10
 226.000
  20
 163.500
  30
0.0
  11
 237.000
  21
 163.500
  31
0.0
   0
LINE
   8
LEVEL001
   6
CONTINUOUS
  62
7
  10
 198.500
  20
 160.461
  30
0.0
  11
 198.500
  21
 168.539
  31
0.0
   0
LINE
   8
LEVEL001
   6
CONTINUOUS
  62
7
  10
 198.500
  20
 168.539
  30
0.0
  11
 202.500
  21
 168.797
  31
0.0
   0
LINE
   8
LEVEL001
   6
CONTINUOUS
  62
7
  10
 202.500
  20
 168.797
  30
0.0
  11
 203.984
  21
 170.331
  31
0.0
   0
LINE
   8
LEVEL001
   6
CONTINUOUS
  62
7
  10
 203.984
  20
 170.331
  30
0.0
  11
 212.500
  21
 170.331
  31
0.0
   0
LINE
   8
LEVEL001
   6
CONTINUOUS
  62
7
  10
 212.500
  20
 170.331
  30
0.0
  11
 212.500
  21
 158.669
  31
0.0
   0
LINE
   8
LEVEL001
   6
CONTINUOUS
  62
7
  10
 212.500
  20
 158.669
  30
0.0
  11
 203.984
  21
 158.669
  31
0.0
   0
LINE
   8
LEVEL001
   6
CONTINUOUS
  62
7
  10
 203.984
  20
 158.669
  30
0.0
  11
 202.500
  21
 160.203
  31
0.0
   0
LINE
   8
LEVEL001
   6
CONTINUOUS
  62
7
  10
 202.500
  20
 160.203
  30
0.0
  11
 198.500
  21
 160.461
  31
0.0
   0
LINE
   8
LEVEL001
   6
CONTINUOUS
  62
7
  10
 226.000
  20
 149.500
  30
0.0
  11
 226.000
  21
 179.500
  31
0.0
   0
LINE
   8
LEVEL001
   6
CONTINUOUS
  62
7
  10
 226.000
  20
 179.500
  30
0.0
  11
 237.000
  21
 179.500
  31
0.0
   0
LINE
   8
LEVEL001
   6
CONTINUOUS
  62
7
  10
 237.000
  20
 179.500
  30
0.0
  11
 237.000
  21
 149.500
  31
0.0
   0
LINE
   8
LEVEL001
   6
CONTINUOUS
  62
7
  10
 237.000
  20
 149.500
  30
0.0
  11
 226.000
  21
 149.500
  31
0.0
   0
LINE
   8
LEVEL001
   6
CONTINUOUS
  62
3
  10
 202.500
  20
 173.144
  30
0.0
  11
 198.884
  21
 172.175
  31
0.0
   0
LINE
   8
LEVEL001
   6
CONTINUOUS
  62
7
  10
 202.500
  20
 173.144
  30
0.0
  11
 203.984
  21
 174.000
  31
0.0
   0
LINE
   8
LEVEL001
   6
CONTINUOUS
  62
7
  10
 219.500
  20
 174.000
  30
0.0
  11
 203.984
  21
 174.000
  31
0.0
   0
ARC
   8
LEVEL001
   6
CONTINUOUS
  62
7
  10
 221.000
  20
 177.500
  30
0.0
  40
 1.50000
  50
 90.0000
  51
 180.000
   0
ARC
   8
LEVEL001
   6
CONTINUOUS
  62
7
  10
 242.000
  20
 177.500
  30
0.0
  40
 1.50000
  50
0.0
  51
 90.0000
   0
ARC
   8
LEVEL001
   6
DASHDOT
  62
1
  10
 252.500
  20
 177.500
  30
0.0
  40
 1.00000
  50
 0.875970E-3
  51
 90.0004
   0
LINE
   8
LEVEL001
   6
DASHDOT
  62
1
  10
 244.500
  20
 178.500
  30
0.0
  11
 252.500
  21
 178.500
  31
0.0
   0
ARC
   8
LEVEL001
   6
DASHDOT
  62
1
  10
 244.500
  20
 177.500
  30
0.0
  40
 1.00000
  50
 89.9996
  51
 179.999
   0
ARC
   8
LEVEL001
   6
DASHDOT
  62
1
  10
 255.500
  20
 170.000
  30
0.0
  40
 2.00000
  50
 180.000
  51
 270.000
   0
LINE
   8
LEVEL001
   6
DASHDOT
  62
1
  10
 255.500
  20
 168.000
  30
0.0
  11
 256.000
  21
 168.000
  31
0.0
   0
LINE
   8
LEVEL001
   6
CONTINUOUS
  62
7
  10
 203.984
  20
 170.331
  30
0.0
  11
 203.984
  21
 174.000
  31
0.0
   0
LINE
   8
LEVEL001
   6
CONTINUOUS
  62
3
  10
 198.884
  20
 172.175
  30
0.0
  11
 198.884
  21
 168.539
  31
0.0
   0
LINE
   8
LEVEL001
   6
CONTINUOUS
  62
7
  10
 202.500
  20
 173.144
  30
0.0
  11
 202.500
  21
 168.797
  31
0.0
   0
LINE
   8
LEVEL001
   6
CONTINUOUS
  62
3
  10
 226.000
  20
 165.500
  30
0.0
  11
 237.000
  21
 165.500
  31
0.0
   0
LINE
   8
LEVEL001
   6
CONTINUOUS
  62
3
  10
 226.000
  20
 167.500
  30
0.0
  11
 237.000
  21
 167.500
  31
0.0
   0
LINE
   8
LEVEL001
   6
CONTINUOUS
  62
3
  10
 226.000
  20
 169.500
  30
0.0
  11
 237.000
  21
 169.500
  31
0.0
   0
LINE
   8
LEVEL001
   6
CONTINUOUS
  62
3
  10
 226.000
  20
 171.500
  30
0.0
  11
 237.000
  21
 171.500
  31
0.0
   0
LINE
   8
LEVEL001
   6
CONTINUOUS
  62
3
  10
 226.000
  20
 173.500
  30
0.0
  11
 237.000
  21
 173.500
  31
0.0
   0
LINE
   8
LEVEL001
   6
CONTINUOUS
  62
3
  10
 226.000
  20
 175.500
  30
0.0
  11
 237.000
  21
 175.500
  31
0.0
   0
LINE
   8
LEVEL001
   6
CONTINUOUS
  62
3
  10
 226.000
  20
 177.500
  30
0.0
  11
 237.000
  21
 177.500
  31
0.0
   0
LINE
   8
LEVEL001
   6
CONTINUOUS
  62
7
  10
 237.000
  20
 179.000
  30
0.0
  11
 242.000
  21
 179.000
  31
0.0
   0
LINE
   8
LEVEL001
   6
CONTINUOUS
  62
7
  10
 221.000
  20
 179.000
  30
0.0
  11
 226.000
  21
 179.000
  31
0.0
   0
LINE
   8
LEVEL003
   6
CONTINUOUS
  62
3
  10
 193.000
  20
 142.500
  30
0.0
  11
 310.500
  21
 142.500
  31
0.0
   0
LINE
   8
LEVEL003
   6
CONTINUOUS
  62
3
  10
 307.500
  20
 142.500
  30
0.0
  11
 308.293
  21
 147.000
  31
0.0
   0
LINE
   8
LEVEL003
   6
CONTINUOUS
  62
3
  10
 307.500
  20
 142.500
  30
0.0
  11
 306.707
  21
 147.000
  31
0.0
   0
LINE
   8
LEVEL003
   6
CONTINUOUS
  62
3
  10
 193.000
  20
 142.500
  30
0.0
  11
 280.500
  21
 142.500
  31
0.0
   0
LINE
   8
LEVEL003
   6
CONTINUOUS
  62
3
  10
 264.000
  20
 164.500
  30
0.0
  11
 280.500
  21
 164.500
  31
0.0
   0
LINE
   8
LEVEL003
   6
CONTINUOUS
  62
3
  10
 277.500
  20
 142.500
  30
0.0
  11
 277.500
  21
 164.500
  31
0.0
   0
LINE
   8
LEVEL003
   6
CONTINUOUS
  62
3
  10
 277.500
  20
 142.500
  30
0.0
  11
 278.293
  21
 147.000
  31
0.0
   0
LINE
   8
LEVEL003
   6
CONTINUOUS
  62
3
  10
 277.500
  20
 142.500
  30
0.0
  11
 276.707
  21
 147.000
  31
0.0
   0
LINE
   8
LEVEL003
   6
CONTINUOUS
  62
3
  10
 277.500
  20
 164.500
  30
0.0
  11
 276.707
  21
 160.000
  31
0.0
   0
LINE
   8
LEVEL003
   6
CONTINUOUS
  62
3
  10
 277.500
  20
 164.500
  30
0.0
  11
 278.293
  21
 160.000
  31
0.0
   0
TEXT
   8
LEVEL003
  62
3
  10
 276.300
  20
 150.500
  30
0.0
  40
 6.00000
   1
22
  50
 90.0000
  41
 0.500000
   7
STANDARD
  72
1
  11
 276.300
  21
 153.500
  31
0.0
   0
LINE
   8
LEVEL001
   6
CONTINUOUS
  62
7
  10
 107.500
  20
 143.500
  30
0.0
  11
 108.500
  21
 142.500
  31
0.0
   0
LINE
   8
LEVEL001
   6
CONTINUOUS
  62
7
  10
 108.500
  20
 142.500
  30
0.0
  11
 191.500
  21
 142.500
  31
0.0
   0
LINE
   8
LEVEL001
   6
CONTINUOUS
  62
7
  10
 192.500
  20
 143.500
  30
0.0
  11
 191.500
  21
 142.500
  31
0.0
   0
LINE
   8
LEVEL003
   6
CONTINUOUS
  62
3
  10
 122.500
  20
 142.500
  30
0.0
  11
 112.500
  21
 127.500
  31
0.0
   0
LINE
   8
LEVEL003
   6
CONTINUOUS
  62
3
  10
 122.500
  20
 142.500
  30
0.0
  11
 119.344
  21
 139.196
  31
0.0
   0
LINE
   8
LEVEL003
   6
CONTINUOUS
  62
3
  10
 122.500
  20
 142.500
  30
0.0
  11
 120.664
  21
 138.316
  31
0.0
   0
LINE
   8
LEVEL001
   6
DASHDOT
  62
1
  10
 262.500
  20
 164.500
  30
0.0
  11
 180.000
  21
 164.500
  31
0.0
   0
LINE
   8
LEVEL001
   6
CONTINUOUS
  62
7
  10
 202.500
  20
 173.144
  30
0.0
  11
 192.500
  21
 172.831
  31
0.0
   0
LINE
   8
LEVEL001
   6
CONTINUOUS
  62
7
  10
 202.500
  20
 155.856
  30
0.0
  11
 192.500
  21
 156.169
  31
0.0
   0
LINE
   8
LEVEL001
   6
CONTINUOUS
  62
3
  10
 198.884
  20
 156.826
  30
0.0
  11
 192.500
  21
 157.025
  31
0.0
   0
LINE
   8
LEVEL001
   6
CONTINUOUS
  62
3
  10
 198.884
  20
 172.175
  30
0.0
  11
 192.500
  21
 171.975
  31
0.0
   0
LINE
   8
LEVEL004
   6
DASHDOT
  62
1
  10
 122.500
  20
 139.500
  30
0.0
  11
 122.500
  21
 152.500
  31
0.0
   0
LINE
   8
LEVEL004
   6
DOT
  62
3
  10
 126.750
  20
 143.250
  30
0.0
  11
 118.250
  21
 143.250
  31
0.0
   0
LINE
   8
LEVEL004
   6
DOT
  62
3
  10
 127.500
  20
 142.500
  30
0.0
  11
 126.750
  21
 143.250
  31
0.0
   0
LINE
   8
LEVEL004
   6
DOT
  62
3
  10
 126.750
  20
 143.250
  30
0.0
  11
 126.750
  21
 152.500
  31
0.0
   0
LINE
   8
LEVEL004
   6
DOT
  62
3
  10
 118.250
  20
 152.500
  30
0.0
  11
 118.250
  21
 143.250
  31
0.0
   0
LINE
   8
LEVEL004
   6
DOT
  62
3
  10
 118.250
  20
 143.250
  30
0.0
  11
 117.500
  21
 142.500
  31
0.0
   0
LINE
   8
LEVEL004
   6
DOT
  62
3
  10
 127.500
  20
 142.500
  30
0.0
  11
 127.500
  21
 152.500
  31
0.0
   0
LINE
   8
LEVEL004
   6
DOT
  62
3
  10
 117.500
  20
 152.500
  30
0.0
  11
 117.500
  21
 142.500
  31
0.0
   0
LINE
   8
LEVEL004
   6
DASHDOT
  62
1
  10
 177.500
  20
 139.500
  30
0.0
  11
 177.500
  21
 152.500
  31
0.0
   0
LINE
   8
LEVEL001
   6
CONTINUOUS
  62
7
  10
 192.500
  20
 143.500
  30
0.0
  11
 107.500
  21
 143.500
  31
0.0
   0
TEXT
   8
LEVEL003
  62
7
  10
 291.691
  20
 20.2200
  30
0.0
  40
 10.0000
   1
ＯＳＡＫＡ ＪＡＣＫ
   7
STANDARD
   0
CIRCLE
   8
LEVEL003
   6
CONTINUOUS
  62
7
  10
 279.718
  20
 27.2707
  30
0.0
  40
 3.00000
   0
LINE
   8
LEVEL003
   6
CONTINUOUS
  62
7
  10
 285.606
  20
 30.2707
  30
0.0
  11
 281.797
  21
 23.6707
  31
0.0
   0
LINE
   8
LEVEL003
   6
CONTINUOUS
  62
7
  10
 281.797
  20
 23.6707
  30
0.0
  11
 274.176
  21
 23.6707
  31
0.0
   0
LINE
   8
LEVEL003
   6
CONTINUOUS
  62
7
  10
 273.309
  20
 22.1707
  30
0.0
  11
 286.930
  21
 22.1707
  31
0.0
   0
LINE
   8
LEVEL003
   6
CONTINUOUS
  62
7
  10
 286.930
  20
 22.1707
  30
0.0
  11
 291.606
  21
 30.2707
  31
0.0
   0
LINE
   8
LEVEL003
   6
CONTINUOUS
  62
7
  10
 291.606
  20
 30.2707
  30
0.0
  11
 285.606
  21
 30.2707
  31
0.0
   0
LINE
   8
LEVEL003
   6
CONTINUOUS
  62
7
  10
 274.176
  20
 23.6707
  30
0.0
  11
 273.309
  21
 22.1707
  31
0.0
   0
TEXT
   8
LEVEL003
  62
3
  10
 48.5000
  20
 127.500
  30
0.0
  40
 6.00000
   1
４－Ｍ１０×１５Ｌ
   7
STANDARD
   0
LINE
   8
LEVEL003
   6
CONTINUOUS
  62
3
  10
 112.500
  20
 127.500
  30
0.0
  11
 49.2335
  21
 127.500
  31
0.0
   0
LINE
   8
LEVEL003
   6
CONTINUOUS
  62
3
  10
 210.000
  20
 127.500
  30
0.0
  11
 252.286
  21
 127.500
  31
0.0
   0
LINE
   8
LEVEL003
   6
CONTINUOUS
  62
3
  10
 125.000
  20
 571.000
  30
0.0
  11
 125.000
  21
 589.000
  31
0.0
   0
LINE
   8
LEVEL003
   6
CONTINUOUS
  62
3
  10
 175.000
  20
 571.000
  30
0.0
  11
 175.000
  21
 589.000
  31
0.0
   0
LINE
   8
LEVEL003
   6
CONTINUOUS
  62
3
  10
 125.000
  20
 586.000
  30
0.0
  11
 175.000
  21
 586.000
  31
0.0
   0
LINE
   8
LEVEL003
   6
CONTINUOUS
  62
3
  10
 125.000
  20
 586.000
  30
0.0
  11
 129.500
  21
 585.207
  31
0.0
   0
LINE
   8
LEVEL003
   6
CONTINUOUS
  62
3
  10
 125.000
  20
 586.000
  30
0.0
  11
 129.500
  21
 586.793
  31
0.0
   0
LINE
   8
LEVEL003
   6
CONTINUOUS
  62
3
  10
 175.000
  20
 586.000
  30
0.0
  11
 170.500
  21
 586.793
  31
0.0
   0
LINE
   8
LEVEL003
   6
CONTINUOUS
  62
3
  10
 175.000
  20
 586.000
  30
0.0
  11
 170.500
  21
 585.207
  31
0.0
   0
TEXT
   8
LEVEL003
  62
3
  10
 144.000
  20
 587.200
  30
0.0
  40
 6.00000
   1
%%c50
   7
STANDARD
  72
1
  11
 150.000
  21
 587.200
  31
0.0
   0
LINE
   8
LEVEL003
   6
CONTINUOUS
  62
3
  10
 122.000
  20
 443.500
  30
0.0
  11
 178.000
  21
 443.500
  31
0.0
   0
LINE
   8
LEVEL003
   6
CONTINUOUS
  62
3
  10
 122.000
  20
 443.500
  30
0.0
  11
 126.500
  21
 442.707
  31
0.0
   0
LINE
   8
LEVEL003
   6
CONTINUOUS
  62
3
  10
 122.000
  20
 443.500
  30
0.0
  11
 126.500
  21
 444.293
  31
0.0
   0
LINE
   8
LEVEL003
   6
CONTINUOUS
  62
3
  10
 178.000
  20
 443.500
  30
0.0
  11
 173.500
  21
 444.293
  31
0.0
   0
LINE
   8
LEVEL003
   6
CONTINUOUS
  62
3
  10
 178.000
  20
 443.500
  30
0.0
  11
 173.500
  21
 442.707
  31
0.0
   0
TEXT
   8
LEVEL003
  62
3
  10
 144.000
  20
 444.700
  30
0.0
  40
 6.00000
   1
%%c56
   7
STANDARD
  72
1
  11
 150.000
  21
 444.700
  31
0.0
   0
LINE
   8
LEVEL003
   6
CONTINUOUS
  62
3
  10
 117.500
  20
 428.500
  30
0.0
  11
 182.500
  21
 428.500
  31
0.0
   0
LINE
   8
LEVEL003
   6
CONTINUOUS
  62
3
  10
 117.500
  20
 428.500
  30
0.0
  11
 122.000
  21
 427.707
  31
0.0
   0
LINE
   8
LEVEL003
   6
CONTINUOUS
  62
3
  10
 117.500
  20
 428.500
  30
0.0
  11
 122.000
  21
 429.293
  31
0.0
   0
LINE
   8
LEVEL003
   6
CONTINUOUS
  62
3
  10
 182.500
  20
 428.500
  30
0.0
  11
 178.000
  21
 429.293
  31
0.0
   0
LINE
   8
LEVEL003
   6
CONTINUOUS
  62
3
  10
 182.500
  20
 428.500
  30
0.0
  11
 178.000
  21
 427.707
  31
0.0
   0
TEXT
   8
LEVEL003
  62
3
  10
 144.000
  20
 429.700
  30
0.0
  40
 6.00000
   1
%%c65
   7
STANDARD
  72
1
  11
 150.000
  21
 429.700
  31
0.0
   0
LINE
   8
LEVEL003
   6
CONTINUOUS
  62
3
  10
 107.500
  20
 413.500
  30
0.0
  11
 192.500
  21
 413.500
  31
0.0
   0
LINE
   8
LEVEL003
   6
CONTINUOUS
  62
3
  10
 107.500
  20
 413.500
  30
0.0
  11
 112.000
  21
 412.707
  31
0.0
   0
LINE
   8
LEVEL003
   6
CONTINUOUS
  62
3
  10
 107.500
  20
 413.500
  30
0.0
  11
 112.000
  21
 414.293
  31
0.0
   0
LINE
   8
LEVEL003
   6
CONTINUOUS
  62
3
  10
 192.500
  20
 413.500
  30
0.0
  11
 188.000
  21
 414.293
  31
0.0
   0
LINE
   8
LEVEL003
   6
CONTINUOUS
  62
3
  10
 192.500
  20
 413.500
  30
0.0
  11
 188.000
  21
 412.707
  31
0.0
   0
TEXT
   8
LEVEL003
  62
3
  10
 144.000
  20
 414.700
  30
0.0
  40
 6.00000
   1
%%c85
   7
STANDARD
  72
1
  11
 150.000
  21
 414.700
  31
0.0
   0
TEXT
   8
LEVEL003
  62
3
  10
 240.000
  20
 533.500
  30
0.0
  40
 6.00000
   1
Ｍ８５×２
   7
STANDARD
   0
TEXT
   8
LEVEL003
  62
3
  10
 195.000
  20
 586.000
  30
0.0
  40
 6.00000
   1
Ｍ４０×２
   7
STANDARD
   0
LINE
   8
LEVEL003
   6
CONTINUOUS
  62
3
  10
 170.000
  20
 548.500
  30
0.0
  11
 195.000
  21
 586.000
  31
0.0
   0
LINE
   8
LEVEL003
   6
CONTINUOUS
  62
3
  10
 170.000
  20
 548.500
  30
0.0
  11
 173.156
  21
 551.804
  31
0.0
   0
LINE
   8
LEVEL003
   6
CONTINUOUS
  62
3
  10
 170.000
  20
 548.500
  30
0.0
  11
 171.836
  21
 552.684
  31
0.0
   0
LINE
   8
LEVEL003
   6
CONTINUOUS
  62
3
  10
 192.500
  20
 541.000
  30
0.0
  11
 225.000
  21
 533.500
  31
0.0
   0
LINE
   8
LEVEL003
   6
CONTINUOUS
  62
3
  10
 192.500
  20
 541.000
  30
0.0
  11
 196.706
  21
 539.215
  31
0.0
   0
LINE
   8
LEVEL003
   6
CONTINUOUS
  62
3
  10
 192.500
  20
 541.000
  30
0.0
  11
 197.063
  21
 540.761
  31
0.0
   0
LINE
   8
LEVEL003
   6
CONTINUOUS
  62
3
  10
 175.500
  20
 570.500
  30
0.0
  11
 310.500
  21
 570.500
  31
0.0
   0
LINE
   8
LEVEL003
   6
CONTINUOUS
  62
3
  10
 307.500
  20
 142.500
  30
0.0
  11
 307.500
  21
 570.500
  31
0.0
   0
LINE
   8
LEVEL003
   6
CONTINUOUS
  62
3
  10
 307.500
  20
 570.500
  30
0.0
  11
 306.707
  21
 566.000
  31
0.0
   0
LINE
   8
LEVEL003
   6
CONTINUOUS
  62
3
  10
 307.500
  20
 570.500
  30
0.0
  11
 308.293
  21
 566.000
  31
0.0
   0
LINE
   8
LEVEL001
   6
CONTINUOUS
  62
7
  10
 191.000
  20
 561.500
  30
0.0
  11
 190.000
  21
 562.500
  31
0.0
   0
LINE
   8
LEVEL001
   6
CONTINUOUS
  62
7
  10
 191.000
  20
 557.500
  30
0.0
  11
 191.000
  21
 561.500
  31
0.0
   0
LINE
   8
LEVEL001
   6
CONTINUOUS
  62
7
  10
 191.500
  20
 557.500
  30
0.0
  11
 192.500
  21
 556.500
  31
0.0
   0
LINE
   8
LEVEL001
   6
CONTINUOUS
  62
7
  10
 192.500
  20
 556.500
  30
0.0
  11
 192.500
  21
 518.768
  31
0.0
   0
LINE
   8
LEVEL001
   6
CONTINUOUS
  62
3
  10
 191.500
  20
 522.500
  30
0.0
  11
 192.500
  21
 518.768
  31
0.0
   0
LINE
   8
LEVEL001
   6
CONTINUOUS
  62
7
  10
 109.000
  20
 561.500
  30
0.0
  11
 110.000
  21
 562.500
  31
0.0
   0
LINE
   8
LEVEL001
   6
CONTINUOUS
  62
7
  10
 109.000
  20
 557.500
  30
0.0
  11
 109.000
  21
 561.500
  31
0.0
   0
LINE
   8
LEVEL001
   6
CONTINUOUS
  62
7
  10
 107.500
  20
 143.500
  30
0.0
  11
 107.500
  21
 518.768
  31
0.0
   0
LINE
   8
LEVEL001
   6
CONTINUOUS
  62
7
  10
 108.500
  20
 557.500
  30
0.0
  11
 107.500
  21
 556.500
  31
0.0
   0
LINE
   8
LEVEL001
   6
CONTINUOUS
  62
7
  10
 107.500
  20
 556.500
  30
0.0
  11
 107.500
  21
 518.768
  31
0.0
   0
LINE
   8
LEVEL001
   6
CONTINUOUS
  62
3
  10
 108.500
  20
 522.500
  30
0.0
  11
 107.500
  21
 518.768
  31
0.0
   0
LINE
   8
LEVEL001
   6
DASHDOT
  62
1
  10
 195.500
  20
 557.500
  30
0.0
  11
 195.500
  21
 522.500
  31
0.0
   0
LINE
   8
LEVEL001
   6
DASHDOT
  62
1
  10
 191.500
  20
 557.500
  30
0.0
  11
 195.500
  21
 557.500
  31
0.0
   0
LINE
   8
LEVEL001
   6
DASHDOT
  62
1
  10
 192.500
  20
 522.500
  30
0.0
  11
 195.500
  21
 522.500
  31
0.0
   0
LINE
   8
LEVEL001
   6
DASHDOT
  62
1
  10
 104.500
  20
 557.500
  30
0.0
  11
 104.500
  21
 522.500
  31
0.0
   0
LINE
   8
LEVEL001
   6
DASHDOT
  62
1
  10
 108.500
  20
 557.500
  30
0.0
  11
 104.500
  21
 557.500
  31
0.0
   0
LINE
   8
LEVEL001
   6
DASHDOT
  62
1
  10
 107.500
  20
 522.500
  30
0.0
  11
 104.500
  21
 522.500
  31
0.0
   0
LINE
   8
LEVEL001
   6
CONTINUOUS
  62
7
  10
 175.000
  20
 569.500
  30
0.0
  11
 174.000
  21
 570.500
  31
0.0
   0
LINE
   8
LEVEL001
   6
CONTINUOUS
  62
7
  10
 125.000
  20
 569.500
  30
0.0
  11
 126.000
  21
 570.500
  31
0.0
   0
LINE
   8
LEVEL001
   6
CONTINUOUS
  62
7
  10
 174.000
  20
 570.500
  30
0.0
  11
 126.000
  21
 570.500
  31
0.0
   0
LINE
   8
LEVEL001
   6
CONTINUOUS
  62
7
  10
 175.000
  20
 569.500
  30
0.0
  11
 175.000
  21
 562.500
  31
0.0
   0
LINE
   8
LEVEL001
   6
CONTINUOUS
  62
7
  10
 125.000
  20
 569.500
  30
0.0
  11
 125.000
  21
 562.500
  31
0.0
   0
LINE
   8
LEVEL001
   6
DASHDOT
  62
1
  10
 150.000
  20
 451.000
  30
0.0
  11
 150.000
  21
 578.500
  31
0.0
   0
LINE
   8
LEVEL001
   6
DASHDOT
  62
1
  10
 150.000
  20
 436.000
  30
0.0
  11
 150.000
  21
 443.500
  31
0.0
   0
LINE
   8
LEVEL001
   6
DASHDOT
  62
1
  10
 150.000
  20
 137.500
  30
0.0
  11
 150.000
  21
 413.500
  31
0.0
   0
LINE
   8
LEVEL001
   6
DASHDOT
  62
1
  10
 150.000
  20
 421.000
  30
0.0
  11
 150.000
  21
 428.500
  31
0.0
   0
LINE
   8
LEVEL001
   6
CONTINUOUS
  62
7
  10
 192.500
  20
 143.500
  30
0.0
  11
 192.500
  21
 518.768
  31
0.0
   0
ARC
   8
LEVEL004
   6
DOT
  62
3
  10
 140.000
  20
 570.500
  30
0.0
  40
 1.00001
  50
 180.000
  51
0.0
   0
ARC
   8
LEVEL004
   6
DOT
  62
3
  10
 132.500
  20
 570.500
  30
0.0
  40
 1.00001
  50
 180.000
  51
0.0
   0
ARC
   8
LEVEL004
   6
DOT
  62
3
  10
 160.000
  20
 570.500
  30
0.0
  40
 1.00001
  50
 180.000
  51
0.0
   0
ARC
   8
LEVEL004
   6
DOT
  62
3
  10
 167.500
  20
 570.500
  30
0.0
  40
 1.00001
  50
 180.000
  51
0.0
   0
LINE
   8
LEVEL004
   6
DOT
  62
3
  10
 170.000
  20
 562.000
  30
0.0
  11
 170.500
  21
 562.500
  31
0.0
   0
LINE
   8
LEVEL004
   6
DOT
  62
3
  10
 170.000
  20
 562.000
  30
0.0
  11
 170.000
  21
 560.490
  31
0.0
   0
LINE
   8
LEVEL004
   6
DOT
  62
3
  10
 169.000
  20
 559.500
  30
0.0
  11
 168.750
  21
 559.500
  31
0.0
   0
ARC
   8
LEVEL004
   6
DOT
  62
3
  10
 170.250
  20
 561.000
  30
0.0
  40
 1.50000
  50
 90.0000
  51
 180.000
   0
LINE
   8
LEVEL004
   6
DOT
  62
3
  10
 168.750
  20
 561.000
  30
0.0
  11
 168.750
  21
 549.500
  31
0.0
   0
LINE
   8
LEVEL004
   6
DOT
  62
3
  10
 170.000
  20
 560.500
  30
0.0
  11
 169.000
  21
 559.500
  31
0.0
   0
LINE
   8
LEVEL004
   6
DOT
  62
3
  10
 169.000
  20
 559.500
  30
0.0
  11
 169.000
  21
 540.500
  31
0.0
   0
LINE
   8
LEVEL004
   6
DOT
  62
3
  10
 170.000
  20
 560.500
  30
0.0
  11
 170.000
  21
 539.500
  31
0.0
   0
LINE
   8
LEVEL004
   6
DASHDOT
  62
1
  10
 128.250
  20
 554.500
  30
0.0
  11
 147.405
  21
 554.500
  31
0.0
   0
LINE
   8
LEVEL004
   6
DASHDOT
  62
1
  10
 143.539
  20
 553.000
  30
0.0
  11
 143.118
  21
 556.000
  31
0.0
   0
LINE
   8
LEVEL004
   6
DASHDOT
  62
1
  10
 143.118
  20
 556.000
  30
0.0
  11
 142.697
  21
 553.000
  31
0.0
   0
LINE
   8
LEVEL004
   6
DASHDOT
  62
1
  10
 142.697
  20
 553.000
  30
0.0
  11
 142.277
  21
 556.000
  31
0.0
   0
LINE
   8
LEVEL004
   6
DASHDOT
  62
1
  10
 142.277
  20
 556.000
  30
0.0
  11
 141.856
  21
 553.000
  31
0.0
   0
LINE
   8
LEVEL004
   6
DASHDOT
  62
1
  10
 141.856
  20
 553.000
  30
0.0
  11
 141.435
  21
 556.000
  31
0.0
   0
LINE
   8
LEVEL004
   6
DASHDOT
  62
1
  10
 141.435
  20
 556.000
  30
0.0
  11
 141.015
  21
 553.000
  31
0.0
   0
LINE
   8
LEVEL004
   6
DASHDOT
  62
1
  10
 141.015
  20
 553.000
  30
0.0
  11
 140.594
  21
 556.000
  31
0.0
   0
LINE
   8
LEVEL004
   6
DASHDOT
  62
1
  10
 140.594
  20
 556.000
  30
0.0
  11
 140.173
  21
 553.000
  31
0.0
   0
LINE
   8
LEVEL004
   6
DASHDOT
  62
1
  10
 140.173
  20
 553.000
  30
0.0
  11
 139.752
  21
 556.000
  31
0.0
   0
LINE
   8
LEVEL004
   6
DASHDOT
  62
1
  10
 139.752
  20
 556.000
  30
0.0
  11
 139.332
  21
 553.000
  31
0.0
   0
LINE
   8
LEVEL004
   6
DASHDOT
  62
1
  10
 139.332
  20
 553.000
  30
0.0
  11
 138.911
  21
 556.000
  31
0.0
   0
LINE
   8
LEVEL004
   6
DASHDOT
  62
1
  10
 138.911
  20
 556.000
  30
0.0
  11
 138.490
  21
 553.000
  31
0.0
   0
LINE
   8
LEVEL004
   6
DASHDOT
  62
1
  10
 138.490
  20
 553.000
  30
0.0
  11
 138.070
  21
 556.000
  31
0.0
   0
LINE
   8
LEVEL004
   6
DASHDOT
  62
1
  10
 138.070
  20
 556.000
  30
0.0
  11
 137.649
  21
 553.000
  31
0.0
   0
LINE
   8
LEVEL004
   6
DASHDOT
  62
1
  10
 137.649
  20
 553.000
  30
0.0
  11
 137.228
  21
 556.000
  31
0.0
   0
LINE
   8
LEVEL004
   6
DASHDOT
  62
1
  10
 137.228
  20
 556.000
  30
0.0
  11
 136.808
  21
 553.000
  31
0.0
   0
LINE
   8
LEVEL004
   6
DASHDOT
  62
1
  10
 136.808
  20
 553.000
  30
0.0
  11
 136.387
  21
 556.000
  31
0.0
   0
LINE
   8
LEVEL004
   6
DASHDOT
  62
1
  10
 136.387
  20
 556.000
  30
0.0
  11
 135.966
  21
 553.000
  31
0.0
   0
LINE
   8
LEVEL004
   6
DASHDOT
  62
1
  10
 135.966
  20
 553.000
  30
0.0
  11
 135.546
  21
 556.000
  31
0.0
   0
LINE
   8
LEVEL004
   6
DASHDOT
  62
1
  10
 135.546
  20
 556.000
  30
0.0
  11
 135.125
  21
 553.000
  31
0.0
   0
LINE
   8
LEVEL004
   6
DASHDOT
  62
1
  10
 135.125
  20
 553.000
  30
0.0
  11
 134.704
  21
 556.000
  31
0.0
   0
LINE
   8
LEVEL004
   6
DOT
  62
3
  10
 130.000
  20
 562.000
  30
0.0
  11
 129.500
  21
 562.500
  31
0.0
   0
LINE
   8
LEVEL004
   6
DOT
  62
3
  10
 130.000
  20
 562.000
  30
0.0
  11
 130.000
  21
 560.490
  31
0.0
   0
LINE
   8
LEVEL004
   6
DOT
  62
3
  10
 131.000
  20
 559.500
  30
0.0
  11
 131.250
  21
 559.500
  31
0.0
   0
LINE
   8
LEVEL004
   6
DOT
  62
3
  10
 131.250
  20
 549.500
  30
0.0
  11
 132.250
  21
 548.500
  31
0.0
   0
ARC
   8
LEVEL004
   6
DOT
  62
3
  10
 129.750
  20
 561.000
  30
0.0
  40
 1.50000
  50
 0.683019E-5
  51
 90.0000
   0
LINE
   8
LEVEL004
   6
DOT
  62
3
  10
 131.250
  20
 552.500
  30
0.0
  11
 143.250
  21
 552.500
  31
0.0
   0
LINE
   8
LEVEL004
   6
DOT
  62
3
  10
 143.250
  20
 552.500
  30
0.0
  11
 144.405
  21
 554.500
  31
0.0
   0
LINE
   8
LEVEL004
   6
DOT
  62
3
  10
 144.405
  20
 554.500
  30
0.0
  11
 143.250
  21
 556.500
  31
0.0
   0
LINE
   8
LEVEL004
   6
DOT
  62
3
  10
 143.250
  20
 556.500
  30
0.0
  11
 131.250
  21
 556.500
  31
0.0
   0
LINE
   8
LEVEL004
   6
DOT
  62
3
  10
 143.250
  20
 556.500
  30
0.0
  11
 143.250
  21
 552.500
  31
0.0
   0
CIRCLE
   8
LEVEL004
   6
DOT
  62
3
  10
 132.984
  20
 554.500
  30
0.0
  40
 1.98438
   0
LINE
   8
LEVEL004
   6
DOT
  62
3
  10
 131.250
  20
 561.000
  30
0.0
  11
 131.250
  21
 555.464
  31
0.0
   0
LINE
   8
LEVEL004
   6
DOT
  62
3
  10
 131.250
  20
 553.536
  30
0.0
  11
 131.250
  21
 549.500
  31
0.0
   0
LINE
   8
LEVEL004
   6
DOT
  62
3
  10
 130.000
  20
 560.500
  30
0.0
  11
 131.000
  21
 559.500
  31
0.0
   0
LINE
   8
LEVEL004
   6
DOT
  62
3
  10
 131.000
  20
 559.500
  30
0.0
  11
 131.000
  21
 540.500
  31
0.0
   0
ARC
   8
LEVEL004
   6
DOT
  62
3
  10
 131.000
  20
 539.500
  30
0.0
  40
 1.00000
  50
 90.0009
  51
 180.002
   0
ARC
   8
LEVEL004
   6
DOT
  62
3
  10
 131.000
  20
 538.500
  30
0.0
  40
 1.00000
  50
 180.001
  51
 269.999
   0
LINE
   8
LEVEL004
   6
DOT
  62
3
  10
 130.000
  20
 539.500
  30
0.0
  11
 130.000
  21
 538.500
  31
0.0
   0
LINE
   8
LEVEL004
   6
DOT
  62
3
  10
 130.000
  20
 560.500
  30
0.0
  11
 130.000
  21
 539.500
  31
0.0
   0
LINE
   8
LEVEL004
   6
DOT
  62
3
  10
 167.750
  20
 548.500
  30
0.0
  11
 132.250
  21
 548.500
  31
0.0
   0
LINE
   8
LEVEL004
   6
DOT
  62
3
  10
 169.000
  20
 537.500
  30
0.0
  11
 131.000
  21
 537.500
  31
0.0
   0
LINE
   8
LEVEL004
   6
DOT
  62
3
  10
 169.000
  20
 540.500
  30
0.0
  11
 131.000
  21
 540.500
  31
0.0
   0
LINE
   8
LEVEL004
   6
DOT
  62
3
  10
 168.750
  20
 549.500
  30
0.0
  11
 167.750
  21
 548.500
  31
0.0
   0
ARC
   8
LEVEL004
   6
DOT
  62
3
  10
 169.000
  20
 539.500
  30
0.0
  40
 1.00000
  50
 359.998
  51
 90.0017
   0
ARC
   8
LEVEL004
   6
DOT
  62
3
  10
 169.000
  20
 538.500
  30
0.0
  40
 1.00000
  50
 269.998
  51
 0.103569E-8
   0
LINE
   8
LEVEL004
   6
DOT
  62
3
  10
 170.000
  20
 539.500
  30
0.0
  11
 170.000
  21
 538.500
  31
0.0
   0
LINE
   8
LEVEL004
   6
DOT
  62
3
  10
 178.000
  20
 216.000
  30
0.0
  11
 178.000
  21
 559.500
  31
0.0
   0
LINE
   8
LEVEL004
   6
DOT
  62
3
  10
 182.500
  20
 519.000
  30
0.0
  11
 182.500
  21
 180.800
  31
0.0
   0
LINE
   8
LEVEL004
   6
DOT
  62
3
  10
 122.000
  20
 216.000
  30
0.0
  11
 122.000
  21
 559.500
  31
0.0
   0
LINE
   8
LEVEL004
   6
DOT
  62
3
  10
 117.500
  20
 519.000
  30
0.0
  11
 117.500
  21
 180.800
  31
0.0
   0
LINE
   8
LEVEL001
   6
CONTINUOUS
  62
7
  10
 110.000
  20
 562.500
  30
0.0
  11
 190.000
  21
 562.500
  31
0.0
   0
LINE
   8
LEVEL001
   6
CONTINUOUS
  62
7
  10
 125.000
  20
 569.500
  30
0.0
  11
 175.000
  21
 569.500
  31
0.0
   0
LINE
   8
LEVEL001
   6
CONTINUOUS
  62
7
  10
 109.000
  20
 561.500
  30
0.0
  11
 191.000
  21
 561.500
  31
0.0
   0
LINE
   8
LEVEL001
   6
CONTINUOUS
  62
7
  10
 108.500
  20
 557.500
  30
0.0
  11
 191.500
  21
 557.500
  31
0.0
   0
LINE
   8
LEVEL001
   6
CONTINUOUS
  62
3
  10
 191.500
  20
 557.500
  30
0.0
  11
 191.500
  21
 522.500
  31
0.0
   0
LINE
   8
LEVEL001
   6
CONTINUOUS
  62
3
  10
 108.500
  20
 557.500
  30
0.0
  11
 108.500
  21
 522.500
  31
0.0
   0
LINE
   8
LEVEL001
   6
CONTINUOUS
  62
7
  10
 192.500
  20
 518.768
  30
0.0
  11
 107.500
  21
 518.768
  31
0.0
   0
LINE
   8
LEVEL001
   6
CONTINUOUS
  62
3
  10
 107.500
  20
 556.500
  30
0.0
  11
 192.500
  21
 556.500
  31
0.0
   0
LINE
   8
LEVEL001
   6
CONTINUOUS
  62
3
  10
 107.500
  20
 522.500
  30
0.0
  11
 192.500
  21
 522.500
  31
0.0
   0
LINE
   8
LEVEL003
   6
CONTINUOUS
  62
3
  10
 195.000
  20
 586.000
  30
0.0
  11
 229.352
  21
 586.000
  31
0.0
   0
LINE
   8
LEVEL003
   6
CONTINUOUS
  62
3
  10
 225.000
  20
 533.500
  30
0.0
  11
 274.969
  21
 533.500
  31
0.0
   0
TEXT
   8
LEVEL003
  62
3
  10
 306.300
  20
 353.500
  30
0.0
  40
 6.00000
   1
428
  50
 90.0000
  41
 0.500000
   7
STANDARD
  72
1
  11
 306.300
  21
 358.000
  31
0.0
   0
TEXT
   8
LEVEL003
  62
7
  10
 294.602
  20
 37.1134
  30
0.0
  40
 6.00000
   1
Model : Ｅ２３Ｓ３０
   7
STANDARD
   0
LINE
   8
LEVEL003
   6
CONTINUOUS
  62
3
  10
 191.000
  20
 562.500
  30
0.0
  11
 210.333
  21
 562.500
  31
0.0
   0
LINE
   8
LEVEL003
   6
CONTINUOUS
  62
3
  10
 196.500
  20
 557.500
  30
0.0
  11
 210.333
  21
 557.500
  31
0.0
   0
LINE
   8
LEVEL003
   6
CONTINUOUS
  62
3
  10
 208.333
  20
 562.500
  30
0.0
  11
 208.333
  21
 557.500
  31
0.0
   0
LINE
   8
LEVEL003
   6
CONTINUOUS
  62
3
  10
 208.333
  20
 557.500
  30
0.0
  11
 208.333
  21
 551.500
  31
0.0
   0
LINE
   8
LEVEL003
   6
CONTINUOUS
  62
3
  10
 208.333
  20
 562.500
  30
0.0
  11
 208.862
  21
 565.500
  31
0.0
   0
LINE
   8
LEVEL003
   6
CONTINUOUS
  62
3
  10
 208.333
  20
 562.500
  30
0.0
  11
 207.804
  21
 565.500
  31
0.0
   0
LINE
   8
LEVEL003
   6
CONTINUOUS
  62
3
  10
 208.333
  20
 557.500
  30
0.0
  11
 207.804
  21
 554.500
  31
0.0
   0
LINE
   8
LEVEL003
   6
CONTINUOUS
  62
3
  10
 208.333
  20
 557.500
  30
0.0
  11
 208.862
  21
 554.500
  31
0.0
   0
LINE
   8
LEVEL003
   6
CONTINUOUS
  62
3
  10
 208.333
  20
 562.500
  30
0.0
  11
 208.333
  21
 566.250
  31
0.0
   0
LINE
   8
LEVEL003
   6
CONTINUOUS
  62
3
  10
 208.333
  20
 557.500
  30
0.0
  11
 208.333
  21
 551.500
  31
0.0
   0
TEXT
   8
LEVEL003
  62
3
  10
 207.533
  20
 551.500
  30
0.0
  40
 4.00000
   1
5
  50
 90.0000
   7
STANDARD
  72
1
  11
 207.533
  21
 553.500
  31
0.0
   0
LINE
   8
LEVEL003
   6
CONTINUOUS
  62
3
  10
 191.000
  20
 562.500
  30
0.0
  11
 220.333
  21
 562.500
  31
0.0
   0
LINE
   8
LEVEL003
   6
CONTINUOUS
  62
3
  10
 196.500
  20
 522.500
  30
0.0
  11
 220.333
  21
 522.500
  31
0.0
   0
LINE
   8
LEVEL003
   6
CONTINUOUS
  62
3
  10
 218.333
  20
 562.500
  30
0.0
  11
 218.333
  21
 522.500
  31
0.0
   0
LINE
   8
LEVEL003
   6
CONTINUOUS
  62
3
  10
 218.333
  20
 562.500
  30
0.0
  11
 217.804
  21
 559.500
  31
0.0
   0
LINE
   8
LEVEL003
   6
CONTINUOUS
  62
3
  10
 218.333
  20
 562.500
  30
0.0
  11
 218.862
  21
 559.500
  31
0.0
   0
LINE
   8
LEVEL003
   6
CONTINUOUS
  62
3
  10
 218.333
  20
 522.500
  30
0.0
  11
 218.862
  21
 525.500
  31
0.0
   0
LINE
   8
LEVEL003
   6
CONTINUOUS
  62
3
  10
 218.333
  20
 522.500
  30
0.0
  11
 217.804
  21
 525.500
  31
0.0
   0
TEXT
   8
LEVEL003
  62
3
  10
 217.533
  20
 538.500
  30
0.0
  40
 4.00000
   1
40
  50
 90.0000
   7
STANDARD
  72
1
  11
 217.533
  21
 542.500
  31
0.0
   0
LINE
   8
LEVEL003
   6
CONTINUOUS
  62
3
  10
 165.000
  20
 537.500
  30
0.0
  11
 165.000
  21
 537.500
  31
0.0
   0
LINE
   8
LEVEL003
   6
CONTINUOUS
  62
3
  10
 169.250
  20
 562.500
  30
0.0
  11
 163.000
  21
 562.500
  31
0.0
   0
LINE
   8
LEVEL003
   6
CONTINUOUS
  62
3
  10
 165.000
  20
 537.500
  30
0.0
  11
 165.000
  21
 562.500
  31
0.0
   0
LINE
   8
LEVEL003
   6
CONTINUOUS
  62
3
  10
 165.000
  20
 537.500
  30
0.0
  11
 165.529
  21
 540.500
  31
0.0
   0
LINE
   8
LEVEL003
   6
CONTINUOUS
  62
3
  10
 165.000
  20
 537.500
  30
0.0
  11
 164.471
  21
 540.500
  31
0.0
   0
LINE
   8
LEVEL003
   6
CONTINUOUS
  62
3
  10
 165.000
  20
 562.500
  30
0.0
  11
 164.471
  21
 559.500
  31
0.0
   0
LINE
   8
LEVEL003
   6
CONTINUOUS
  62
3
  10
 165.000
  20
 562.500
  30
0.0
  11
 165.529
  21
 559.500
  31
0.0
   0
TEXT
   8
LEVEL003
  62
3
  10
 164.200
  20
 544.000
  30
0.0
  40
 4.00000
   1
25
  50
 90.0000
   7
STANDARD
  72
1
  11
 164.200
  21
 548.000
  31
0.0
   0
LINE
   8
LEVEL003
   6
CONTINUOUS
  62
3
  10
 175.000
  20
 570.500
  30
0.0
  11
 220.333
  21
 570.500
  31
0.0
   0
LINE
   8
LEVEL003
   6
CONTINUOUS
  62
3
  10
 191.000
  20
 562.500
  30
0.0
  11
 220.333
  21
 562.500
  31
0.0
   0
LINE
   8
LEVEL003
   6
CONTINUOUS
  62
3
  10
 218.333
  20
 570.500
  30
0.0
  11
 218.333
  21
 562.500
  31
0.0
   0
LINE
   8
LEVEL003
   6
CONTINUOUS
  62
3
  10
 218.333
  20
 570.500
  30
0.0
  11
 218.862
  21
 573.500
  31
0.0
   0
LINE
   8
LEVEL003
   6
CONTINUOUS
  62
3
  10
 218.333
  20
 570.500
  30
0.0
  11
 217.804
  21
 573.500
  31
0.0
   0
LINE
   8
LEVEL003
   6
CONTINUOUS
  62
3
  10
 218.333
  20
 562.500
  30
0.0
  11
 217.804
  21
 559.500
  31
0.0
   0
LINE
   8
LEVEL003
   6
CONTINUOUS
  62
3
  10
 218.333
  20
 562.500
  30
0.0
  11
 218.862
  21
 559.500
  31
0.0
   0
LINE
   8
LEVEL003
   6
CONTINUOUS
  62
3
  10
 218.333
  20
 570.500
  30
0.0
  11
 218.333
  21
 574.250
  31
0.0
   0
LINE
   8
LEVEL003
   6
CONTINUOUS
  62
3
  10
 218.333
  20
 562.500
  30
0.0
  11
 218.333
  21
 558.750
  31
0.0
   0
TEXT
   8
LEVEL003
  62
3
  10
 217.533
  20
 564.500
  30
0.0
  40
 4.00000
   1
8
  50
 90.0000
   7
STANDARD
  72
1
  11
 217.533
  21
 566.500
  31
0.0
   0
ENDSEC
   0
EOF
