   0
SECTION
   2
HEADER
   9
$LIMMIN
  10
0.0
  20
0.0
   9
$LIMMAX
  10
 420.000
  20
 300.000
   9
$EXTMIN
  10
0.0
  20
0.0
   9
$EXTMAX
  10
 420.000
  20
 300.000
   9
$LTSCALE
  40
 8.40000
   0
ENDSEC
   0
SECTION
   2
TABLES
  0
TABLE
  2
LTYPE
 70
    25
  0
LTYPE
  2
CONTINUOUS
 70
    64
  3
Solid line
 72
    65
 73
     0
 40
0.0
  0
LTYPE
  2
BORDER
 70
    64
  3
__ __ . __ __ . __ __ . __ __ . __ __ . __ __ .
 72
    65
 73
     6
 40
1.75
 49
0.5
 49
-0.25
 49
0.5
 49
-0.25
 49
0.0
 49
-0.25
  0
LTYPE
  2
BORDER2
 70
    64
  3
__.__.__.__.__.__.__.__.__.__.__.__.__.__.__.__
 72
    65
 73
     6
 40
0.875
 49
0.25
 49
-0.125
 49
0.25
 49
-0.125
 49
0.0
 49
-0.125
  0
LTYPE
  2
BORDERX2
 70
    64
  3
____  ____  .  ____  ____  .  ____  ____  .  __
 72
    65
 73
     6
 40
3.5
 49
1.0
 49
-0.5
 49
1.0
 49
-0.5
 49
0.0
 49
-0.5
  0
LTYPE
  2
CENTER
 70
    64
  3
____ _ ____ _ ____ _ ____ _ ____ _ ____ _ ____ 
 72
    65
 73
     4
 40
2.0
 49
1.25
 49
-0.25
 49
0.25
 49
-0.25
  0
LTYPE
  2
CENTER2
 70
    64
  3
___ _ ___ _ ___ _ ___ _ ___ _ ___ _ ___ _ ___ _
 72
    65
 73
     4
 40
1.125
 49
0.75
 49
-0.125
 49
0.125
 49
-0.125
  0
LTYPE
  2
CENTERX2
 70
    64
  3
________  __  ________  __  ________  __  _____
 72
    65
 73
     4
 40
4.0
 49
2.5
 49
-0.5
 49
0.5
 49
-0.5
  0
LTYPE
  2
DASHDOT
 70
    64
  3
__ . __ . __ . __ . __ . __ . __ . __ . __ . __
 72
    65
 73
     4
 40
1.0
 49
0.5
 49
-0.25
 49
0.0
 49
-0.25
  0
LTYPE
  2
DASHDOT2
 70
    64
  3
_._._._._._._._._._._._._._._._._._._._._._._._
 72
    65
 73
     4
 40
0.5
 49
0.25
 49
-0.125
 49
0.0
 49
-0.125
  0
LTYPE
  2
DASHDOTX2
 70
    64
  3
____  .  ____  .  ____  .  ____  .  ____  .  __
 72
    65
 73
     4
 40
2.0
 49
1.0
 49
-0.5
 49
0.0
 49
-0.5
  0
LTYPE
  2
DASHED
 70
    64
  3
__ __ __ __ __ __ __ __ __ __ __ __ __ __ __ __
 72
    65
 73
     2
 40
0.75
 49
0.5
 49
-0.25
  0
LTYPE
  2
DASHED2
 70
    64
  3
_ _ _ _ _ _ _ _ _ _ _ _ _ _ _ _ _ _ _ _ _ _ _ _
 72
    65
 73
     2
 40
0.375
 49
0.25
 49
-0.125
  0
LTYPE
  2
DASHEDX2
 70
    64
  3
____  ____  ____  ____  ____  ____  ____  ____ 
 72
    65
 73
     2
 40
1.5
 49
1.0
 49
-0.5
  0
LTYPE
  2
DIVIDE
 70
    64
  3
____ . . ____ . . ____ . . ____ . . ____ . . __
 72
    65
 73
     6
 40
1.25
 49
0.5
 49
-0.25
 49
0.0
 49
-0.25
 49
0.0
 49
-0.25
  0
LTYPE
  2
DIVIDE2
 70
    64
  3
__..__..__..__..__..__..__..__..__..__..__..__.
 72
    65
 73
     6
 40
0.625
 49
0.25
 49
-0.125
 49
0.0
 49
-0.125
 49
0.0
 49
-0.125
  0
LTYPE
  2
DIVIDEX2
 70
    64
  3
________  .  .  ________  .  .  ________  .  . 
 72
    65
 73
     6
 40
2.5
 49
1.0
 49
-0.5
 49
0.0
 49
-0.5
 49
0.0
 49
-0.5
  0
LTYPE
  2
DOT
 70
    64
  3
. . . . . . . . . . . . . . . . . . . . . . . .
 72
    65
 73
     2
 40
0.25
 49
0.0
 49
-0.25
  0
LTYPE
  2
DOT2
 70
    64
  3
...............................................
 72
    65
 73
     2
 40
0.125
 49
0.0
 49
-0.125
  0
LTYPE
  2
DOTX2
 70
    64
  3
.  .  .  .  .  .  .  .  .  .  .  .  .  .  .  . 
 72
    65
 73
     2
 40
0.5
 49
0.0
 49
-0.5
  0
LTYPE
  2
HIDDEN
 70
    64
  3
__ __ __ __ __ __ __ __ __ __ __ __ __ __ __ __
 72
    65
 73
     2
 40
0.375
 49
0.25
 49
-0.125
  0
LTYPE
  2
HIDDEN2
 70
    64
  3
_ _ _ _ _ _ _ _ _ _ _ _ _ _ _ _ _ _ _ _ _ _ _ _
 72
    65
 73
     2
 40
0.1875
 49
0.125
 49
-0.0625
  0
LTYPE
  2
HIDDENX2
 70
    64
  3
____ ____ ____ ____ ____ ____ ____ ____ ____ __
 72
    65
 73
     2
 40
0.75
 49
0.5
 49
-0.25
  0
LTYPE
  2
PHANTOM
 70
    64
  3
______  __  __  ______  __  __  ______  __  __ 
 72
    65
 73
     6
 40
2.5
 49
1.25
 49
-0.25
 49
0.25
 49
-0.25
 49
0.25
 49
-0.25
  0
LTYPE
  2
PHANTOM2
 70
    64
  3
___ _ _ ___ _ _ ___ _ _ ___ _ _ ___ _ _ ___ _ _
 72
    65
 73
     6
 40
1.25
 49
0.625
 49
-0.125
 49
0.125
 49
-0.125
 49
0.125
 49
-0.125
  0
LTYPE
  2
PHANTOMX2
 70
    64
  3
____________    ____    ____    ____________   
 72
    65
 73
     6
 40
5.0
 49
2.5
 49
-0.5
 49
0.5
 49
-0.5
 49
0.5
 49
-0.5
  0
ENDTAB
  0
TABLE
  2
STYLE
 70
     2
  0
STYLE
  2
STANDARD
 70
0
 40
0.0
 41
1.0
 50
0.0
 71
0
 42
0.2
  3
TXT
  4
BIGFONT
  0
STYLE
  2
STANDARD1
 70
     4
 40
0.0
 41
1.0
 50
0.0
 71
     0
 42
0.2
  3
TXT
  4
BIGFONT
  0
ENDTAB
   0
TABLE
   2
LAYER
  70
4
   0
LAYER
   2
0
  70
0
  62
7
   6
CONTINUOUS
   0
LAYER
   2
LEVEL001
  70
0
  62
7
   6
CONTINUOUS
   0
LAYER
   2
LEVEL003
  70
0
  62
7
   6
CONTINUOUS
   0
LAYER
   2
LEVEL004
  70
0
  62
7
   6
CONTINUOUS
   0
ENDTAB
   0
ENDSEC
   0
SECTION
   2
ENTITIES
   0
LINE
   8
LEVEL003
   6
CONTINUOUS
  62
3
  10
 87.5000
  20
 121.000
  30
0.0
  11
 87.5000
  21
 108.000
  31
0.0
   0
LINE
   8
LEVEL003
   6
CONTINUOUS
  62
3
  10
 142.500
  20
 121.000
  30
0.0
  11
 142.500
  21
 108.000
  31
0.0
   0
LINE
   8
LEVEL003
   6
CONTINUOUS
  62
3
  10
 87.5000
  20
 110.000
  30
0.0
  11
 142.500
  21
 110.000
  31
0.0
   0
LINE
   8
LEVEL003
   6
CONTINUOUS
  62
3
  10
 87.5000
  20
 110.000
  30
0.0
  11
 90.5000
  21
 109.471
  31
0.0
   0
LINE
   8
LEVEL003
   6
CONTINUOUS
  62
3
  10
 87.5000
  20
 110.000
  30
0.0
  11
 90.5000
  21
 110.529
  31
0.0
   0
LINE
   8
LEVEL003
   6
CONTINUOUS
  62
3
  10
 142.500
  20
 110.000
  30
0.0
  11
 139.500
  21
 110.529
  31
0.0
   0
LINE
   8
LEVEL003
   6
CONTINUOUS
  62
3
  10
 142.500
  20
 110.000
  30
0.0
  11
 139.500
  21
 109.471
  31
0.0
   0
TEXT
   8
LEVEL003
  62
3
  10
 111.000
  20
 110.800
  30
0.0
  40
 4.00000
   1
%%c55
   7
STANDARD
  72
1
  11
 115.000
  21
 110.800
  31
0.0
   0
LINE
   8
LEVEL003
   6
CONTINUOUS
  62
3
  10
 72.5000
  20
 125.000
  30
0.0
  11
 72.5000
  21
 98.0000
  31
0.0
   0
LINE
   8
LEVEL003
   6
CONTINUOUS
  62
3
  10
 157.500
  20
 125.000
  30
0.0
  11
 157.500
  21
 98.0000
  31
0.0
   0
LINE
   8
LEVEL003
   6
CONTINUOUS
  62
3
  10
 72.5000
  20
 100.000
  30
0.0
  11
 157.500
  21
 100.000
  31
0.0
   0
LINE
   8
LEVEL003
   6
CONTINUOUS
  62
3
  10
 72.5000
  20
 100.000
  30
0.0
  11
 75.5000
  21
 99.4710
  31
0.0
   0
LINE
   8
LEVEL003
   6
CONTINUOUS
  62
3
  10
 72.5000
  20
 100.000
  30
0.0
  11
 75.5000
  21
 100.529
  31
0.0
   0
LINE
   8
LEVEL003
   6
CONTINUOUS
  62
3
  10
 157.500
  20
 100.000
  30
0.0
  11
 154.500
  21
 100.529
  31
0.0
   0
LINE
   8
LEVEL003
   6
CONTINUOUS
  62
3
  10
 157.500
  20
 100.000
  30
0.0
  11
 154.500
  21
 99.4710
  31
0.0
   0
TEXT
   8
LEVEL003
  62
3
  10
 111.000
  20
 100.800
  30
0.0
  40
 4.00000
   1
%%c85
   7
STANDARD
  72
1
  11
 115.000
  21
 100.800
  31
0.0
   0
LINE
   8
LEVEL003
   6
CONTINUOUS
  62
3
  10
 90.0000
  20
 275.000
  30
0.0
  11
 90.0000
  21
 287.000
  31
0.0
   0
LINE
   8
LEVEL003
   6
CONTINUOUS
  62
3
  10
 140.000
  20
 275.000
  30
0.0
  11
 140.000
  21
 287.000
  31
0.0
   0
LINE
   8
LEVEL003
   6
CONTINUOUS
  62
3
  10
 90.0000
  20
 285.000
  30
0.0
  11
 140.000
  21
 285.000
  31
0.0
   0
LINE
   8
LEVEL003
   6
CONTINUOUS
  62
3
  10
 90.0000
  20
 285.000
  30
0.0
  11
 93.0000
  21
 284.471
  31
0.0
   0
LINE
   8
LEVEL003
   6
CONTINUOUS
  62
3
  10
 90.0000
  20
 285.000
  30
0.0
  11
 93.0000
  21
 285.529
  31
0.0
   0
LINE
   8
LEVEL003
   6
CONTINUOUS
  62
3
  10
 140.000
  20
 285.000
  30
0.0
  11
 137.000
  21
 285.529
  31
0.0
   0
LINE
   8
LEVEL003
   6
CONTINUOUS
  62
3
  10
 140.000
  20
 285.000
  30
0.0
  11
 137.000
  21
 284.471
  31
0.0
   0
TEXT
   8
LEVEL003
  62
3
  10
 111.000
  20
 285.800
  30
0.0
  40
 4.00000
   1
%%c50
   7
STANDARD
  72
1
  11
 115.000
  21
 285.800
  31
0.0
   0
LINE
   8
LEVEL003
   6
CONTINUOUS
  62
3
  10
 87.0000
  20
 265.000
  30
0.0
  11
 87.0000
  21
 297.000
  31
0.0
   0
LINE
   8
LEVEL003
   6
CONTINUOUS
  62
3
  10
 143.000
  20
 265.000
  30
0.0
  11
 143.000
  21
 297.000
  31
0.0
   0
LINE
   8
LEVEL003
   6
CONTINUOUS
  62
3
  10
 87.0000
  20
 295.000
  30
0.0
  11
 143.000
  21
 295.000
  31
0.0
   0
LINE
   8
LEVEL003
   6
CONTINUOUS
  62
3
  10
 87.0000
  20
 295.000
  30
0.0
  11
 90.0000
  21
 294.471
  31
0.0
   0
LINE
   8
LEVEL003
   6
CONTINUOUS
  62
3
  10
 87.0000
  20
 295.000
  30
0.0
  11
 90.0000
  21
 295.529
  31
0.0
   0
LINE
   8
LEVEL003
   6
CONTINUOUS
  62
3
  10
 143.000
  20
 295.000
  30
0.0
  11
 140.000
  21
 295.529
  31
0.0
   0
LINE
   8
LEVEL003
   6
CONTINUOUS
  62
3
  10
 143.000
  20
 295.000
  30
0.0
  11
 140.000
  21
 294.471
  31
0.0
   0
TEXT
   8
LEVEL003
  62
3
  10
 111.000
  20
 295.800
  30
0.0
  40
 4.00000
   1
%%c56
   7
STANDARD
  72
1
  11
 115.000
  21
 295.800
  31
0.0
   0
LINE
   8
LEVEL003
   6
CONTINUOUS
  62
3
  10
 135.000
  20
 259.000
  30
0.0
  11
 155.000
  21
 285.000
  31
0.0
   0
LINE
   8
LEVEL003
   6
CONTINUOUS
  62
3
  10
 135.000
  20
 259.000
  30
0.0
  11
 137.248
  21
 261.055
  31
0.0
   0
LINE
   8
LEVEL003
   6
CONTINUOUS
  62
3
  10
 135.000
  20
 259.000
  30
0.0
  11
 136.410
  21
 261.700
  31
0.0
   0
TEXT
   8
LEVEL003
  62
3
  10
 155.000
  20
 285.000
  30
0.0
  40
 4.00000
   1
Ｍ４０×２
   7
STANDARD
   0
LINE
   8
LEVEL003
   6
CONTINUOUS
  62
3
  10
 157.500
  20
 250.000
  30
0.0
  11
 180.000
  21
 255.000
  31
0.0
   0
LINE
   8
LEVEL003
   6
CONTINUOUS
  62
3
  10
 157.500
  20
 250.000
  30
0.0
  11
 160.543
  21
 250.134
  31
0.0
   0
LINE
   8
LEVEL003
   6
CONTINUOUS
  62
3
  10
 157.500
  20
 250.000
  30
0.0
  11
 160.314
  21
 251.167
  31
0.0
   0
LINE
   8
LEVEL001
   6
CONTINUOUS
  62
3
  10
 167.500
  20
 155.644
  30
0.0
  11
 163.884
  21
 154.675
  31
0.0
   0
LINE
   8
LEVEL001
   6
CONTINUOUS
  62
3
  10
 167.500
  20
 138.356
  30
0.0
  11
 163.884
  21
 139.326
  31
0.0
   0
LINE
   8
LEVEL001
   6
CONTINUOUS
  62
7
  10
 167.500
  20
 155.644
  30
0.0
  11
 168.984
  21
 156.500
  31
0.0
   0
LINE
   8
LEVEL001
   6
CONTINUOUS
  62
7
  10
 184.500
  20
 156.500
  30
0.0
  11
 168.984
  21
 156.500
  31
0.0
   0
LINE
   8
LEVEL001
   6
CONTINUOUS
  62
7
  10
 167.500
  20
 138.356
  30
0.0
  11
 168.984
  21
 137.500
  31
0.0
   0
LINE
   8
LEVEL001
   6
CONTINUOUS
  62
7
  10
 184.500
  20
 137.500
  30
0.0
  11
 168.984
  21
 137.500
  31
0.0
   0
ARC
   8
LEVEL001
   6
CONTINUOUS
  62
7
  10
 186.000
  20
 160.000
  30
0.0
  40
 1.50000
  50
 90.0000
  51
 180.000
   0
LINE
   8
LEVEL001
   6
CONTINUOUS
  62
7
  10
 186.000
  20
 161.500
  30
0.0
  11
 191.000
  21
 161.500
  31
0.0
   0
ARC
   8
LEVEL001
   6
CONTINUOUS
  62
7
  10
 186.000
  20
 134.000
  30
0.0
  40
 1.50000
  50
 180.000
  51
 270.000
   0
LINE
   8
LEVEL001
   6
CONTINUOUS
  62
7
  10
 184.500
  20
 134.000
  30
0.0
  11
 184.500
  21
 160.000
  31
0.0
   0
LINE
   8
LEVEL001
   6
CONTINUOUS
  62
7
  10
 186.000
  20
 132.500
  30
0.0
  11
 191.000
  21
 132.500
  31
0.0
   0
ARC
   8
LEVEL001
   6
CONTINUOUS
  62
7
  10
 207.000
  20
 160.000
  30
0.0
  40
 1.50000
  50
0.0
  51
 90.0000
   0
LINE
   8
LEVEL001
   6
CONTINUOUS
  62
7
  10
 202.000
  20
 161.500
  30
0.0
  11
 207.000
  21
 161.500
  31
0.0
   0
ARC
   8
LEVEL001
   6
CONTINUOUS
  62
7
  10
 207.000
  20
 134.000
  30
0.0
  40
 1.50000
  50
 270.000
  51
0.0
   0
LINE
   8
LEVEL001
   6
CONTINUOUS
  62
7
  10
 202.000
  20
 132.500
  30
0.0
  11
 207.000
  21
 132.500
  31
0.0
   0
LINE
   8
LEVEL001
   6
CONTINUOUS
  62
7
  10
 208.500
  20
 160.000
  30
0.0
  11
 208.500
  21
 134.000
  31
0.0
   0
ARC
   8
LEVEL001
   6
DASHDOT
  62
1
  10
 217.500
  20
 160.000
  30
0.0
  40
 1.00000
  50
0.0
  51
 90.0000
   0
LINE
   8
LEVEL001
   6
DASHDOT
  62
1
  10
 209.500
  20
 161.000
  30
0.0
  11
 217.500
  21
 161.000
  31
0.0
   0
ARC
   8
LEVEL001
   6
DASHDOT
  62
1
  10
 217.500
  20
 134.000
  30
0.0
  40
 1.00000
  50
 270.000
  51
0.0
   0
LINE
   8
LEVEL001
   6
DASHDOT
  62
1
  10
 209.500
  20
 133.000
  30
0.0
  11
 217.500
  21
 133.000
  31
0.0
   0
LINE
   8
LEVEL001
   6
DASHDOT
  62
1
  10
 218.500
  20
 160.000
  30
0.0
  11
 218.500
  21
 134.000
  31
0.0
   0
CIRCLE
   8
LEVEL001
   6
DASHDOT
  62
1
  10
 221.500
  20
 147.000
  30
0.0
  40
 1.50000
   0
ARC
   8
LEVEL001
   6
DASHDOT
  62
1
  10
 209.500
  20
 134.000
  30
0.0
  40
 1.00000
  50
 180.000
  51
 270.000
   0
ARC
   8
LEVEL001
   6
DASHDOT
  62
1
  10
 209.500
  20
 160.000
  30
0.0
  40
 1.00000
  50
 90.0000
  51
 180.000
   0
ARC
   8
LEVEL001
   6
DASHDOT
  62
1
  10
 220.500
  20
 152.500
  30
0.0
  40
 2.00000
  50
 180.000
  51
 270.000
   0
ARC
   8
LEVEL001
   6
DASHDOT
  62
1
  10
 220.500
  20
 141.500
  30
0.0
  40
 2.00000
  50
 90.0000
  51
 180.000
   0
LINE
   8
LEVEL001
   6
DASHDOT
  62
1
  10
 220.500
  20
 150.500
  30
0.0
  11
 221.000
  21
 150.500
  31
0.0
   0
LINE
   8
LEVEL001
   6
DASHDOT
  62
1
  10
 220.500
  20
 143.500
  30
0.0
  11
 221.000
  21
 143.500
  31
0.0
   0
ARC
   8
LEVEL001
   6
DASHDOT
  62
1
  10
 221.000
  20
 147.000
  30
0.0
  40
 3.50000
  50
 270.000
  51
 90.0000
   0
LINE
   8
LEVEL001
   6
CONTINUOUS
  62
7
  10
 168.984
  20
 137.500
  30
0.0
  11
 168.984
  21
 141.169
  31
0.0
   0
LINE
   8
LEVEL001
   6
CONTINUOUS
  62
7
  10
 168.984
  20
 152.831
  30
0.0
  11
 168.984
  21
 156.500
  31
0.0
   0
LINE
   8
LEVEL001
   6
CONTINUOUS
  62
7
  10
 163.500
  20
 142.961
  30
0.0
  11
 177.500
  21
 152.831
  31
0.0
   0
LINE
   8
LEVEL001
   6
CONTINUOUS
  62
7
  10
 163.500
  20
 151.039
  30
0.0
  11
 177.500
  21
 141.169
  31
0.0
   0
LINE
   8
LEVEL001
   6
CONTINUOUS
  62
3
  10
 163.884
  20
 154.674
  30
0.0
  11
 163.884
  21
 151.039
  31
0.0
   0
LINE
   8
LEVEL001
   6
CONTINUOUS
  62
3
  10
 163.884
  20
 142.961
  30
0.0
  11
 163.884
  21
 139.326
  31
0.0
   0
LINE
   8
LEVEL001
   6
CONTINUOUS
  62
7
  10
 167.500
  20
 155.644
  30
0.0
  11
 167.500
  21
 151.297
  31
0.0
   0
LINE
   8
LEVEL001
   6
CONTINUOUS
  62
7
  10
 167.500
  20
 142.703
  30
0.0
  11
 167.500
  21
 138.356
  31
0.0
   0
LINE
   8
LEVEL001
   6
CONTINUOUS
  62
3
  10
 191.000
  20
 134.000
  30
0.0
  11
 202.000
  21
 134.000
  31
0.0
   0
LINE
   8
LEVEL001
   6
CONTINUOUS
  62
3
  10
 191.000
  20
 136.000
  30
0.0
  11
 202.000
  21
 136.000
  31
0.0
   0
LINE
   8
LEVEL001
   6
CONTINUOUS
  62
3
  10
 191.000
  20
 138.000
  30
0.0
  11
 202.000
  21
 138.000
  31
0.0
   0
LINE
   8
LEVEL001
   6
CONTINUOUS
  62
3
  10
 191.000
  20
 140.000
  30
0.0
  11
 202.000
  21
 140.000
  31
0.0
   0
LINE
   8
LEVEL001
   6
CONTINUOUS
  62
3
  10
 191.000
  20
 142.000
  30
0.0
  11
 202.000
  21
 142.000
  31
0.0
   0
LINE
   8
LEVEL001
   6
CONTINUOUS
  62
3
  10
 191.000
  20
 144.000
  30
0.0
  11
 202.000
  21
 144.000
  31
0.0
   0
LINE
   8
LEVEL001
   6
CONTINUOUS
  62
3
  10
 191.000
  20
 146.000
  30
0.0
  11
 202.000
  21
 146.000
  31
0.0
   0
LINE
   8
LEVEL001
   6
CONTINUOUS
  62
3
  10
 191.000
  20
 148.000
  30
0.0
  11
 202.000
  21
 148.000
  31
0.0
   0
LINE
   8
LEVEL001
   6
CONTINUOUS
  62
3
  10
 191.000
  20
 150.000
  30
0.0
  11
 202.000
  21
 150.000
  31
0.0
   0
LINE
   8
LEVEL001
   6
CONTINUOUS
  62
3
  10
 191.000
  20
 152.000
  30
0.0
  11
 202.000
  21
 152.000
  31
0.0
   0
LINE
   8
LEVEL001
   6
CONTINUOUS
  62
3
  10
 191.000
  20
 154.000
  30
0.0
  11
 202.000
  21
 154.000
  31
0.0
   0
LINE
   8
LEVEL001
   6
CONTINUOUS
  62
3
  10
 191.000
  20
 156.000
  30
0.0
  11
 202.000
  21
 156.000
  31
0.0
   0
LINE
   8
LEVEL001
   6
CONTINUOUS
  62
3
  10
 191.000
  20
 158.000
  30
0.0
  11
 202.000
  21
 158.000
  31
0.0
   0
LINE
   8
LEVEL001
   6
CONTINUOUS
  62
3
  10
 191.000
  20
 160.000
  30
0.0
  11
 202.000
  21
 160.000
  31
0.0
   0
LINE
   8
LEVEL001
   6
CONTINUOUS
  62
7
  10
 163.500
  20
 142.961
  30
0.0
  11
 163.500
  21
 151.039
  31
0.0
   0
LINE
   8
LEVEL001
   6
CONTINUOUS
  62
7
  10
 163.500
  20
 151.039
  30
0.0
  11
 167.500
  21
 151.297
  31
0.0
   0
LINE
   8
LEVEL001
   6
CONTINUOUS
  62
7
  10
 167.500
  20
 151.297
  30
0.0
  11
 168.984
  21
 152.831
  31
0.0
   0
LINE
   8
LEVEL001
   6
CONTINUOUS
  62
7
  10
 168.984
  20
 152.831
  30
0.0
  11
 177.500
  21
 152.831
  31
0.0
   0
LINE
   8
LEVEL001
   6
CONTINUOUS
  62
7
  10
 177.500
  20
 152.831
  30
0.0
  11
 177.500
  21
 141.169
  31
0.0
   0
LINE
   8
LEVEL001
   6
CONTINUOUS
  62
7
  10
 177.500
  20
 141.169
  30
0.0
  11
 168.984
  21
 141.169
  31
0.0
   0
LINE
   8
LEVEL001
   6
CONTINUOUS
  62
7
  10
 168.984
  20
 141.169
  30
0.0
  11
 167.500
  21
 142.703
  31
0.0
   0
LINE
   8
LEVEL001
   6
CONTINUOUS
  62
7
  10
 167.500
  20
 142.703
  30
0.0
  11
 163.500
  21
 142.961
  31
0.0
   0
LINE
   8
LEVEL001
   6
CONTINUOUS
  62
7
  10
 191.000
  20
 132.000
  30
0.0
  11
 191.000
  21
 162.000
  31
0.0
   0
LINE
   8
LEVEL001
   6
CONTINUOUS
  62
7
  10
 191.000
  20
 162.000
  30
0.0
  11
 202.000
  21
 162.000
  31
0.0
   0
LINE
   8
LEVEL001
   6
CONTINUOUS
  62
7
  10
 202.000
  20
 162.000
  30
0.0
  11
 202.000
  21
 132.000
  31
0.0
   0
LINE
   8
LEVEL001
   6
CONTINUOUS
  62
7
  10
 202.000
  20
 132.000
  30
0.0
  11
 191.000
  21
 132.000
  31
0.0
   0
LINE
   8
LEVEL001
   6
CONTINUOUS
  62
7
  10
 156.000
  20
 266.000
  30
0.0
  11
 155.000
  21
 267.000
  31
0.0
   0
LINE
   8
LEVEL001
   6
CONTINUOUS
  62
7
  10
 156.000
  20
 262.000
  30
0.0
  11
 156.000
  21
 266.000
  31
0.0
   0
LINE
   8
LEVEL001
   6
CONTINUOUS
  62
7
  10
 156.500
  20
 262.000
  30
0.0
  11
 157.500
  21
 261.000
  31
0.0
   0
LINE
   8
LEVEL001
   6
CONTINUOUS
  62
7
  10
 157.500
  20
 261.000
  30
0.0
  11
 157.500
  21
 223.268
  31
0.0
   0
LINE
   8
LEVEL001
   6
CONTINUOUS
  62
3
  10
 156.500
  20
 227.000
  30
0.0
  11
 157.500
  21
 223.268
  31
0.0
   0
LINE
   8
LEVEL001
   6
DASHDOT
  62
1
  10
 160.500
  20
 262.000
  30
0.0
  11
 160.500
  21
 227.000
  31
0.0
   0
LINE
   8
LEVEL001
   6
DASHDOT
  62
1
  10
 156.500
  20
 262.000
  30
0.0
  11
 160.500
  21
 262.000
  31
0.0
   0
LINE
   8
LEVEL001
   6
DASHDOT
  62
1
  10
 157.500
  20
 227.000
  30
0.0
  11
 160.500
  21
 227.000
  31
0.0
   0
LINE
   8
LEVEL001
   6
CONTINUOUS
  62
7
  10
 140.000
  20
 274.000
  30
0.0
  11
 139.000
  21
 275.000
  31
0.0
   0
LINE
   8
LEVEL001
   6
CONTINUOUS
  62
7
  10
 90.0000
  20
 274.000
  30
0.0
  11
 91.0000
  21
 275.000
  31
0.0
   0
LINE
   8
LEVEL001
   6
CONTINUOUS
  62
7
  10
 139.000
  20
 275.000
  30
0.0
  11
 91.0000
  21
 275.000
  31
0.0
   0
LINE
   8
LEVEL001
   6
CONTINUOUS
  62
7
  10
 140.000
  20
 274.000
  30
0.0
  11
 140.000
  21
 267.000
  31
0.0
   0
LINE
   8
LEVEL001
   6
CONTINUOUS
  62
7
  10
 90.0000
  20
 274.000
  30
0.0
  11
 90.0000
  21
 267.000
  31
0.0
   0
LINE
   8
LEVEL001
   6
CONTINUOUS
  62
7
  10
 74.0000
  20
 266.000
  30
0.0
  11
 75.0000
  21
 267.000
  31
0.0
   0
LINE
   8
LEVEL001
   6
CONTINUOUS
  62
7
  10
 74.0000
  20
 262.000
  30
0.0
  11
 74.0000
  21
 266.000
  31
0.0
   0
LINE
   8
LEVEL001
   6
CONTINUOUS
  62
7
  10
 73.5000
  20
 262.000
  30
0.0
  11
 72.5000
  21
 261.000
  31
0.0
   0
LINE
   8
LEVEL001
   6
CONTINUOUS
  62
7
  10
 72.5000
  20
 261.000
  30
0.0
  11
 72.5000
  21
 223.268
  31
0.0
   0
LINE
   8
LEVEL001
   6
DASHDOT
  62
1
  10
 73.5000
  20
 262.000
  30
0.0
  11
 69.5000
  21
 262.000
  31
0.0
   0
LINE
   8
LEVEL001
   6
DASHDOT
  62
1
  10
 69.5000
  20
 262.000
  30
0.0
  11
 69.5000
  21
 227.000
  31
0.0
   0
LINE
   8
LEVEL001
   6
CONTINUOUS
  62
3
  10
 73.5000
  20
 227.000
  30
0.0
  11
 72.5000
  21
 223.268
  31
0.0
   0
LINE
   8
LEVEL001
   6
CONTINUOUS
  62
7
  10
 72.5000
  20
 126.000
  30
0.0
  11
 72.5000
  21
 223.268
  31
0.0
   0
LINE
   8
LEVEL001
   6
DASHDOT
  62
1
  10
 72.5000
  20
 227.000
  30
0.0
  11
 69.5000
  21
 227.000
  31
0.0
   0
LINE
   8
LEVEL001
   6
DASHDOT
  62
1
  10
 115.000
  20
 120.000
  30
0.0
  11
 115.000
  21
 195.000
  31
0.0
   0
LINE
   8
LEVEL001
   6
DASHDOT
  62
1
  10
 115.000
  20
 200.000
  30
0.0
  11
 115.000
  21
 279.000
  31
0.0
   0
LINE
   8
LEVEL001
   6
CONTINUOUS
  62
7
  10
 73.5000
  20
 125.000
  30
0.0
  11
 156.500
  21
 125.000
  31
0.0
   0
LINE
   8
LEVEL001
   6
CONTINUOUS
  62
7
  10
 72.5000
  20
 126.000
  30
0.0
  11
 73.5000
  21
 125.000
  31
0.0
   0
LINE
   8
LEVEL001
   6
CONTINUOUS
  62
7
  10
 157.500
  20
 126.000
  30
0.0
  11
 156.500
  21
 125.000
  31
0.0
   0
LINE
   8
LEVEL003
   6
CONTINUOUS
  62
3
  10
 157.500
  20
 125.000
  30
0.0
  11
 242.000
  21
 125.000
  31
0.0
   0
LINE
   8
LEVEL003
   6
CONTINUOUS
  62
3
  10
 228.500
  20
 147.000
  30
0.0
  11
 242.000
  21
 147.000
  31
0.0
   0
LINE
   8
LEVEL003
   6
CONTINUOUS
  62
3
  10
 240.000
  20
 125.000
  30
0.0
  11
 240.000
  21
 147.000
  31
0.0
   0
LINE
   8
LEVEL003
   6
CONTINUOUS
  62
3
  10
 240.000
  20
 125.000
  30
0.0
  11
 240.529
  21
 128.000
  31
0.0
   0
LINE
   8
LEVEL003
   6
CONTINUOUS
  62
3
  10
 240.000
  20
 125.000
  30
0.0
  11
 239.471
  21
 128.000
  31
0.0
   0
LINE
   8
LEVEL003
   6
CONTINUOUS
  62
3
  10
 240.000
  20
 147.000
  30
0.0
  11
 239.471
  21
 144.000
  31
0.0
   0
LINE
   8
LEVEL003
   6
CONTINUOUS
  62
3
  10
 240.000
  20
 147.000
  30
0.0
  11
 240.529
  21
 144.000
  31
0.0
   0
TEXT
   8
LEVEL003
  62
3
  10
 239.200
  20
 134.000
  30
0.0
  40
 4.00000
   1
22
  50
 90.0000
  41
 0.500000
   7
STANDARD
  72
1
  11
 239.200
  21
 136.000
  31
0.0
   0
LINE
   8
LEVEL003
   6
CONTINUOUS
  62
3
  10
 157.500
  20
 125.000
  30
0.0
  11
 257.000
  21
 125.000
  31
0.0
   0
LINE
   8
LEVEL003
   6
CONTINUOUS
  62
3
  10
 140.000
  20
 275.000
  30
0.0
  11
 257.000
  21
 275.000
  31
0.0
   0
LINE
   8
LEVEL003
   6
CONTINUOUS
  62
3
  10
 255.000
  20
 125.000
  30
0.0
  11
 255.000
  21
 275.000
  31
0.0
   0
LINE
   8
LEVEL003
   6
CONTINUOUS
  62
3
  10
 255.000
  20
 125.000
  30
0.0
  11
 255.529
  21
 128.000
  31
0.0
   0
LINE
   8
LEVEL003
   6
CONTINUOUS
  62
3
  10
 255.000
  20
 125.000
  30
0.0
  11
 254.471
  21
 128.000
  31
0.0
   0
LINE
   8
LEVEL003
   6
CONTINUOUS
  62
3
  10
 255.000
  20
 275.000
  30
0.0
  11
 254.471
  21
 272.000
  31
0.0
   0
LINE
   8
LEVEL003
   6
CONTINUOUS
  62
3
  10
 255.000
  20
 275.000
  30
0.0
  11
 255.529
  21
 272.000
  31
0.0
   0
TEXT
   8
LEVEL003
  62
3
  10
 254.200
  20
 197.000
  30
0.0
  40
 4.00000
   1
150
  50
 90.0000
  41
 0.500000
   7
STANDARD
  72
1
  11
 254.200
  21
 200.000
  31
0.0
   0
LINE
   8
LEVEL003
   6
CONTINUOUS
  62
3
  10
 82.5000
  20
 195.000
  30
0.0
  11
 147.500
  21
 195.000
  31
0.0
   0
LINE
   8
LEVEL003
   6
CONTINUOUS
  62
3
  10
 82.5000
  20
 195.000
  30
0.0
  11
 85.5000
  21
 194.471
  31
0.0
   0
LINE
   8
LEVEL003
   6
CONTINUOUS
  62
3
  10
 82.5000
  20
 195.000
  30
0.0
  11
 85.5000
  21
 195.529
  31
0.0
   0
LINE
   8
LEVEL003
   6
CONTINUOUS
  62
3
  10
 147.500
  20
 195.000
  30
0.0
  11
 144.500
  21
 195.529
  31
0.0
   0
LINE
   8
LEVEL003
   6
CONTINUOUS
  62
3
  10
 147.500
  20
 195.000
  30
0.0
  11
 144.500
  21
 194.471
  31
0.0
   0
TEXT
   8
LEVEL003
  62
3
  10
 111.000
  20
 195.800
  30
0.0
  40
 4.00000
   1
%%c65
   7
STANDARD
  72
1
  11
 115.000
  21
 195.800
  31
0.0
   0
TEXT
   8
LEVEL003
  62
3
  10
 190.000
  20
 255.000
  30
0.0
  40
 4.00000
   1
Ｍ８５×２
   7
STANDARD
   0
LINE
   8
LEVEL003
   6
CONTINUOUS
  62
3
  10
 161.558
  20
 138.542
  30
0.0
  11
 170.000
  21
 110.000
  31
0.0
   0
LINE
   8
LEVEL003
   6
CONTINUOUS
  62
3
  10
 161.558
  20
 138.542
  30
0.0
  11
 161.901
  21
 135.515
  31
0.0
   0
LINE
   8
LEVEL003
   6
CONTINUOUS
  62
3
  10
 161.558
  20
 138.542
  30
0.0
  11
 162.916
  21
 135.815
  31
0.0
   0
TEXT
   8
LEVEL003
  62
3
  10
 170.000
  20
 110.000
  30
0.0
  40
 4.00000
   1
ＮＰＴ３／８
   7
STANDARD
   0
LINE
   8
LEVEL001
   6
CONTINUOUS
  62
7
  10
 115.000
  20
 54.6188
  30
0.0
  11
 119.000
  21
 52.3094
  31
0.0
   0
LINE
   8
LEVEL001
   6
CONTINUOUS
  62
7
  10
 119.000
  20
 52.3094
  30
0.0
  11
 119.000
  21
 47.6906
  31
0.0
   0
LINE
   8
LEVEL001
   6
CONTINUOUS
  62
7
  10
 119.000
  20
 47.6906
  30
0.0
  11
 115.000
  21
 45.3812
  31
0.0
   0
LINE
   8
LEVEL001
   6
CONTINUOUS
  62
7
  10
 115.000
  20
 45.3812
  30
0.0
  11
 111.000
  21
 47.6906
  31
0.0
   0
LINE
   8
LEVEL001
   6
CONTINUOUS
  62
7
  10
 111.000
  20
 47.6906
  30
0.0
  11
 111.000
  21
 52.3094
  31
0.0
   0
LINE
   8
LEVEL001
   6
CONTINUOUS
  62
7
  10
 111.000
  20
 52.3094
  30
0.0
  11
 115.000
  21
 54.6188
  31
0.0
   0
CIRCLE
   8
LEVEL001
   6
CONTINUOUS
  62
7
  10
 115.000
  20
 50.0000
  30
0.0
  40
 8.33100
   0
CIRCLE
   8
LEVEL001
   6
CONTINUOUS
  62
3
  10
 115.000
  20
 50.0000
  30
0.0
  40
 7.47500
   0
CIRCLE
   8
LEVEL001
   6
CONTINUOUS
  62
7
  10
 115.000
  20
 50.0000
  30
0.0
  40
 42.5000
   0
CIRCLE
   8
LEVEL001
   6
CONTINUOUS
  62
7
  10
 115.000
  20
 50.0000
  30
0.0
  40
 41.5000
   0
CIRCLE
   8
LEVEL001
   6
CONTINUOUS
  62
7
  10
 115.000
  20
 50.0000
  30
0.0
  40
 9.83093
   0
LINE
   8
LEVEL001
   6
DASHDOT
  62
1
  10
 115.000
  20
 98.1950
  30
0.0
  11
 115.000
  21
 1.80500
  31
0.0
   0
LINE
   8
LEVEL001
   6
CONTINUOUS
  62
3
  10
 163.884
  20
 57.5000
  30
0.0
  11
 163.884
  21
 42.5000
  31
0.0
   0
LINE
   8
LEVEL001
   6
CONTINUOUS
  62
7
  10
 167.500
  20
 57.5000
  30
0.0
  11
 167.500
  21
 42.5000
  31
0.0
   0
LINE
   8
LEVEL001
   6
CONTINUOUS
  62
7
  10
 168.984
  20
 42.5000
  30
0.0
  11
 168.984
  21
 57.5000
  31
0.0
   0
LINE
   8
LEVEL001
   6
CONTINUOUS
  62
7
  10
 163.500
  20
 58.5185
  30
0.0
  11
 157.500
  21
 58.3310
  31
0.0
   0
LINE
   8
LEVEL001
   6
CONTINUOUS
  62
3
  10
 163.500
  20
 57.6625
  30
0.0
  11
 157.500
  21
 57.4750
  31
0.0
   0
LINE
   8
LEVEL001
   6
CONTINUOUS
  62
3
  10
 163.495
  20
 42.3376
  30
0.0
  11
 157.500
  21
 42.5250
  31
0.0
   0
LINE
   8
LEVEL001
   6
CONTINUOUS
  62
7
  10
 163.500
  20
 41.4815
  30
0.0
  11
 157.500
  21
 41.6690
  31
0.0
   0
LINE
   8
LEVEL001
   6
DASHDOT
  62
1
  10
 190.000
  20
 50.0000
  30
0.0
  11
 66.8050
  21
 50.0000
  31
0.0
   0
CIRCLE
   8
LEVEL001
   6
CONTINUOUS
  62
7
  10
 95.5546
  20
 69.4454
  30
0.0
  40
 4.25000
   0
CIRCLE
   8
LEVEL001
   6
CONTINUOUS
  62
3
  10
 95.5546
  20
 69.4454
  30
0.0
  40
 5.00000
   0
LINE
   8
LEVEL001
   6
DASHDOT
  62
1
  10
 89.8977
  20
 75.1023
  30
0.0
  11
 101.211
  21
 63.7886
  31
0.0
   0
CIRCLE
   8
LEVEL001
   6
CONTINUOUS
  62
7
  10
 134.445
  20
 69.4454
  30
0.0
  40
 4.25000
   0
CIRCLE
   8
LEVEL001
   6
CONTINUOUS
  62
3
  10
 134.445
  20
 69.4454
  30
0.0
  40
 5.00000
   0
LINE
   8
LEVEL001
   6
DASHDOT
  62
1
  10
 140.102
  20
 75.1023
  30
0.0
  11
 128.789
  21
 63.7886
  31
0.0
   0
CIRCLE
   8
LEVEL001
   6
CONTINUOUS
  62
7
  10
 95.5546
  20
 30.5546
  30
0.0
  40
 4.25000
   0
CIRCLE
   8
LEVEL001
   6
CONTINUOUS
  62
3
  10
 95.5546
  20
 30.5546
  30
0.0
  40
 5.00000
   0
LINE
   8
LEVEL001
   6
DASHDOT
  62
1
  10
 89.8977
  20
 24.8977
  30
0.0
  11
 101.211
  21
 36.2114
  31
0.0
   0
CIRCLE
   8
LEVEL001
   6
CONTINUOUS
  62
7
  10
 134.445
  20
 30.5546
  30
0.0
  40
 4.25000
   0
CIRCLE
   8
LEVEL001
   6
CONTINUOUS
  62
3
  10
 134.445
  20
 30.5546
  30
0.0
  40
 5.00000
   0
LINE
   8
LEVEL001
   6
DASHDOT
  62
1
  10
 140.102
  20
 24.8977
  30
0.0
  11
 128.789
  21
 36.2114
  31
0.0
   0
CIRCLE
   8
LEVEL001
   6
DASHDOT
  62
1
  10
 115.000
  20
 50.0000
  30
0.0
  40
 27.5000
   0
ARC
   8
LEVEL001
   6
CONTINUOUS
  62
7
  10
 186.000
  20
 63.0000
  30
0.0
  40
 1.50000
  50
 90.0000
  51
 180.000
   0
LINE
   8
LEVEL001
   6
CONTINUOUS
  62
7
  10
 186.000
  20
 64.5000
  30
0.0
  11
 191.000
  21
 64.5000
  31
0.0
   0
ARC
   8
LEVEL001
   6
CONTINUOUS
  62
7
  10
 186.000
  20
 37.0000
  30
0.0
  40
 1.50000
  50
 180.000
  51
 270.000
   0
LINE
   8
LEVEL001
   6
CONTINUOUS
  62
7
  10
 184.500
  20
 37.0000
  30
0.0
  11
 184.500
  21
 63.0000
  31
0.0
   0
LINE
   8
LEVEL001
   6
CONTINUOUS
  62
7
  10
 186.000
  20
 35.5000
  30
0.0
  11
 191.000
  21
 35.5000
  31
0.0
   0
ARC
   8
LEVEL001
   6
CONTINUOUS
  62
7
  10
 207.000
  20
 63.0000
  30
0.0
  40
 1.50000
  50
0.0
  51
 90.0000
   0
LINE
   8
LEVEL001
   6
CONTINUOUS
  62
7
  10
 202.000
  20
 64.5000
  30
0.0
  11
 207.000
  21
 64.5000
  31
0.0
   0
ARC
   8
LEVEL001
   6
CONTINUOUS
  62
7
  10
 207.000
  20
 37.0000
  30
0.0
  40
 1.50000
  50
 270.000
  51
0.0
   0
LINE
   8
LEVEL001
   6
CONTINUOUS
  62
7
  10
 202.000
  20
 35.5000
  30
0.0
  11
 207.000
  21
 35.5000
  31
0.0
   0
LINE
   8
LEVEL001
   6
CONTINUOUS
  62
7
  10
 208.500
  20
 63.0000
  30
0.0
  11
 208.500
  21
 37.0000
  31
0.0
   0
ARC
   8
LEVEL001
   6
DASHDOT
  62
1
  10
 217.500
  20
 63.0000
  30
0.0
  40
 1.00000
  50
0.0
  51
 90.0000
   0
LINE
   8
LEVEL001
   6
DASHDOT
  62
1
  10
 209.500
  20
 64.0000
  30
0.0
  11
 217.500
  21
 64.0000
  31
0.0
   0
ARC
   8
LEVEL001
   6
DASHDOT
  62
1
  10
 217.500
  20
 37.0000
  30
0.0
  40
 1.00000
  50
 270.000
  51
0.0
   0
LINE
   8
LEVEL001
   6
DASHDOT
  62
1
  10
 209.500
  20
 36.0000
  30
0.0
  11
 217.500
  21
 36.0000
  31
0.0
   0
LINE
   8
LEVEL001
   6
DASHDOT
  62
1
  10
 218.500
  20
 63.0000
  30
0.0
  11
 218.500
  21
 37.0000
  31
0.0
   0
ARC
   8
LEVEL001
   6
DASHDOT
  62
1
  10
 209.500
  20
 37.0000
  30
0.0
  40
 1.00000
  50
 180.000
  51
 270.000
   0
ARC
   8
LEVEL001
   6
DASHDOT
  62
1
  10
 209.500
  20
 63.0000
  30
0.0
  40
 1.00000
  50
 90.0000
  51
 180.000
   0
LINE
   8
LEVEL001
   6
CONTINUOUS
  62
3
  10
 191.000
  20
 37.0000
  30
0.0
  11
 202.000
  21
 37.0000
  31
0.0
   0
LINE
   8
LEVEL001
   6
CONTINUOUS
  62
3
  10
 191.000
  20
 39.0000
  30
0.0
  11
 202.000
  21
 39.0000
  31
0.0
   0
LINE
   8
LEVEL001
   6
CONTINUOUS
  62
3
  10
 191.000
  20
 41.0000
  30
0.0
  11
 202.000
  21
 41.0000
  31
0.0
   0
LINE
   8
LEVEL001
   6
CONTINUOUS
  62
3
  10
 191.000
  20
 43.0000
  30
0.0
  11
 202.000
  21
 43.0000
  31
0.0
   0
LINE
   8
LEVEL001
   6
CONTINUOUS
  62
3
  10
 191.000
  20
 45.0000
  30
0.0
  11
 202.000
  21
 45.0000
  31
0.0
   0
LINE
   8
LEVEL001
   6
CONTINUOUS
  62
3
  10
 191.000
  20
 47.0000
  30
0.0
  11
 202.000
  21
 47.0000
  31
0.0
   0
LINE
   8
LEVEL001
   6
CONTINUOUS
  62
3
  10
 191.000
  20
 49.0000
  30
0.0
  11
 202.000
  21
 49.0000
  31
0.0
   0
LINE
   8
LEVEL001
   6
CONTINUOUS
  62
3
  10
 191.000
  20
 51.0000
  30
0.0
  11
 202.000
  21
 51.0000
  31
0.0
   0
LINE
   8
LEVEL001
   6
CONTINUOUS
  62
3
  10
 191.000
  20
 53.0000
  30
0.0
  11
 202.000
  21
 53.0000
  31
0.0
   0
LINE
   8
LEVEL001
   6
CONTINUOUS
  62
3
  10
 191.000
  20
 55.0000
  30
0.0
  11
 202.000
  21
 55.0000
  31
0.0
   0
LINE
   8
LEVEL001
   6
CONTINUOUS
  62
3
  10
 191.000
  20
 57.0000
  30
0.0
  11
 202.000
  21
 57.0000
  31
0.0
   0
LINE
   8
LEVEL001
   6
CONTINUOUS
  62
3
  10
 191.000
  20
 59.0000
  30
0.0
  11
 202.000
  21
 59.0000
  31
0.0
   0
LINE
   8
LEVEL001
   6
CONTINUOUS
  62
3
  10
 191.000
  20
 61.0000
  30
0.0
  11
 202.000
  21
 61.0000
  31
0.0
   0
LINE
   8
LEVEL001
   6
CONTINUOUS
  62
3
  10
 191.000
  20
 63.0000
  30
0.0
  11
 202.000
  21
 63.0000
  31
0.0
   0
LINE
   8
LEVEL001
   6
DASHDOT
  62
1
  10
 227.500
  20
 50.0000
  30
0.0
  11
 147.500
  21
 50.0000
  31
0.0
   0
LINE
   8
LEVEL001
   6
DASHDOT
  62
1
  10
 218.500
  20
 52.0000
  30
0.0
  11
 224.500
  21
 52.0000
  31
0.0
   0
LINE
   8
LEVEL001
   6
DASHDOT
  62
1
  10
 224.500
  20
 52.0000
  30
0.0
  11
 224.500
  21
 48.0000
  31
0.0
   0
LINE
   8
LEVEL001
   6
DASHDOT
  62
1
  10
 224.500
  20
 48.0000
  30
0.0
  11
 218.500
  21
 48.0000
  31
0.0
   0
LINE
   8
LEVEL001
   6
CONTINUOUS
  62
7
  10
 163.500
  20
 58.5185
  30
0.0
  11
 163.500
  21
 57.5000
  31
0.0
   0
LINE
   8
LEVEL001
   6
CONTINUOUS
  62
7
  10
 163.500
  20
 57.5000
  30
0.0
  11
 177.500
  21
 57.5000
  31
0.0
   0
LINE
   8
LEVEL001
   6
CONTINUOUS
  62
7
  10
 177.500
  20
 57.5000
  30
0.0
  11
 177.500
  21
 59.5000
  31
0.0
   0
LINE
   8
LEVEL001
   6
CONTINUOUS
  62
7
  10
 177.500
  20
 59.5000
  30
0.0
  11
 184.500
  21
 59.5000
  31
0.0
   0
LINE
   8
LEVEL001
   6
CONTINUOUS
  62
7
  10
 163.500
  20
 41.4815
  30
0.0
  11
 163.500
  21
 42.5000
  31
0.0
   0
LINE
   8
LEVEL001
   6
CONTINUOUS
  62
7
  10
 163.500
  20
 42.5000
  30
0.0
  11
 177.500
  21
 42.5000
  31
0.0
   0
LINE
   8
LEVEL001
   6
CONTINUOUS
  62
7
  10
 177.500
  20
 42.5000
  30
0.0
  11
 177.500
  21
 40.5000
  31
0.0
   0
LINE
   8
LEVEL001
   6
CONTINUOUS
  62
7
  10
 177.500
  20
 40.5000
  30
0.0
  11
 184.500
  21
 40.5000
  31
0.0
   0
LINE
   8
LEVEL001
   6
CONTINUOUS
  62
7
  10
 191.000
  20
 35.0000
  30
0.0
  11
 191.000
  21
 65.0000
  31
0.0
   0
LINE
   8
LEVEL001
   6
CONTINUOUS
  62
7
  10
 191.000
  20
 65.0000
  30
0.0
  11
 202.000
  21
 65.0000
  31
0.0
   0
LINE
   8
LEVEL001
   6
CONTINUOUS
  62
7
  10
 202.000
  20
 65.0000
  30
0.0
  11
 202.000
  21
 35.0000
  31
0.0
   0
LINE
   8
LEVEL001
   6
CONTINUOUS
  62
7
  10
 202.000
  20
 35.0000
  30
0.0
  11
 191.000
  21
 35.0000
  31
0.0
   0
LINE
   8
LEVEL001
   6
CONTINUOUS
  62
7
  10
 155.000
  20
 267.000
  30
0.0
  11
 75.0000
  21
 267.000
  31
0.0
   0
LINE
   8
LEVEL001
   6
CONTINUOUS
  62
7
  10
 90.0000
  20
 274.000
  30
0.0
  11
 140.000
  21
 274.000
  31
0.0
   0
LINE
   8
LEVEL001
   6
CONTINUOUS
  62
7
  10
 156.000
  20
 266.000
  30
0.0
  11
 74.0000
  21
 266.000
  31
0.0
   0
LINE
   8
LEVEL001
   6
CONTINUOUS
  62
7
  10
 156.500
  20
 262.000
  30
0.0
  11
 73.5000
  21
 262.000
  31
0.0
   0
LINE
   8
LEVEL001
   6
CONTINUOUS
  62
3
  10
 156.500
  20
 262.000
  30
0.0
  11
 156.500
  21
 227.000
  31
0.0
   0
LINE
   8
LEVEL001
   6
CONTINUOUS
  62
3
  10
 73.5000
  20
 262.000
  30
0.0
  11
 73.5000
  21
 227.000
  31
0.0
   0
LINE
   8
LEVEL001
   6
CONTINUOUS
  62
7
  10
 157.500
  20
 223.268
  30
0.0
  11
 72.5000
  21
 223.268
  31
0.0
   0
LINE
   8
LEVEL001
   6
CONTINUOUS
  62
3
  10
 72.5000
  20
 227.000
  30
0.0
  11
 157.500
  21
 227.000
  31
0.0
   0
LINE
   8
LEVEL001
   6
CONTINUOUS
  62
3
  10
 72.5000
  20
 261.000
  30
0.0
  11
 157.500
  21
 261.000
  31
0.0
   0
LINE
   8
LEVEL001
   6
CONTINUOUS
  62
7
  10
 167.500
  20
 155.644
  30
0.0
  11
 157.500
  21
 155.331
  31
0.0
   0
LINE
   8
LEVEL001
   6
CONTINUOUS
  62
7
  10
 167.500
  20
 138.356
  30
0.0
  11
 157.500
  21
 138.669
  31
0.0
   0
LINE
   8
LEVEL001
   6
CONTINUOUS
  62
7
  10
 157.500
  20
 126.000
  30
0.0
  11
 157.500
  21
 223.268
  31
0.0
   0
LINE
   8
LEVEL001
   6
CONTINUOUS
  62
3
  10
 163.884
  20
 154.674
  30
0.0
  11
 157.500
  21
 154.475
  31
0.0
   0
LINE
   8
LEVEL001
   6
CONTINUOUS
  62
3
  10
 163.884
  20
 139.326
  30
0.0
  11
 157.500
  21
 139.525
  31
0.0
   0
LINE
   8
LEVEL001
   6
CONTINUOUS
  62
7
  10
 72.5000
  20
 126.000
  30
0.0
  11
 157.500
  21
 126.000
  31
0.0
   0
LINE
   8
LEVEL003
   6
CONTINUOUS
  62
3
  10
 87.5000
  20
 125.000
  30
0.0
  11
 70.0000
  21
 110.000
  31
0.0
   0
LINE
   8
LEVEL003
   6
CONTINUOUS
  62
3
  10
 87.5000
  20
 125.000
  30
0.0
  11
 84.8780
  21
 123.449
  31
0.0
   0
LINE
   8
LEVEL003
   6
CONTINUOUS
  62
3
  10
 87.5000
  20
 125.000
  30
0.0
  11
 85.5665
  21
 122.646
  31
0.0
   0
LINE
   8
LEVEL004
   6
DOT
  62
3
  10
 91.7500
  20
 125.750
  30
0.0
  11
 83.2500
  21
 125.750
  31
0.0
   0
LINE
   8
LEVEL004
   6
DOT
  62
3
  10
 92.5000
  20
 125.000
  30
0.0
  11
 91.7500
  21
 125.750
  31
0.0
   0
LINE
   8
LEVEL004
   6
DOT
  62
3
  10
 91.7500
  20
 125.750
  30
0.0
  11
 91.7500
  21
 135.000
  31
0.0
   0
LINE
   8
LEVEL004
   6
DOT
  62
3
  10
 83.2500
  20
 135.000
  30
0.0
  11
 83.2500
  21
 125.750
  31
0.0
   0
LINE
   8
LEVEL004
   6
DOT
  62
3
  10
 83.2500
  20
 125.750
  30
0.0
  11
 82.5000
  21
 125.000
  31
0.0
   0
LINE
   8
LEVEL004
   6
DOT
  62
3
  10
 92.5000
  20
 125.000
  30
0.0
  11
 92.5000
  21
 135.000
  31
0.0
   0
LINE
   8
LEVEL004
   6
DOT
  62
3
  10
 82.5000
  20
 135.000
  30
0.0
  11
 82.5000
  21
 125.000
  31
0.0
   0
LINE
   8
LEVEL004
   6
DOT
  62
3
  10
 147.500
  20
 238.500
  30
0.0
  11
 147.500
  21
 166.300
  31
0.0
   0
LINE
   8
LEVEL004
   6
DOT
  62
3
  10
 143.000
  20
 196.500
  30
0.0
  11
 143.000
  21
 264.000
  31
0.0
   0
LINE
   8
LEVEL004
   6
DOT
  62
3
  10
 82.5000
  20
 238.500
  30
0.0
  11
 82.5000
  21
 166.085
  31
0.0
   0
LINE
   8
LEVEL004
   6
DOT
  62
3
  10
 87.0000
  20
 196.500
  30
0.0
  11
 87.0000
  21
 264.000
  31
0.0
   0
LINE
   8
LEVEL004
   6
DOT
  62
3
  10
 95.0000
  20
 266.500
  30
0.0
  11
 94.5000
  21
 267.000
  31
0.0
   0
LINE
   8
LEVEL004
   6
DOT
  62
3
  10
 95.0000
  20
 266.500
  30
0.0
  11
 95.0000
  21
 264.990
  31
0.0
   0
LINE
   8
LEVEL004
   6
DOT
  62
3
  10
 96.0000
  20
 264.000
  30
0.0
  11
 96.2500
  21
 264.000
  31
0.0
   0
ARC
   8
LEVEL004
   6
DOT
  62
3
  10
 94.7500
  20
 265.500
  30
0.0
  40
 1.50000
  50
0.0
  51
 90.0000
   0
LINE
   8
LEVEL004
   6
DOT
  62
3
  10
 96.2500
  20
 257.000
  30
0.0
  11
 108.250
  21
 257.000
  31
0.0
   0
LINE
   8
LEVEL004
   6
DOT
  62
3
  10
 108.250
  20
 257.000
  30
0.0
  11
 109.405
  21
 259.000
  31
0.0
   0
LINE
   8
LEVEL004
   6
DOT
  62
3
  10
 109.405
  20
 259.000
  30
0.0
  11
 108.250
  21
 261.000
  31
0.0
   0
LINE
   8
LEVEL004
   6
DOT
  62
3
  10
 108.250
  20
 261.000
  30
0.0
  11
 96.2500
  21
 261.000
  31
0.0
   0
LINE
   8
LEVEL004
   6
DOT
  62
3
  10
 108.250
  20
 261.000
  30
0.0
  11
 108.250
  21
 257.000
  31
0.0
   0
CIRCLE
   8
LEVEL004
   6
DOT
  62
3
  10
 97.9844
  20
 259.000
  30
0.0
  40
 1.98438
   0
LINE
   8
LEVEL004
   6
DOT
  62
3
  10
 96.2500
  20
 265.500
  30
0.0
  11
 96.2500
  21
 259.964
  31
0.0
   0
LINE
   8
LEVEL004
   6
DOT
  62
3
  10
 96.2500
  20
 254.000
  30
0.0
  11
 97.2500
  21
 253.000
  31
0.0
   0
LINE
   8
LEVEL004
   6
DOT
  62
3
  10
 96.2500
  20
 258.036
  30
0.0
  11
 96.2500
  21
 254.000
  31
0.0
   0
ARC
   8
LEVEL004
   6
DOT
  62
3
  10
 96.0000
  20
 247.000
  30
0.0
  40
 1.00000
  50
 90.0035
  51
 180.000
   0
ARC
   8
LEVEL004
   6
DOT
  62
3
  10
 96.0000
  20
 246.000
  30
0.0
  40
 1.00000
  50
 179.999
  51
 269.997
   0
LINE
   8
LEVEL004
   6
DOT
  62
3
  10
 95.0000
  20
 247.000
  30
0.0
  11
 95.0000
  21
 246.000
  31
0.0
   0
LINE
   8
LEVEL004
   6
DOT
  62
3
  10
 95.0000
  20
 265.000
  30
0.0
  11
 96.0000
  21
 264.000
  31
0.0
   0
LINE
   8
LEVEL004
   6
DOT
  62
3
  10
 96.0000
  20
 264.000
  30
0.0
  11
 96.0000
  21
 248.000
  31
0.0
   0
LINE
   8
LEVEL004
   6
DOT
  62
3
  10
 95.0000
  20
 265.000
  30
0.0
  11
 95.0000
  21
 247.000
  31
0.0
   0
LINE
   8
LEVEL004
   6
DOT
  62
3
  10
 133.750
  20
 254.000
  30
0.0
  11
 132.750
  21
 253.000
  31
0.0
   0
ARC
   8
LEVEL004
   6
DOT
  62
3
  10
 134.000
  20
 247.000
  30
0.0
  40
 1.00000
  50
0.0
  51
 89.9965
   0
ARC
   8
LEVEL004
   6
DOT
  62
3
  10
 134.000
  20
 246.000
  30
0.0
  40
 1.00000
  50
 270.003
  51
 0.874371E-3
   0
LINE
   8
LEVEL004
   6
DOT
  62
3
  10
 135.000
  20
 247.000
  30
0.0
  11
 135.000
  21
 246.000
  31
0.0
   0
LINE
   8
LEVEL004
   6
DOT
  62
3
  10
 132.750
  20
 253.000
  30
0.0
  11
 97.2500
  21
 253.000
  31
0.0
   0
LINE
   8
LEVEL004
   6
DOT
  62
3
  10
 134.000
  20
 245.000
  30
0.0
  11
 96.0000
  21
 245.000
  31
0.0
   0
LINE
   8
LEVEL004
   6
DOT
  62
3
  10
 134.000
  20
 248.000
  30
0.0
  11
 96.0000
  21
 248.000
  31
0.0
   0
LINE
   8
LEVEL004
   6
DOT
  62
3
  10
 135.000
  20
 266.500
  30
0.0
  11
 135.500
  21
 267.000
  31
0.0
   0
LINE
   8
LEVEL004
   6
DOT
  62
3
  10
 135.000
  20
 266.500
  30
0.0
  11
 135.000
  21
 264.990
  31
0.0
   0
LINE
   8
LEVEL004
   6
DOT
  62
3
  10
 134.000
  20
 264.000
  30
0.0
  11
 133.750
  21
 264.000
  31
0.0
   0
ARC
   8
LEVEL004
   6
DOT
  62
3
  10
 135.250
  20
 265.500
  30
0.0
  40
 1.50000
  50
 90.0000
  51
 180.000
   0
LINE
   8
LEVEL004
   6
DOT
  62
3
  10
 133.750
  20
 265.500
  30
0.0
  11
 133.750
  21
 254.000
  31
0.0
   0
LINE
   8
LEVEL004
   6
DOT
  62
3
  10
 135.000
  20
 265.000
  30
0.0
  11
 134.000
  21
 264.000
  31
0.0
   0
LINE
   8
LEVEL004
   6
DOT
  62
3
  10
 134.000
  20
 264.000
  30
0.0
  11
 134.000
  21
 248.000
  31
0.0
   0
LINE
   8
LEVEL004
   6
DOT
  62
3
  10
 135.000
  20
 265.000
  30
0.0
  11
 135.000
  21
 247.000
  31
0.0
   0
ARC
   8
LEVEL004
   6
DOT
  62
3
  10
 125.000
  20
 274.994
  30
0.0
  40
 1.00000
  50
 179.683
  51
 0.316518
   0
ARC
   8
LEVEL004
   6
DOT
  62
3
  10
 132.500
  20
 274.994
  30
0.0
  40
 1.00000
  50
 179.683
  51
 0.316518
   0
ARC
   8
LEVEL004
   6
DOT
  62
3
  10
 105.000
  20
 274.994
  30
0.0
  40
 1.00000
  50
 179.683
  51
 0.316518
   0
ARC
   8
LEVEL004
   6
DOT
  62
3
  10
 97.5000
  20
 274.994
  30
0.0
  40
 1.00000
  50
 179.683
  51
 0.316518
   0
LINE
   8
LEVEL004
   6
DASHDOT
  62
1
  10
 87.5000
  20
 122.000
  30
0.0
  11
 87.5000
  21
 135.000
  31
0.0
   0
LINE
   8
LEVEL004
   6
DASHDOT
  62
1
  10
 142.500
  20
 122.000
  30
0.0
  11
 142.500
  21
 135.000
  31
0.0
   0
LINE
   8
LEVEL004
   6
DASHDOT
  62
1
  10
 93.2500
  20
 259.000
  30
0.0
  11
 112.405
  21
 259.000
  31
0.0
   0
LINE
   8
LEVEL004
   6
DASHDOT
  62
1
  10
 108.539
  20
 257.500
  30
0.0
  11
 108.118
  21
 260.500
  31
0.0
   0
LINE
   8
LEVEL004
   6
DASHDOT
  62
1
  10
 108.118
  20
 260.500
  30
0.0
  11
 107.697
  21
 257.500
  31
0.0
   0
LINE
   8
LEVEL004
   6
DASHDOT
  62
1
  10
 107.697
  20
 257.500
  30
0.0
  11
 107.277
  21
 260.500
  31
0.0
   0
LINE
   8
LEVEL004
   6
DASHDOT
  62
1
  10
 107.277
  20
 260.500
  30
0.0
  11
 106.856
  21
 257.500
  31
0.0
   0
LINE
   8
LEVEL004
   6
DASHDOT
  62
1
  10
 106.856
  20
 257.500
  30
0.0
  11
 106.435
  21
 260.500
  31
0.0
   0
LINE
   8
LEVEL004
   6
DASHDOT
  62
1
  10
 106.435
  20
 260.500
  30
0.0
  11
 106.015
  21
 257.500
  31
0.0
   0
LINE
   8
LEVEL004
   6
DASHDOT
  62
1
  10
 106.015
  20
 257.500
  30
0.0
  11
 105.594
  21
 260.500
  31
0.0
   0
LINE
   8
LEVEL004
   6
DASHDOT
  62
1
  10
 105.594
  20
 260.500
  30
0.0
  11
 105.173
  21
 257.500
  31
0.0
   0
LINE
   8
LEVEL004
   6
DASHDOT
  62
1
  10
 105.173
  20
 257.500
  30
0.0
  11
 104.753
  21
 260.500
  31
0.0
   0
LINE
   8
LEVEL004
   6
DASHDOT
  62
1
  10
 104.753
  20
 260.500
  30
0.0
  11
 104.332
  21
 257.500
  31
0.0
   0
LINE
   8
LEVEL004
   6
DASHDOT
  62
1
  10
 104.332
  20
 257.500
  30
0.0
  11
 103.911
  21
 260.500
  31
0.0
   0
LINE
   8
LEVEL004
   6
DASHDOT
  62
1
  10
 103.911
  20
 260.500
  30
0.0
  11
 103.490
  21
 257.500
  31
0.0
   0
LINE
   8
LEVEL004
   6
DASHDOT
  62
1
  10
 103.490
  20
 257.500
  30
0.0
  11
 103.070
  21
 260.500
  31
0.0
   0
LINE
   8
LEVEL004
   6
DASHDOT
  62
1
  10
 103.070
  20
 260.500
  30
0.0
  11
 102.649
  21
 257.500
  31
0.0
   0
LINE
   8
LEVEL004
   6
DASHDOT
  62
1
  10
 102.649
  20
 257.500
  30
0.0
  11
 102.228
  21
 260.500
  31
0.0
   0
LINE
   8
LEVEL004
   6
DASHDOT
  62
1
  10
 102.228
  20
 260.500
  30
0.0
  11
 101.808
  21
 257.500
  31
0.0
   0
LINE
   8
LEVEL004
   6
DASHDOT
  62
1
  10
 101.808
  20
 257.500
  30
0.0
  11
 101.387
  21
 260.500
  31
0.0
   0
LINE
   8
LEVEL004
   6
DASHDOT
  62
1
  10
 101.387
  20
 260.500
  30
0.0
  11
 100.966
  21
 257.500
  31
0.0
   0
LINE
   8
LEVEL004
   6
DASHDOT
  62
1
  10
 100.966
  20
 257.500
  30
0.0
  11
 100.546
  21
 260.500
  31
0.0
   0
LINE
   8
LEVEL004
   6
DASHDOT
  62
1
  10
 100.546
  20
 260.500
  30
0.0
  11
 100.125
  21
 257.500
  31
0.0
   0
LINE
   8
LEVEL004
   6
DASHDOT
  62
1
  10
 100.125
  20
 257.500
  30
0.0
  11
 99.7043
  21
 260.500
  31
0.0
   0
LINE
   8
LEVEL001
   6
DASHDOT
  62
1
  10
 227.500
  20
 147.000
  30
0.0
  11
 145.000
  21
 147.000
  31
0.0
   0
TEXT
   8
LEVEL003
  62
7
  10
 236.691
  20
 10.2200
  30
0.0
  40
 10.0000
   1
ＯＳＡＫＡ ＪＡＣＫ
   7
STANDARD
   0
CIRCLE
   8
LEVEL003
   6
CONTINUOUS
  62
7
  10
 224.718
  20
 17.2707
  30
0.0
  40
 3.00000
   0
LINE
   8
LEVEL003
   6
CONTINUOUS
  62
7
  10
 230.606
  20
 20.2707
  30
0.0
  11
 226.797
  21
 13.6707
  31
0.0
   0
LINE
   8
LEVEL003
   6
CONTINUOUS
  62
7
  10
 226.797
  20
 13.6707
  30
0.0
  11
 219.176
  21
 13.6707
  31
0.0
   0
LINE
   8
LEVEL003
   6
CONTINUOUS
  62
7
  10
 218.309
  20
 12.1707
  30
0.0
  11
 231.930
  21
 12.1707
  31
0.0
   0
LINE
   8
LEVEL003
   6
CONTINUOUS
  62
7
  10
 231.930
  20
 12.1707
  30
0.0
  11
 236.606
  21
 20.2707
  31
0.0
   0
LINE
   8
LEVEL003
   6
CONTINUOUS
  62
7
  10
 236.606
  20
 20.2707
  30
0.0
  11
 230.606
  21
 20.2707
  31
0.0
   0
LINE
   8
LEVEL003
   6
CONTINUOUS
  62
7
  10
 219.176
  20
 13.6707
  30
0.0
  11
 218.309
  21
 12.1707
  31
0.0
   0
TEXT
   8
LEVEL003
  62
7
  10
 239.602
  20
 27.1134
  30
0.0
  40
 6.00000
   1
Model : Ｅ２３Ｓ５
   7
STANDARD
   0
LINE
   8
LEVEL003
   6
CONTINUOUS
  62
3
  10
 155.000
  20
 285.000
  30
0.0
  11
 177.578
  21
 285.000
  31
0.0
   0
LINE
   8
LEVEL003
   6
CONTINUOUS
  62
3
  10
 180.000
  20
 255.000
  30
0.0
  11
 213.179
  21
 255.000
  31
0.0
   0
LINE
   8
LEVEL003
   6
CONTINUOUS
  62
3
  10
 170.000
  20
 110.000
  30
0.0
  11
 198.748
  21
 110.000
  31
0.0
   0
TEXT
   8
LEVEL003
  62
3
  10
 25.2881
  20
 110.000
  30
0.0
  40
 4.00000
   1
４－Ｍ１０×１５Ｌ
   7
STANDARD
   0
LINE
   8
LEVEL003
   6
CONTINUOUS
  62
3
  10
 70.0000
  20
 110.000
  30
0.0
  11
 24.8125
  21
 110.000
  31
0.0
   0
LINE
   8
LEVEL003
   6
CONTINUOUS
  62
3
  10
 134.250
  20
 267.000
  30
0.0
  11
 128.000
  21
 267.000
  31
0.0
   0
LINE
   8
LEVEL003
   6
CONTINUOUS
  62
3
  10
 130.000
  20
 245.000
  30
0.0
  11
 130.000
  21
 245.000
  31
0.0
   0
LINE
   8
LEVEL003
   6
CONTINUOUS
  62
3
  10
 130.000
  20
 267.000
  30
0.0
  11
 130.000
  21
 245.000
  31
0.0
   0
LINE
   8
LEVEL003
   6
CONTINUOUS
  62
3
  10
 130.000
  20
 267.000
  30
0.0
  11
 129.471
  21
 264.000
  31
0.0
   0
LINE
   8
LEVEL003
   6
CONTINUOUS
  62
3
  10
 130.000
  20
 267.000
  30
0.0
  11
 130.529
  21
 264.000
  31
0.0
   0
LINE
   8
LEVEL003
   6
CONTINUOUS
  62
3
  10
 130.000
  20
 245.000
  30
0.0
  11
 130.529
  21
 248.000
  31
0.0
   0
LINE
   8
LEVEL003
   6
CONTINUOUS
  62
3
  10
 130.000
  20
 245.000
  30
0.0
  11
 129.471
  21
 248.000
  31
0.0
   0
TEXT
   8
LEVEL003
  62
3
  10
 129.200
  20
 257.000
  30
0.0
  40
 4.00000
   1
22
  50
 90.0000
   7
STANDARD
  72
1
  11
 129.200
  21
 261.000
  31
0.0
   0
LINE
   8
LEVEL003
   6
CONTINUOUS
  62
3
  10
 140.000
  20
 275.000
  30
0.0
  11
 187.000
  21
 275.000
  31
0.0
   0
LINE
   8
LEVEL003
   6
CONTINUOUS
  62
3
  10
 156.000
  20
 267.000
  30
0.0
  11
 187.000
  21
 267.000
  31
0.0
   0
LINE
   8
LEVEL003
   6
CONTINUOUS
  62
3
  10
 185.000
  20
 275.000
  30
0.0
  11
 185.000
  21
 267.000
  31
0.0
   0
LINE
   8
LEVEL003
   6
CONTINUOUS
  62
3
  10
 185.000
  20
 275.000
  30
0.0
  11
 184.471
  21
 272.000
  31
0.0
   0
LINE
   8
LEVEL003
   6
CONTINUOUS
  62
3
  10
 185.000
  20
 275.000
  30
0.0
  11
 185.529
  21
 272.000
  31
0.0
   0
LINE
   8
LEVEL003
   6
CONTINUOUS
  62
3
  10
 185.000
  20
 267.000
  30
0.0
  11
 185.529
  21
 270.000
  31
0.0
   0
LINE
   8
LEVEL003
   6
CONTINUOUS
  62
3
  10
 185.000
  20
 267.000
  30
0.0
  11
 184.471
  21
 270.000
  31
0.0
   0
TEXT
   8
LEVEL003
  62
3
  10
 184.200
  20
 269.000
  30
0.0
  40
 4.00000
   1
8
  50
 90.0000
   7
STANDARD
  72
1
  11
 184.200
  21
 271.000
  31
0.0
   0
LINE
   8
LEVEL003
   6
CONTINUOUS
  62
3
  10
 156.000
  20
 267.000
  30
0.0
  11
 187.000
  21
 267.000
  31
0.0
   0
LINE
   8
LEVEL003
   6
CONTINUOUS
  62
3
  10
 161.500
  20
 227.000
  30
0.0
  11
 187.000
  21
 227.000
  31
0.0
   0
LINE
   8
LEVEL003
   6
CONTINUOUS
  62
3
  10
 185.000
  20
 267.000
  30
0.0
  11
 185.000
  21
 227.000
  31
0.0
   0
LINE
   8
LEVEL003
   6
CONTINUOUS
  62
3
  10
 185.000
  20
 267.000
  30
0.0
  11
 184.471
  21
 264.000
  31
0.0
   0
LINE
   8
LEVEL003
   6
CONTINUOUS
  62
3
  10
 185.000
  20
 267.000
  30
0.0
  11
 185.529
  21
 264.000
  31
0.0
   0
LINE
   8
LEVEL003
   6
CONTINUOUS
  62
3
  10
 185.000
  20
 227.000
  30
0.0
  11
 185.529
  21
 230.000
  31
0.0
   0
LINE
   8
LEVEL003
   6
CONTINUOUS
  62
3
  10
 185.000
  20
 227.000
  30
0.0
  11
 184.471
  21
 230.000
  31
0.0
   0
TEXT
   8
LEVEL003
  62
3
  10
 184.200
  20
 243.000
  30
0.0
  40
 4.00000
   1
40
  50
 90.0000
   7
STANDARD
  72
1
  11
 184.200
  21
 247.000
  31
0.0
   0
LINE
   8
LEVEL003
   6
CONTINUOUS
  62
3
  10
 161.500
  20
 262.000
  30
0.0
  11
 177.000
  21
 262.000
  31
0.0
   0
LINE
   8
LEVEL003
   6
CONTINUOUS
  62
3
  10
 156.000
  20
 267.000
  30
0.0
  11
 177.000
  21
 267.000
  31
0.0
   0
LINE
   8
LEVEL003
   6
CONTINUOUS
  62
3
  10
 175.000
  20
 262.000
  30
0.0
  11
 175.000
  21
 267.000
  31
0.0
   0
LINE
   8
LEVEL003
   6
CONTINUOUS
  62
3
  10
 175.000
  20
 262.000
  30
0.0
  11
 174.471
  21
 259.000
  31
0.0
   0
LINE
   8
LEVEL003
   6
CONTINUOUS
  62
3
  10
 175.000
  20
 262.000
  30
0.0
  11
 175.529
  21
 259.000
  31
0.0
   0
LINE
   8
LEVEL003
   6
CONTINUOUS
  62
3
  10
 175.000
  20
 267.000
  30
0.0
  11
 175.529
  21
 270.000
  31
0.0
   0
LINE
   8
LEVEL003
   6
CONTINUOUS
  62
3
  10
 175.000
  20
 267.000
  30
0.0
  11
 174.471
  21
 270.000
  31
0.0
   0
LINE
   8
LEVEL003
   6
CONTINUOUS
  62
3
  10
 175.000
  20
 262.000
  30
0.0
  11
 175.000
  21
 258.250
  31
0.0
   0
LINE
   8
LEVEL003
   6
CONTINUOUS
  62
3
  10
 175.000
  20
 267.000
  30
0.0
  11
 175.000
  21
 270.750
  31
0.0
   0
TEXT
   8
LEVEL003
  62
3
  10
 174.200
  20
 262.500
  30
0.0
  40
 4.00000
   1
5
  50
 90.0000
   7
STANDARD
  72
1
  11
 174.200
  21
 264.500
  31
0.0
   0
ENDSEC
   0
EOF
