   0
SECTION
   2
HEADER
   9
$LIMMIN
  10
0.0
  20
0.0
   9
$LIMMAX
  10
 630.000
  20
 485.000
   9
$EXTMIN
  10
0.0
  20
0.0
   9
$EXTMAX
  10
 630.000
  20
 485.000
   9
$LTSCALE
  40
 12.6000
   0
ENDSEC
   0
SECTION
   2
TABLES
  0
TABLE
  2
LTYPE
 70
    25
  0
LTYPE
  2
CONTINUOUS
 70
    64
  3
Solid line
 72
    65
 73
     0
 40
0.0
  0
LTYPE
  2
BORDER
 70
    64
  3
__ __ . __ __ . __ __ . __ __ . __ __ . __ __ .
 72
    65
 73
     6
 40
1.75
 49
0.5
 49
-0.25
 49
0.5
 49
-0.25
 49
0.0
 49
-0.25
  0
LTYPE
  2
BORDER2
 70
    64
  3
__.__.__.__.__.__.__.__.__.__.__.__.__.__.__.__
 72
    65
 73
     6
 40
0.875
 49
0.25
 49
-0.125
 49
0.25
 49
-0.125
 49
0.0
 49
-0.125
  0
LTYPE
  2
BORDERX2
 70
    64
  3
____  ____  .  ____  ____  .  ____  ____  .  __
 72
    65
 73
     6
 40
3.5
 49
1.0
 49
-0.5
 49
1.0
 49
-0.5
 49
0.0
 49
-0.5
  0
LTYPE
  2
CENTER
 70
    64
  3
____ _ ____ _ ____ _ ____ _ ____ _ ____ _ ____ 
 72
    65
 73
     4
 40
2.0
 49
1.25
 49
-0.25
 49
0.25
 49
-0.25
  0
LTYPE
  2
CENTER2
 70
    64
  3
___ _ ___ _ ___ _ ___ _ ___ _ ___ _ ___ _ ___ _
 72
    65
 73
     4
 40
1.125
 49
0.75
 49
-0.125
 49
0.125
 49
-0.125
  0
LTYPE
  2
CENTERX2
 70
    64
  3
________  __  ________  __  ________  __  _____
 72
    65
 73
     4
 40
4.0
 49
2.5
 49
-0.5
 49
0.5
 49
-0.5
  0
LTYPE
  2
DASHDOT
 70
    64
  3
__ . __ . __ . __ . __ . __ . __ . __ . __ . __
 72
    65
 73
     4
 40
1.0
 49
0.5
 49
-0.25
 49
0.0
 49
-0.25
  0
LTYPE
  2
DASHDOT2
 70
    64
  3
_._._._._._._._._._._._._._._._._._._._._._._._
 72
    65
 73
     4
 40
0.5
 49
0.25
 49
-0.125
 49
0.0
 49
-0.125
  0
LTYPE
  2
DASHDOTX2
 70
    64
  3
____  .  ____  .  ____  .  ____  .  ____  .  __
 72
    65
 73
     4
 40
2.0
 49
1.0
 49
-0.5
 49
0.0
 49
-0.5
  0
LTYPE
  2
DASHED
 70
    64
  3
__ __ __ __ __ __ __ __ __ __ __ __ __ __ __ __
 72
    65
 73
     2
 40
0.75
 49
0.5
 49
-0.25
  0
LTYPE
  2
DASHED2
 70
    64
  3
_ _ _ _ _ _ _ _ _ _ _ _ _ _ _ _ _ _ _ _ _ _ _ _
 72
    65
 73
     2
 40
0.375
 49
0.25
 49
-0.125
  0
LTYPE
  2
DASHEDX2
 70
    64
  3
____  ____  ____  ____  ____  ____  ____  ____ 
 72
    65
 73
     2
 40
1.5
 49
1.0
 49
-0.5
  0
LTYPE
  2
DIVIDE
 70
    64
  3
____ . . ____ . . ____ . . ____ . . ____ . . __
 72
    65
 73
     6
 40
1.25
 49
0.5
 49
-0.25
 49
0.0
 49
-0.25
 49
0.0
 49
-0.25
  0
LTYPE
  2
DIVIDE2
 70
    64
  3
__..__..__..__..__..__..__..__..__..__..__..__.
 72
    65
 73
     6
 40
0.625
 49
0.25
 49
-0.125
 49
0.0
 49
-0.125
 49
0.0
 49
-0.125
  0
LTYPE
  2
DIVIDEX2
 70
    64
  3
________  .  .  ________  .  .  ________  .  . 
 72
    65
 73
     6
 40
2.5
 49
1.0
 49
-0.5
 49
0.0
 49
-0.5
 49
0.0
 49
-0.5
  0
LTYPE
  2
DOT
 70
    64
  3
. . . . . . . . . . . . . . . . . . . . . . . .
 72
    65
 73
     2
 40
0.25
 49
0.0
 49
-0.25
  0
LTYPE
  2
DOT2
 70
    64
  3
...............................................
 72
    65
 73
     2
 40
0.125
 49
0.0
 49
-0.125
  0
LTYPE
  2
DOTX2
 70
    64
  3
.  .  .  .  .  .  .  .  .  .  .  .  .  .  .  . 
 72
    65
 73
     2
 40
0.5
 49
0.0
 49
-0.5
  0
LTYPE
  2
HIDDEN
 70
    64
  3
__ __ __ __ __ __ __ __ __ __ __ __ __ __ __ __
 72
    65
 73
     2
 40
0.375
 49
0.25
 49
-0.125
  0
LTYPE
  2
HIDDEN2
 70
    64
  3
_ _ _ _ _ _ _ _ _ _ _ _ _ _ _ _ _ _ _ _ _ _ _ _
 72
    65
 73
     2
 40
0.1875
 49
0.125
 49
-0.0625
  0
LTYPE
  2
HIDDENX2
 70
    64
  3
____ ____ ____ ____ ____ ____ ____ ____ ____ __
 72
    65
 73
     2
 40
0.75
 49
0.5
 49
-0.25
  0
LTYPE
  2
PHANTOM
 70
    64
  3
______  __  __  ______  __  __  ______  __  __ 
 72
    65
 73
     6
 40
2.5
 49
1.25
 49
-0.25
 49
0.25
 49
-0.25
 49
0.25
 49
-0.25
  0
LTYPE
  2
PHANTOM2
 70
    64
  3
___ _ _ ___ _ _ ___ _ _ ___ _ _ ___ _ _ ___ _ _
 72
    65
 73
     6
 40
1.25
 49
0.625
 49
-0.125
 49
0.125
 49
-0.125
 49
0.125
 49
-0.125
  0
LTYPE
  2
PHANTOMX2
 70
    64
  3
____________    ____    ____    ____________   
 72
    65
 73
     6
 40
5.0
 49
2.5
 49
-0.5
 49
0.5
 49
-0.5
 49
0.5
 49
-0.5
  0
ENDTAB
  0
TABLE
  2
STYLE
 70
     2
  0
STYLE
  2
STANDARD
 70
0
 40
0.0
 41
1.0
 50
0.0
 71
0
 42
0.2
  3
TXT
  4
BIGFONT
  0
STYLE
  2
STANDARD1
 70
     4
 40
0.0
 41
1.0
 50
0.0
 71
     0
 42
0.2
  3
TXT
  4
BIGFONT
  0
ENDTAB
   0
TABLE
   2
LAYER
  70
4
   0
LAYER
   2
0
  70
0
  62
7
   6
CONTINUOUS
   0
LAYER
   2
LEVEL001
  70
0
  62
7
   6
CONTINUOUS
   0
LAYER
   2
LEVEL003
  70
0
  62
7
   6
CONTINUOUS
   0
LAYER
   2
LEVEL004
  70
0
  62
7
   6
CONTINUOUS
   0
ENDTAB
   0
ENDSEC
   0
SECTION
   2
ENTITIES
   0
TEXT
   8
LEVEL003
  62
3
  10
 217.500
  20
 120.136
  30
0.0
  40
 6.00000
   1
ＮＰＴ３／８
   7
STANDARD
   0
LINE
   8
LEVEL003
   6
CONTINUOUS
  62
3
  10
 112.500
  20
 130.636
  30
0.0
  11
 112.500
  21
 117.136
  31
0.0
   0
LINE
   8
LEVEL003
   6
CONTINUOUS
  62
3
  10
 187.500
  20
 130.636
  30
0.0
  11
 187.500
  21
 117.136
  31
0.0
   0
LINE
   8
LEVEL003
   6
CONTINUOUS
  62
3
  10
 112.500
  20
 120.136
  30
0.0
  11
 187.500
  21
 120.136
  31
0.0
   0
LINE
   8
LEVEL003
   6
CONTINUOUS
  62
3
  10
 112.500
  20
 120.136
  30
0.0
  11
 117.000
  21
 119.343
  31
0.0
   0
LINE
   8
LEVEL003
   6
CONTINUOUS
  62
3
  10
 112.500
  20
 120.136
  30
0.0
  11
 117.000
  21
 120.930
  31
0.0
   0
LINE
   8
LEVEL003
   6
CONTINUOUS
  62
3
  10
 187.500
  20
 120.136
  30
0.0
  11
 183.000
  21
 120.930
  31
0.0
   0
LINE
   8
LEVEL003
   6
CONTINUOUS
  62
3
  10
 187.500
  20
 120.136
  30
0.0
  11
 183.000
  21
 119.343
  31
0.0
   0
TEXT
   8
LEVEL003
  62
3
  10
 144.000
  20
 121.336
  30
0.0
  40
 6.00000
   1
%%c75
   7
STANDARD
  72
1
  11
 150.000
  21
 121.336
  31
0.0
   0
LINE
   8
LEVEL003
   6
CONTINUOUS
  62
3
  10
 203.293
  20
 151.734
  30
0.0
  11
 217.500
  21
 120.136
  31
0.0
   0
LINE
   8
LEVEL003
   6
CONTINUOUS
  62
3
  10
 203.293
  20
 151.734
  30
0.0
  11
 204.415
  21
 147.304
  31
0.0
   0
LINE
   8
LEVEL003
   6
CONTINUOUS
  62
3
  10
 203.293
  20
 151.734
  30
0.0
  11
 205.862
  21
 147.955
  31
0.0
   0
LINE
   8
LEVEL001
   6
CONTINUOUS
  62
3
  10
 211.000
  20
 168.780
  30
0.0
  11
 207.384
  21
 167.811
  31
0.0
   0
LINE
   8
LEVEL001
   6
CONTINUOUS
  62
3
  10
 211.000
  20
 151.493
  30
0.0
  11
 207.384
  21
 152.462
  31
0.0
   0
LINE
   8
LEVEL001
   6
CONTINUOUS
  62
7
  10
 211.000
  20
 168.780
  30
0.0
  11
 212.484
  21
 169.636
  31
0.0
   0
LINE
   8
LEVEL001
   6
CONTINUOUS
  62
7
  10
 228.000
  20
 169.636
  30
0.0
  11
 212.484
  21
 169.636
  31
0.0
   0
LINE
   8
LEVEL001
   6
CONTINUOUS
  62
7
  10
 211.000
  20
 151.493
  30
0.0
  11
 212.484
  21
 150.636
  31
0.0
   0
LINE
   8
LEVEL001
   6
CONTINUOUS
  62
7
  10
 228.000
  20
 150.636
  30
0.0
  11
 212.484
  21
 150.636
  31
0.0
   0
ARC
   8
LEVEL001
   6
CONTINUOUS
  62
7
  10
 229.500
  20
 173.136
  30
0.0
  40
 1.50000
  50
 90.0000
  51
 180.000
   0
LINE
   8
LEVEL001
   6
CONTINUOUS
  62
7
  10
 229.500
  20
 174.636
  30
0.0
  11
 234.500
  21
 174.636
  31
0.0
   0
ARC
   8
LEVEL001
   6
CONTINUOUS
  62
7
  10
 229.500
  20
 147.136
  30
0.0
  40
 1.50000
  50
 180.000
  51
 270.000
   0
LINE
   8
LEVEL001
   6
CONTINUOUS
  62
7
  10
 228.000
  20
 147.136
  30
0.0
  11
 228.000
  21
 173.136
  31
0.0
   0
LINE
   8
LEVEL001
   6
CONTINUOUS
  62
7
  10
 229.500
  20
 145.636
  30
0.0
  11
 234.500
  21
 145.636
  31
0.0
   0
ARC
   8
LEVEL001
   6
CONTINUOUS
  62
7
  10
 250.500
  20
 173.136
  30
0.0
  40
 1.50000
  50
 0.803366E-10
  51
 90.0000
   0
LINE
   8
LEVEL001
   6
CONTINUOUS
  62
7
  10
 245.500
  20
 174.636
  30
0.0
  11
 250.500
  21
 174.636
  31
0.0
   0
ARC
   8
LEVEL001
   6
CONTINUOUS
  62
7
  10
 250.500
  20
 147.136
  30
0.0
  40
 1.50000
  50
 270.000
  51
 0.651378E-11
   0
LINE
   8
LEVEL001
   6
CONTINUOUS
  62
7
  10
 245.500
  20
 145.636
  30
0.0
  11
 250.500
  21
 145.636
  31
0.0
   0
LINE
   8
LEVEL001
   6
CONTINUOUS
  62
7
  10
 252.000
  20
 173.136
  30
0.0
  11
 252.000
  21
 147.136
  31
0.0
   0
ARC
   8
LEVEL001
   6
DASHDOT
  62
1
  10
 261.000
  20
 173.136
  30
0.0
  40
 1.00000
  50
0.0
  51
 90.0004
   0
LINE
   8
LEVEL001
   6
DASHDOT
  62
1
  10
 253.000
  20
 174.136
  30
0.0
  11
 261.000
  21
 174.136
  31
0.0
   0
ARC
   8
LEVEL001
   6
DASHDOT
  62
1
  10
 261.000
  20
 147.136
  30
0.0
  40
 1.00000
  50
 270.000
  51
 0.435426E-3
   0
LINE
   8
LEVEL001
   6
DASHDOT
  62
1
  10
 253.000
  20
 146.136
  30
0.0
  11
 261.000
  21
 146.136
  31
0.0
   0
LINE
   8
LEVEL001
   6
DASHDOT
  62
1
  10
 262.000
  20
 173.136
  30
0.0
  11
 262.000
  21
 147.136
  31
0.0
   0
CIRCLE
   8
LEVEL001
   6
DASHDOT
  62
1
  10
 265.000
  20
 160.136
  30
0.0
  40
 1.50000
   0
ARC
   8
LEVEL001
   6
DASHDOT
  62
1
  10
 253.000
  20
 147.136
  30
0.0
  40
 1.00000
  50
 180.000
  51
 270.000
   0
ARC
   8
LEVEL001
   6
DASHDOT
  62
1
  10
 253.000
  20
 173.136
  30
0.0
  40
 1.00000
  50
 89.9996
  51
 180.000
   0
ARC
   8
LEVEL001
   6
DASHDOT
  62
1
  10
 264.000
  20
 165.636
  30
0.0
  40
 2.00000
  50
 180.000
  51
 270.000
   0
ARC
   8
LEVEL001
   6
DASHDOT
  62
1
  10
 264.000
  20
 154.636
  30
0.0
  40
 2.00000
  50
 90.0002
  51
 180.000
   0
LINE
   8
LEVEL001
   6
DASHDOT
  62
1
  10
 264.000
  20
 163.636
  30
0.0
  11
 264.500
  21
 163.636
  31
0.0
   0
LINE
   8
LEVEL001
   6
DASHDOT
  62
1
  10
 264.000
  20
 156.636
  30
0.0
  11
 264.500
  21
 156.636
  31
0.0
   0
ARC
   8
LEVEL001
   6
DASHDOT
  62
1
  10
 264.500
  20
 160.136
  30
0.0
  40
 3.50000
  50
 270.000
  51
 90.0000
   0
LINE
   8
LEVEL001
   6
CONTINUOUS
  62
7
  10
 212.484
  20
 150.636
  30
0.0
  11
 212.484
  21
 154.305
  31
0.0
   0
LINE
   8
LEVEL001
   6
CONTINUOUS
  62
7
  10
 212.484
  20
 165.967
  30
0.0
  11
 212.484
  21
 169.636
  31
0.0
   0
LINE
   8
LEVEL001
   6
CONTINUOUS
  62
7
  10
 207.000
  20
 156.097
  30
0.0
  11
 221.000
  21
 165.967
  31
0.0
   0
LINE
   8
LEVEL001
   6
CONTINUOUS
  62
7
  10
 207.000
  20
 164.176
  30
0.0
  11
 221.000
  21
 154.305
  31
0.0
   0
LINE
   8
LEVEL001
   6
CONTINUOUS
  62
3
  10
 207.384
  20
 167.811
  30
0.0
  11
 207.384
  21
 164.176
  31
0.0
   0
LINE
   8
LEVEL001
   6
CONTINUOUS
  62
3
  10
 207.384
  20
 156.097
  30
0.0
  11
 207.384
  21
 152.462
  31
0.0
   0
LINE
   8
LEVEL001
   6
CONTINUOUS
  62
7
  10
 211.000
  20
 168.780
  30
0.0
  11
 211.000
  21
 164.433
  31
0.0
   0
LINE
   8
LEVEL001
   6
CONTINUOUS
  62
7
  10
 211.000
  20
 155.840
  30
0.0
  11
 211.000
  21
 151.493
  31
0.0
   0
LINE
   8
LEVEL001
   6
CONTINUOUS
  62
3
  10
 234.500
  20
 147.136
  30
0.0
  11
 245.500
  21
 147.136
  31
0.0
   0
LINE
   8
LEVEL001
   6
CONTINUOUS
  62
3
  10
 234.500
  20
 149.136
  30
0.0
  11
 245.500
  21
 149.136
  31
0.0
   0
LINE
   8
LEVEL001
   6
CONTINUOUS
  62
3
  10
 234.500
  20
 151.136
  30
0.0
  11
 245.500
  21
 151.136
  31
0.0
   0
LINE
   8
LEVEL001
   6
CONTINUOUS
  62
3
  10
 234.500
  20
 153.136
  30
0.0
  11
 245.500
  21
 153.136
  31
0.0
   0
LINE
   8
LEVEL001
   6
CONTINUOUS
  62
3
  10
 234.500
  20
 155.136
  30
0.0
  11
 245.500
  21
 155.136
  31
0.0
   0
LINE
   8
LEVEL001
   6
CONTINUOUS
  62
3
  10
 234.500
  20
 157.136
  30
0.0
  11
 245.500
  21
 157.136
  31
0.0
   0
LINE
   8
LEVEL001
   6
CONTINUOUS
  62
3
  10
 234.500
  20
 159.136
  30
0.0
  11
 245.500
  21
 159.136
  31
0.0
   0
LINE
   8
LEVEL001
   6
CONTINUOUS
  62
3
  10
 234.500
  20
 161.136
  30
0.0
  11
 245.500
  21
 161.136
  31
0.0
   0
LINE
   8
LEVEL001
   6
CONTINUOUS
  62
3
  10
 234.500
  20
 163.136
  30
0.0
  11
 245.500
  21
 163.136
  31
0.0
   0
LINE
   8
LEVEL001
   6
CONTINUOUS
  62
3
  10
 234.500
  20
 165.136
  30
0.0
  11
 245.500
  21
 165.136
  31
0.0
   0
LINE
   8
LEVEL001
   6
CONTINUOUS
  62
3
  10
 234.500
  20
 167.136
  30
0.0
  11
 245.500
  21
 167.136
  31
0.0
   0
LINE
   8
LEVEL001
   6
CONTINUOUS
  62
3
  10
 234.500
  20
 169.136
  30
0.0
  11
 245.500
  21
 169.136
  31
0.0
   0
LINE
   8
LEVEL001
   6
CONTINUOUS
  62
3
  10
 234.500
  20
 171.136
  30
0.0
  11
 245.500
  21
 171.136
  31
0.0
   0
LINE
   8
LEVEL001
   6
CONTINUOUS
  62
3
  10
 234.500
  20
 173.136
  30
0.0
  11
 245.500
  21
 173.136
  31
0.0
   0
LINE
   8
LEVEL001
   6
CONTINUOUS
  62
7
  10
 207.000
  20
 156.097
  30
0.0
  11
 207.000
  21
 164.176
  31
0.0
   0
LINE
   8
LEVEL001
   6
CONTINUOUS
  62
7
  10
 207.000
  20
 164.176
  30
0.0
  11
 211.000
  21
 164.433
  31
0.0
   0
LINE
   8
LEVEL001
   6
CONTINUOUS
  62
7
  10
 211.000
  20
 164.433
  30
0.0
  11
 212.484
  21
 165.967
  31
0.0
   0
LINE
   8
LEVEL001
   6
CONTINUOUS
  62
7
  10
 212.484
  20
 165.967
  30
0.0
  11
 221.000
  21
 165.967
  31
0.0
   0
LINE
   8
LEVEL001
   6
CONTINUOUS
  62
7
  10
 221.000
  20
 165.967
  30
0.0
  11
 221.000
  21
 154.305
  31
0.0
   0
LINE
   8
LEVEL001
   6
CONTINUOUS
  62
7
  10
 221.000
  20
 154.305
  30
0.0
  11
 212.484
  21
 154.305
  31
0.0
   0
LINE
   8
LEVEL001
   6
CONTINUOUS
  62
7
  10
 212.484
  20
 154.305
  30
0.0
  11
 211.000
  21
 155.840
  31
0.0
   0
LINE
   8
LEVEL001
   6
CONTINUOUS
  62
7
  10
 211.000
  20
 155.840
  30
0.0
  11
 207.000
  21
 156.097
  31
0.0
   0
LINE
   8
LEVEL001
   6
CONTINUOUS
  62
7
  10
 234.500
  20
 145.136
  30
0.0
  11
 234.500
  21
 175.136
  31
0.0
   0
LINE
   8
LEVEL001
   6
CONTINUOUS
  62
7
  10
 234.500
  20
 175.136
  30
0.0
  11
 245.500
  21
 175.136
  31
0.0
   0
LINE
   8
LEVEL001
   6
CONTINUOUS
  62
7
  10
 245.500
  20
 175.136
  30
0.0
  11
 245.500
  21
 145.136
  31
0.0
   0
LINE
   8
LEVEL001
   6
CONTINUOUS
  62
7
  10
 245.500
  20
 145.136
  30
0.0
  11
 234.500
  21
 145.136
  31
0.0
   0
LINE
   8
LEVEL003
   6
CONTINUOUS
  62
3
  10
 200.500
  20
 135.136
  30
0.0
  11
 325.500
  21
 135.136
  31
0.0
   0
LINE
   8
LEVEL003
   6
CONTINUOUS
  62
3
  10
 322.500
  20
 135.136
  30
0.0
  11
 323.293
  21
 139.636
  31
0.0
   0
LINE
   8
LEVEL003
   6
CONTINUOUS
  62
3
  10
 322.500
  20
 135.136
  30
0.0
  11
 321.707
  21
 139.636
  31
0.0
   0
LINE
   8
LEVEL003
   6
CONTINUOUS
  62
3
  10
 200.500
  20
 135.136
  30
0.0
  11
 295.500
  21
 135.136
  31
0.0
   0
LINE
   8
LEVEL003
   6
CONTINUOUS
  62
3
  10
 272.500
  20
 160.136
  30
0.0
  11
 295.500
  21
 160.136
  31
0.0
   0
LINE
   8
LEVEL003
   6
CONTINUOUS
  62
3
  10
 292.500
  20
 135.136
  30
0.0
  11
 292.500
  21
 160.136
  31
0.0
   0
LINE
   8
LEVEL003
   6
CONTINUOUS
  62
3
  10
 292.500
  20
 135.136
  30
0.0
  11
 293.293
  21
 139.636
  31
0.0
   0
LINE
   8
LEVEL003
   6
CONTINUOUS
  62
3
  10
 292.500
  20
 135.136
  30
0.0
  11
 291.707
  21
 139.636
  31
0.0
   0
LINE
   8
LEVEL003
   6
CONTINUOUS
  62
3
  10
 292.500
  20
 160.136
  30
0.0
  11
 291.707
  21
 155.636
  31
0.0
   0
LINE
   8
LEVEL003
   6
CONTINUOUS
  62
3
  10
 292.500
  20
 160.136
  30
0.0
  11
 293.293
  21
 155.636
  31
0.0
   0
TEXT
   8
LEVEL003
  62
3
  10
 291.300
  20
 144.636
  30
0.0
  40
 6.00000
   1
25
  50
 90.0000
  41
 0.500000
   7
STANDARD
  72
1
  11
 291.300
  21
 147.636
  31
0.0
   0
LINE
   8
LEVEL001
   6
CONTINUOUS
  62
7
  10
 99.0000
  20
 137.136
  30
0.0
  11
 101.000
  21
 135.136
  31
0.0
   0
LINE
   8
LEVEL001
   6
CONTINUOUS
  62
7
  10
 101.000
  20
 135.136
  30
0.0
  11
 199.000
  21
 135.136
  31
0.0
   0
LINE
   8
LEVEL001
   6
CONTINUOUS
  62
7
  10
 201.000
  20
 137.136
  30
0.0
  11
 199.000
  21
 135.136
  31
0.0
   0
CIRCLE
   8
LEVEL001
   6
CONTINUOUS
  62
7
  10
 150.000
  20
 60.0000
  30
0.0
  40
 51.0000
   0
CIRCLE
   8
LEVEL001
   6
CONTINUOUS
  62
7
  10
 150.000
  20
 60.0000
  30
0.0
  40
 49.0000
   0
CIRCLE
   8
LEVEL001
   6
CONTINUOUS
  62
7
  10
 176.517
  20
 86.5165
  30
0.0
  40
 4.25000
   0
CIRCLE
   8
LEVEL001
   6
CONTINUOUS
  62
3
  10
 176.517
  20
 86.5165
  30
0.0
  40
 5.00000
   0
LINE
   8
LEVEL001
   6
DASHDOT
  62
1
  10
 182.173
  20
 92.1734
  30
0.0
  11
 170.860
  21
 80.8597
  31
0.0
   0
CIRCLE
   8
LEVEL001
   6
CONTINUOUS
  62
7
  10
 123.483
  20
 86.5165
  30
0.0
  40
 4.25000
   0
CIRCLE
   8
LEVEL001
   6
CONTINUOUS
  62
3
  10
 123.483
  20
 86.5165
  30
0.0
  40
 5.00000
   0
LINE
   8
LEVEL001
   6
DASHDOT
  62
1
  10
 117.827
  20
 92.1734
  30
0.0
  11
 129.140
  21
 80.8597
  31
0.0
   0
CIRCLE
   8
LEVEL001
   6
CONTINUOUS
  62
7
  10
 123.483
  20
 33.4835
  30
0.0
  40
 4.25000
   0
CIRCLE
   8
LEVEL001
   6
CONTINUOUS
  62
3
  10
 123.483
  20
 33.4835
  30
0.0
  40
 5.00000
   0
LINE
   8
LEVEL001
   6
DASHDOT
  62
1
  10
 117.827
  20
 27.8266
  30
0.0
  11
 129.140
  21
 39.1403
  31
0.0
   0
CIRCLE
   8
LEVEL001
   6
CONTINUOUS
  62
7
  10
 176.517
  20
 33.4835
  30
0.0
  40
 4.25000
   0
CIRCLE
   8
LEVEL001
   6
CONTINUOUS
  62
3
  10
 176.517
  20
 33.4835
  30
0.0
  40
 5.00000
   0
LINE
   8
LEVEL001
   6
DASHDOT
  62
1
  10
 182.173
  20
 27.8266
  30
0.0
  11
 170.860
  21
 39.1403
  31
0.0
   0
CIRCLE
   8
LEVEL001
   6
DASHDOT
  62
1
  10
 150.000
  20
 60.0000
  30
0.0
  40
 37.5000
   0
LINE
   8
LEVEL001
   6
DASHDOT
  62
1
  10
 150.000
  20
 116.182
  30
0.0
  11
 150.000
  21
 3.81840
  31
0.0
   0
ARC
   8
LEVEL001
   6
CONTINUOUS
  62
7
  10
 229.500
  20
 73.0000
  30
0.0
  40
 1.50000
  50
 90.0000
  51
 180.000
   0
LINE
   8
LEVEL001
   6
CONTINUOUS
  62
7
  10
 229.500
  20
 74.5000
  30
0.0
  11
 234.500
  21
 74.5000
  31
0.0
   0
ARC
   8
LEVEL001
   6
CONTINUOUS
  62
7
  10
 229.500
  20
 47.0000
  30
0.0
  40
 1.50000
  50
 180.000
  51
 270.000
   0
LINE
   8
LEVEL001
   6
CONTINUOUS
  62
7
  10
 228.000
  20
 47.0000
  30
0.0
  11
 228.000
  21
 73.0000
  31
0.0
   0
LINE
   8
LEVEL001
   6
CONTINUOUS
  62
7
  10
 229.500
  20
 45.5000
  30
0.0
  11
 234.500
  21
 45.5000
  31
0.0
   0
ARC
   8
LEVEL001
   6
CONTINUOUS
  62
7
  10
 250.500
  20
 73.0000
  30
0.0
  40
 1.50000
  50
0.0
  51
 90.0000
   0
LINE
   8
LEVEL001
   6
CONTINUOUS
  62
7
  10
 245.500
  20
 74.5000
  30
0.0
  11
 250.500
  21
 74.5000
  31
0.0
   0
ARC
   8
LEVEL001
   6
CONTINUOUS
  62
7
  10
 250.500
  20
 47.0000
  30
0.0
  40
 1.50000
  50
 270.000
  51
 0.542815E-12
   0
LINE
   8
LEVEL001
   6
CONTINUOUS
  62
7
  10
 245.500
  20
 45.5000
  30
0.0
  11
 250.500
  21
 45.5000
  31
0.0
   0
LINE
   8
LEVEL001
   6
CONTINUOUS
  62
7
  10
 252.000
  20
 73.0000
  30
0.0
  11
 252.000
  21
 47.0000
  31
0.0
   0
ARC
   8
LEVEL001
   6
DASHDOT
  62
1
  10
 261.000
  20
 73.0000
  30
0.0
  40
 1.00000
  50
0.0
  51
 90.0000
   0
LINE
   8
LEVEL001
   6
DASHDOT
  62
1
  10
 253.000
  20
 74.0000
  30
0.0
  11
 261.000
  21
 74.0000
  31
0.0
   0
ARC
   8
LEVEL001
   6
DASHDOT
  62
1
  10
 261.000
  20
 47.0000
  30
0.0
  40
 1.00000
  50
 270.000
  51
 0.814222E-12
   0
LINE
   8
LEVEL001
   6
DASHDOT
  62
1
  10
 253.000
  20
 46.0000
  30
0.0
  11
 261.000
  21
 46.0000
  31
0.0
   0
LINE
   8
LEVEL001
   6
DASHDOT
  62
1
  10
 262.000
  20
 73.0000
  30
0.0
  11
 262.000
  21
 47.0000
  31
0.0
   0
ARC
   8
LEVEL001
   6
DASHDOT
  62
1
  10
 253.000
  20
 47.0000
  30
0.0
  40
 1.00000
  50
 180.000
  51
 270.000
   0
ARC
   8
LEVEL001
   6
DASHDOT
  62
1
  10
 253.000
  20
 73.0000
  30
0.0
  40
 1.00000
  50
 90.0000
  51
 180.000
   0
LINE
   8
LEVEL001
   6
CONTINUOUS
  62
3
  10
 207.384
  20
 67.5000
  30
0.0
  11
 207.384
  21
 52.5000
  31
0.0
   0
LINE
   8
LEVEL001
   6
CONTINUOUS
  62
7
  10
 211.000
  20
 67.5000
  30
0.0
  11
 211.000
  21
 52.5000
  31
0.0
   0
LINE
   8
LEVEL001
   6
CONTINUOUS
  62
7
  10
 212.484
  20
 52.5000
  30
0.0
  11
 212.484
  21
 67.5000
  31
0.0
   0
LINE
   8
LEVEL001
   6
CONTINUOUS
  62
3
  10
 234.500
  20
 47.0000
  30
0.0
  11
 245.500
  21
 47.0000
  31
0.0
   0
LINE
   8
LEVEL001
   6
CONTINUOUS
  62
3
  10
 234.500
  20
 49.0000
  30
0.0
  11
 245.500
  21
 49.0000
  31
0.0
   0
LINE
   8
LEVEL001
   6
CONTINUOUS
  62
3
  10
 234.500
  20
 51.0000
  30
0.0
  11
 245.500
  21
 51.0000
  31
0.0
   0
LINE
   8
LEVEL001
   6
CONTINUOUS
  62
3
  10
 234.500
  20
 53.0000
  30
0.0
  11
 245.500
  21
 53.0000
  31
0.0
   0
LINE
   8
LEVEL001
   6
CONTINUOUS
  62
3
  10
 234.500
  20
 55.0000
  30
0.0
  11
 245.500
  21
 55.0000
  31
0.0
   0
LINE
   8
LEVEL001
   6
CONTINUOUS
  62
3
  10
 234.500
  20
 57.0000
  30
0.0
  11
 245.500
  21
 57.0000
  31
0.0
   0
LINE
   8
LEVEL001
   6
CONTINUOUS
  62
3
  10
 234.500
  20
 59.0000
  30
0.0
  11
 245.500
  21
 59.0000
  31
0.0
   0
LINE
   8
LEVEL001
   6
CONTINUOUS
  62
3
  10
 234.500
  20
 61.0000
  30
0.0
  11
 245.500
  21
 61.0000
  31
0.0
   0
LINE
   8
LEVEL001
   6
CONTINUOUS
  62
3
  10
 234.500
  20
 63.0000
  30
0.0
  11
 245.500
  21
 63.0000
  31
0.0
   0
LINE
   8
LEVEL001
   6
CONTINUOUS
  62
3
  10
 234.500
  20
 65.0000
  30
0.0
  11
 245.500
  21
 65.0000
  31
0.0
   0
LINE
   8
LEVEL001
   6
CONTINUOUS
  62
3
  10
 234.500
  20
 67.0000
  30
0.0
  11
 245.500
  21
 67.0000
  31
0.0
   0
LINE
   8
LEVEL001
   6
CONTINUOUS
  62
3
  10
 234.500
  20
 69.0000
  30
0.0
  11
 245.500
  21
 69.0000
  31
0.0
   0
LINE
   8
LEVEL001
   6
CONTINUOUS
  62
3
  10
 234.500
  20
 71.0000
  30
0.0
  11
 245.500
  21
 71.0000
  31
0.0
   0
LINE
   8
LEVEL001
   6
CONTINUOUS
  62
3
  10
 234.500
  20
 73.0000
  30
0.0
  11
 245.500
  21
 73.0000
  31
0.0
   0
LINE
   8
LEVEL001
   6
CONTINUOUS
  62
7
  10
 207.000
  20
 68.5185
  30
0.0
  11
 201.000
  21
 68.3310
  31
0.0
   0
LINE
   8
LEVEL001
   6
CONTINUOUS
  62
3
  10
 207.000
  20
 67.6625
  30
0.0
  11
 201.000
  21
 67.4750
  31
0.0
   0
LINE
   8
LEVEL001
   6
CONTINUOUS
  62
3
  10
 206.995
  20
 52.3376
  30
0.0
  11
 201.000
  21
 52.5250
  31
0.0
   0
LINE
   8
LEVEL001
   6
CONTINUOUS
  62
7
  10
 207.000
  20
 51.4815
  30
0.0
  11
 201.000
  21
 51.6690
  31
0.0
   0
LINE
   8
LEVEL001
   6
DASHDOT
  62
1
  10
 262.000
  20
 62.0000
  30
0.0
  11
 268.000
  21
 62.0000
  31
0.0
   0
LINE
   8
LEVEL001
   6
DASHDOT
  62
1
  10
 268.000
  20
 62.0000
  30
0.0
  11
 268.000
  21
 58.0000
  31
0.0
   0
LINE
   8
LEVEL001
   6
DASHDOT
  62
1
  10
 268.000
  20
 58.0000
  30
0.0
  11
 262.000
  21
 58.0000
  31
0.0
   0
LINE
   8
LEVEL001
   6
CONTINUOUS
  62
7
  10
 207.000
  20
 68.5185
  30
0.0
  11
 207.000
  21
 67.5000
  31
0.0
   0
LINE
   8
LEVEL001
   6
CONTINUOUS
  62
7
  10
 207.000
  20
 67.5000
  30
0.0
  11
 221.000
  21
 67.5000
  31
0.0
   0
LINE
   8
LEVEL001
   6
CONTINUOUS
  62
7
  10
 221.000
  20
 67.5000
  30
0.0
  11
 221.000
  21
 69.5000
  31
0.0
   0
LINE
   8
LEVEL001
   6
CONTINUOUS
  62
7
  10
 221.000
  20
 69.5000
  30
0.0
  11
 228.000
  21
 69.5000
  31
0.0
   0
LINE
   8
LEVEL001
   6
CONTINUOUS
  62
7
  10
 207.000
  20
 51.4815
  30
0.0
  11
 207.000
  21
 52.5000
  31
0.0
   0
LINE
   8
LEVEL001
   6
CONTINUOUS
  62
7
  10
 207.000
  20
 52.5000
  30
0.0
  11
 221.000
  21
 52.5000
  31
0.0
   0
LINE
   8
LEVEL001
   6
CONTINUOUS
  62
7
  10
 221.000
  20
 52.5000
  30
0.0
  11
 221.000
  21
 50.5000
  31
0.0
   0
LINE
   8
LEVEL001
   6
CONTINUOUS
  62
7
  10
 221.000
  20
 50.5000
  30
0.0
  11
 228.000
  21
 50.5000
  31
0.0
   0
LINE
   8
LEVEL001
   6
CONTINUOUS
  62
7
  10
 234.500
  20
 45.0000
  30
0.0
  11
 234.500
  21
 75.0000
  31
0.0
   0
LINE
   8
LEVEL001
   6
CONTINUOUS
  62
7
  10
 234.500
  20
 75.0000
  30
0.0
  11
 245.500
  21
 75.0000
  31
0.0
   0
LINE
   8
LEVEL001
   6
CONTINUOUS
  62
7
  10
 245.500
  20
 75.0000
  30
0.0
  11
 245.500
  21
 45.0000
  31
0.0
   0
LINE
   8
LEVEL001
   6
CONTINUOUS
  62
7
  10
 245.500
  20
 45.0000
  30
0.0
  11
 234.500
  21
 45.0000
  31
0.0
   0
LINE
   8
LEVEL001
   6
DASHDOT
  62
1
  10
 270.000
  20
 60.0000
  30
0.0
  11
 93.8184
  21
 60.0000
  31
0.0
   0
LINE
   8
LEVEL001
   6
CONTINUOUS
  62
7
  10
 150.000
  20
 64.6188
  30
0.0
  11
 154.000
  21
 62.3094
  31
0.0
   0
LINE
   8
LEVEL001
   6
CONTINUOUS
  62
7
  10
 154.000
  20
 62.3094
  30
0.0
  11
 154.000
  21
 57.6906
  31
0.0
   0
LINE
   8
LEVEL001
   6
CONTINUOUS
  62
7
  10
 154.000
  20
 57.6906
  30
0.0
  11
 150.000
  21
 55.3812
  31
0.0
   0
LINE
   8
LEVEL001
   6
CONTINUOUS
  62
7
  10
 150.000
  20
 55.3812
  30
0.0
  11
 146.000
  21
 57.6906
  31
0.0
   0
LINE
   8
LEVEL001
   6
CONTINUOUS
  62
7
  10
 146.000
  20
 57.6906
  30
0.0
  11
 146.000
  21
 62.3094
  31
0.0
   0
LINE
   8
LEVEL001
   6
CONTINUOUS
  62
7
  10
 146.000
  20
 62.3094
  30
0.0
  11
 150.000
  21
 64.6188
  31
0.0
   0
CIRCLE
   8
LEVEL001
   6
CONTINUOUS
  62
7
  10
 150.000
  20
 60.0000
  30
0.0
  40
 8.33100
   0
CIRCLE
   8
LEVEL001
   6
CONTINUOUS
  62
3
  10
 150.000
  20
 60.0000
  30
0.0
  40
 7.47500
   0
CIRCLE
   8
LEVEL001
   6
CONTINUOUS
  62
7
  10
 150.000
  20
 60.0000
  30
0.0
  40
 9.83093
   0
LINE
   8
LEVEL003
   6
CONTINUOUS
  62
3
  10
 112.500
  20
 135.136
  30
0.0
  11
 97.5000
  21
 120.000
  31
0.0
   0
LINE
   8
LEVEL003
   6
CONTINUOUS
  62
3
  10
 112.500
  20
 135.136
  30
0.0
  11
 108.769
  21
 132.499
  31
0.0
   0
LINE
   8
LEVEL003
   6
CONTINUOUS
  62
3
  10
 112.500
  20
 135.136
  30
0.0
  11
 109.896
  21
 131.381
  31
0.0
   0
LINE
   8
LEVEL001
   6
CONTINUOUS
  62
7
  10
 211.000
  20
 168.780
  30
0.0
  11
 201.000
  21
 168.467
  31
0.0
   0
LINE
   8
LEVEL001
   6
CONTINUOUS
  62
7
  10
 211.000
  20
 151.493
  30
0.0
  11
 201.000
  21
 151.805
  31
0.0
   0
LINE
   8
LEVEL001
   6
CONTINUOUS
  62
3
  10
 207.384
  20
 152.462
  30
0.0
  11
 201.000
  21
 152.661
  31
0.0
   0
LINE
   8
LEVEL001
   6
CONTINUOUS
  62
3
  10
 207.384
  20
 167.811
  30
0.0
  11
 201.000
  21
 167.611
  31
0.0
   0
LINE
   8
LEVEL001
   6
DASHDOT
  62
1
  10
 271.000
  20
 160.136
  30
0.0
  11
 187.500
  21
 160.136
  31
0.0
   0
LINE
   8
LEVEL004
   6
DASHDOT
  62
1
  10
 112.500
  20
 132.136
  30
0.0
  11
 112.500
  21
 158.389
  31
0.0
   0
LINE
   8
LEVEL004
   6
DOT
  62
3
  10
 117.500
  20
 135.136
  30
0.0
  11
 116.750
  21
 135.886
  31
0.0
   0
LINE
   8
LEVEL004
   6
DOT
  62
3
  10
 116.750
  20
 135.886
  30
0.0
  11
 116.750
  21
 152.935
  31
0.0
   0
LINE
   8
LEVEL004
   6
DOT
  62
3
  10
 116.750
  20
 152.935
  30
0.0
  11
 112.500
  21
 155.389
  31
0.0
   0
LINE
   8
LEVEL004
   6
DOT
  62
3
  10
 112.500
  20
 155.389
  30
0.0
  11
 108.250
  21
 152.935
  31
0.0
   0
LINE
   8
LEVEL004
   6
DOT
  62
3
  10
 108.250
  20
 152.935
  30
0.0
  11
 108.250
  21
 135.886
  31
0.0
   0
LINE
   8
LEVEL004
   6
DOT
  62
3
  10
 108.250
  20
 135.886
  30
0.0
  11
 107.500
  21
 135.136
  31
0.0
   0
LINE
   8
LEVEL004
   6
DOT
  62
3
  10
 116.750
  20
 152.935
  30
0.0
  11
 108.250
  21
 152.935
  31
0.0
   0
LINE
   8
LEVEL004
   6
DOT
  62
3
  10
 108.250
  20
 152.935
  30
0.0
  11
 107.500
  21
 150.136
  31
0.0
   0
LINE
   8
LEVEL004
   6
DOT
  62
3
  10
 107.500
  20
 150.136
  30
0.0
  11
 107.500
  21
 135.136
  31
0.0
   0
LINE
   8
LEVEL004
   6
DOT
  62
3
  10
 117.500
  20
 150.136
  30
0.0
  11
 107.500
  21
 150.136
  31
0.0
   0
LINE
   8
LEVEL004
   6
DOT
  62
3
  10
 116.750
  20
 135.886
  30
0.0
  11
 108.250
  21
 135.886
  31
0.0
   0
LINE
   8
LEVEL004
   6
DOT
  62
3
  10
 117.500
  20
 135.136
  30
0.0
  11
 117.500
  21
 150.136
  31
0.0
   0
LINE
   8
LEVEL004
   6
DOT
  62
3
  10
 117.500
  20
 150.136
  30
0.0
  11
 116.750
  21
 152.935
  31
0.0
   0
LINE
   8
LEVEL004
   6
DASHDOT
  62
1
  10
 187.500
  20
 132.136
  30
0.0
  11
 187.500
  21
 150.136
  31
0.0
   0
LINE
   8
LEVEL001
   6
CONTINUOUS
  62
7
  10
 99.0000
  20
 137.136
  30
0.0
  11
 201.000
  21
 137.136
  31
0.0
   0
TEXT
   8
LEVEL003
  62
7
  10
 269.191
  20
 12.7200
  30
0.0
  40
 10.0000
   1
ＯＳＡＫＡ ＪＡＣＫ
   7
STANDARD
   0
CIRCLE
   8
LEVEL003
   6
CONTINUOUS
  62
7
  10
 257.218
  20
 19.7707
  30
0.0
  40
 3.00000
   0
LINE
   8
LEVEL003
   6
CONTINUOUS
  62
7
  10
 263.106
  20
 22.7707
  30
0.0
  11
 259.297
  21
 16.1707
  31
0.0
   0
LINE
   8
LEVEL003
   6
CONTINUOUS
  62
7
  10
 259.297
  20
 16.1707
  30
0.0
  11
 251.676
  21
 16.1707
  31
0.0
   0
LINE
   8
LEVEL003
   6
CONTINUOUS
  62
7
  10
 250.809
  20
 14.6707
  30
0.0
  11
 264.430
  21
 14.6707
  31
0.0
   0
LINE
   8
LEVEL003
   6
CONTINUOUS
  62
7
  10
 264.430
  20
 14.6707
  30
0.0
  11
 269.106
  21
 22.7707
  31
0.0
   0
LINE
   8
LEVEL003
   6
CONTINUOUS
  62
7
  10
 269.106
  20
 22.7707
  30
0.0
  11
 263.106
  21
 22.7707
  31
0.0
   0
LINE
   8
LEVEL003
   6
CONTINUOUS
  62
7
  10
 251.676
  20
 16.1707
  30
0.0
  11
 250.809
  21
 14.6707
  31
0.0
   0
TEXT
   8
LEVEL003
  62
3
  10
 32.8381
  20
 120.000
  30
0.0
  40
 6.00000
   1
４－Ｍ１０×１５Ｌ
   7
STANDARD
   0
LINE
   8
LEVEL003
   6
CONTINUOUS
  62
3
  10
 217.500
  20
 120.136
  30
0.0
  11
 260.005
  21
 120.136
  31
0.0
   0
LINE
   8
LEVEL003
   6
CONTINUOUS
  62
3
  10
 117.500
  20
 350.136
  30
0.0
  11
 182.500
  21
 350.136
  31
0.0
   0
LINE
   8
LEVEL003
   6
CONTINUOUS
  62
3
  10
 117.500
  20
 350.136
  30
0.0
  11
 122.000
  21
 349.343
  31
0.0
   0
LINE
   8
LEVEL003
   6
CONTINUOUS
  62
3
  10
 117.500
  20
 350.136
  30
0.0
  11
 122.000
  21
 350.930
  31
0.0
   0
LINE
   8
LEVEL003
   6
CONTINUOUS
  62
3
  10
 182.500
  20
 350.136
  30
0.0
  11
 178.000
  21
 350.930
  31
0.0
   0
LINE
   8
LEVEL003
   6
CONTINUOUS
  62
3
  10
 182.500
  20
 350.136
  30
0.0
  11
 178.000
  21
 349.343
  31
0.0
   0
TEXT
   8
LEVEL003
  62
3
  10
 144.000
  20
 351.336
  30
0.0
  40
 6.00000
   1
%%c65
   7
STANDARD
  72
1
  11
 150.000
  21
 351.336
  31
0.0
   0
LINE
   8
LEVEL003
   6
CONTINUOUS
  62
3
  10
 112.500
  20
 335.136
  30
0.0
  11
 187.500
  21
 335.136
  31
0.0
   0
LINE
   8
LEVEL003
   6
CONTINUOUS
  62
3
  10
 112.500
  20
 335.136
  30
0.0
  11
 117.000
  21
 334.343
  31
0.0
   0
LINE
   8
LEVEL003
   6
CONTINUOUS
  62
3
  10
 112.500
  20
 335.136
  30
0.0
  11
 117.000
  21
 335.930
  31
0.0
   0
LINE
   8
LEVEL003
   6
CONTINUOUS
  62
3
  10
 187.500
  20
 335.136
  30
0.0
  11
 183.000
  21
 335.930
  31
0.0
   0
LINE
   8
LEVEL003
   6
CONTINUOUS
  62
3
  10
 187.500
  20
 335.136
  30
0.0
  11
 183.000
  21
 334.343
  31
0.0
   0
TEXT
   8
LEVEL003
  62
3
  10
 144.000
  20
 336.336
  30
0.0
  40
 6.00000
   1
%%c75
   7
STANDARD
  72
1
  11
 150.000
  21
 336.336
  31
0.0
   0
LINE
   8
LEVEL003
   6
CONTINUOUS
  62
3
  10
 99.0000
  20
 320.136
  30
0.0
  11
 201.000
  21
 320.136
  31
0.0
   0
LINE
   8
LEVEL003
   6
CONTINUOUS
  62
3
  10
 99.0000
  20
 320.136
  30
0.0
  11
 103.500
  21
 319.343
  31
0.0
   0
LINE
   8
LEVEL003
   6
CONTINUOUS
  62
3
  10
 99.0000
  20
 320.136
  30
0.0
  11
 103.500
  21
 320.930
  31
0.0
   0
LINE
   8
LEVEL003
   6
CONTINUOUS
  62
3
  10
 201.000
  20
 320.136
  30
0.0
  11
 196.500
  21
 320.930
  31
0.0
   0
LINE
   8
LEVEL003
   6
CONTINUOUS
  62
3
  10
 201.000
  20
 320.136
  30
0.0
  11
 196.500
  21
 319.343
  31
0.0
   0
TEXT
   8
LEVEL003
  62
3
  10
 142.500
  20
 321.336
  30
0.0
  40
 6.00000
   1
%%c102
   7
STANDARD
  72
1
  11
 150.000
  21
 321.336
  31
0.0
   0
LINE
   8
LEVEL003
   6
CONTINUOUS
  62
3
  10
 125.000
  20
 460.636
  30
0.0
  11
 125.000
  21
 480.636
  31
0.0
   0
LINE
   8
LEVEL003
   6
CONTINUOUS
  62
3
  10
 175.000
  20
 460.636
  30
0.0
  11
 175.000
  21
 480.636
  31
0.0
   0
LINE
   8
LEVEL003
   6
CONTINUOUS
  62
3
  10
 125.000
  20
 477.636
  30
0.0
  11
 175.000
  21
 477.636
  31
0.0
   0
LINE
   8
LEVEL003
   6
CONTINUOUS
  62
3
  10
 125.000
  20
 477.636
  30
0.0
  11
 129.500
  21
 476.843
  31
0.0
   0
LINE
   8
LEVEL003
   6
CONTINUOUS
  62
3
  10
 125.000
  20
 477.636
  30
0.0
  11
 129.500
  21
 478.430
  31
0.0
   0
LINE
   8
LEVEL003
   6
CONTINUOUS
  62
3
  10
 175.000
  20
 477.636
  30
0.0
  11
 170.500
  21
 478.430
  31
0.0
   0
LINE
   8
LEVEL003
   6
CONTINUOUS
  62
3
  10
 175.000
  20
 477.636
  30
0.0
  11
 170.500
  21
 476.843
  31
0.0
   0
TEXT
   8
LEVEL003
  62
3
  10
 144.000
  20
 478.836
  30
0.0
  40
 6.00000
   1
%%c50
   7
STANDARD
  72
1
  11
 150.000
  21
 478.836
  31
0.0
   0
TEXT
   8
LEVEL003
  62
3
  10
 195.000
  20
 470.136
  30
0.0
  40
 6.00000
   1
Ｍ３６×２
   7
STANDARD
   0
LINE
   8
LEVEL003
   6
CONTINUOUS
  62
3
  10
 168.000
  20
 440.136
  30
0.0
  11
 195.000
  21
 470.136
  31
0.0
   0
LINE
   8
LEVEL003
   6
CONTINUOUS
  62
3
  10
 168.000
  20
 440.136
  30
0.0
  11
 171.600
  21
 442.950
  31
0.0
   0
LINE
   8
LEVEL003
   6
CONTINUOUS
  62
3
  10
 168.000
  20
 440.136
  30
0.0
  11
 170.421
  21
 444.012
  31
0.0
   0
TEXT
   8
LEVEL003
  62
3
  10
 217.500
  20
 410.136
  30
0.0
  40
 6.00000
   1
Ｍ１０２×２
   7
STANDARD
   0
LINE
   8
LEVEL003
   6
CONTINUOUS
  62
3
  10
 201.000
  20
 417.636
  30
0.0
  11
 217.500
  21
 410.136
  31
0.0
   0
LINE
   8
LEVEL003
   6
CONTINUOUS
  62
3
  10
 201.000
  20
 417.636
  30
0.0
  11
 204.768
  21
 415.052
  31
0.0
   0
LINE
   8
LEVEL003
   6
CONTINUOUS
  62
3
  10
 201.000
  20
 417.636
  30
0.0
  11
 205.425
  21
 416.497
  31
0.0
   0
LINE
   8
LEVEL003
   6
CONTINUOUS
  62
3
  10
 175.500
  20
 460.136
  30
0.0
  11
 325.500
  21
 460.136
  31
0.0
   0
LINE
   8
LEVEL003
   6
CONTINUOUS
  62
3
  10
 322.500
  20
 135.136
  30
0.0
  11
 322.500
  21
 460.136
  31
0.0
   0
LINE
   8
LEVEL003
   6
CONTINUOUS
  62
3
  10
 322.500
  20
 460.136
  30
0.0
  11
 321.707
  21
 455.636
  31
0.0
   0
LINE
   8
LEVEL003
   6
CONTINUOUS
  62
3
  10
 322.500
  20
 460.136
  30
0.0
  11
 323.293
  21
 455.636
  31
0.0
   0
LINE
   8
LEVEL001
   6
CONTINUOUS
  62
7
  10
 199.500
  20
 449.136
  30
0.0
  11
 198.500
  21
 450.136
  31
0.0
   0
LINE
   8
LEVEL001
   6
CONTINUOUS
  62
7
  10
 199.500
  20
 445.136
  30
0.0
  11
 199.500
  21
 449.136
  31
0.0
   0
LINE
   8
LEVEL001
   6
CONTINUOUS
  62
7
  10
 200.000
  20
 445.136
  30
0.0
  11
 201.000
  21
 444.136
  31
0.0
   0
LINE
   8
LEVEL001
   6
CONTINUOUS
  62
7
  10
 201.000
  20
 444.136
  30
0.0
  11
 201.000
  21
 401.404
  31
0.0
   0
LINE
   8
LEVEL001
   6
CONTINUOUS
  62
3
  10
 200.000
  20
 405.136
  30
0.0
  11
 201.000
  21
 401.404
  31
0.0
   0
LINE
   8
LEVEL001
   6
CONTINUOUS
  62
7
  10
 175.000
  20
 459.136
  30
0.0
  11
 174.000
  21
 460.136
  31
0.0
   0
LINE
   8
LEVEL001
   6
CONTINUOUS
  62
7
  10
 175.000
  20
 450.136
  30
0.0
  11
 175.000
  21
 459.136
  31
0.0
   0
LINE
   8
LEVEL001
   6
CONTINUOUS
  62
7
  10
 100.500
  20
 449.136
  30
0.0
  11
 101.500
  21
 450.136
  31
0.0
   0
LINE
   8
LEVEL001
   6
CONTINUOUS
  62
7
  10
 100.500
  20
 445.136
  30
0.0
  11
 100.500
  21
 449.136
  31
0.0
   0
LINE
   8
LEVEL001
   6
CONTINUOUS
  62
7
  10
 99.0000
  20
 137.136
  30
0.0
  11
 99.0000
  21
 401.404
  31
0.0
   0
LINE
   8
LEVEL001
   6
CONTINUOUS
  62
7
  10
 100.000
  20
 445.136
  30
0.0
  11
 99.0000
  21
 444.136
  31
0.0
   0
LINE
   8
LEVEL001
   6
CONTINUOUS
  62
7
  10
 99.0000
  20
 444.136
  30
0.0
  11
 99.0000
  21
 401.404
  31
0.0
   0
LINE
   8
LEVEL001
   6
CONTINUOUS
  62
3
  10
 100.000
  20
 405.136
  30
0.0
  11
 99.0000
  21
 401.404
  31
0.0
   0
LINE
   8
LEVEL001
   6
CONTINUOUS
  62
7
  10
 125.000
  20
 459.136
  30
0.0
  11
 126.000
  21
 460.136
  31
0.0
   0
LINE
   8
LEVEL001
   6
CONTINUOUS
  62
7
  10
 125.000
  20
 450.136
  30
0.0
  11
 125.000
  21
 459.136
  31
0.0
   0
LINE
   8
LEVEL001
   6
CONTINUOUS
  62
7
  10
 126.000
  20
 460.136
  30
0.0
  11
 174.000
  21
 460.136
  31
0.0
   0
LINE
   8
LEVEL001
   6
DASHDOT
  62
1
  10
 204.000
  20
 445.136
  30
0.0
  11
 204.000
  21
 405.136
  31
0.0
   0
LINE
   8
LEVEL001
   6
DASHDOT
  62
1
  10
 200.000
  20
 445.136
  30
0.0
  11
 204.000
  21
 445.136
  31
0.0
   0
LINE
   8
LEVEL001
   6
DASHDOT
  62
1
  10
 201.000
  20
 405.136
  30
0.0
  11
 204.000
  21
 405.136
  31
0.0
   0
LINE
   8
LEVEL001
   6
DASHDOT
  62
1
  10
 96.0000
  20
 445.136
  30
0.0
  11
 96.0000
  21
 405.136
  31
0.0
   0
LINE
   8
LEVEL001
   6
DASHDOT
  62
1
  10
 100.000
  20
 445.136
  30
0.0
  11
 96.0000
  21
 445.136
  31
0.0
   0
LINE
   8
LEVEL001
   6
DASHDOT
  62
1
  10
 99.0000
  20
 405.136
  30
0.0
  11
 96.0000
  21
 405.136
  31
0.0
   0
LINE
   8
LEVEL001
   6
DASHDOT
  62
1
  10
 150.000
  20
 470.136
  30
0.0
  11
 150.000
  21
 357.636
  31
0.0
   0
LINE
   8
LEVEL001
   6
DASHDOT
  62
1
  10
 150.000
  20
 350.136
  30
0.0
  11
 150.000
  21
 342.636
  31
0.0
   0
LINE
   8
LEVEL001
   6
DASHDOT
  62
1
  10
 150.000
  20
 335.136
  30
0.0
  11
 150.000
  21
 127.636
  31
0.0
   0
LINE
   8
LEVEL001
   6
CONTINUOUS
  62
7
  10
 191.100
  20
 450.136
  30
0.0
  11
 191.000
  21
 450.136
  31
0.0
   0
LINE
   8
LEVEL001
   6
CONTINUOUS
  62
7
  10
 101.500
  20
 450.136
  30
0.0
  11
 198.500
  21
 450.136
  31
0.0
   0
ARC
   8
LEVEL004
   6
DOT
  62
3
  10
 167.000
  20
 460.136
  30
0.0
  40
 1.00001
  50
 180.000
  51
0.0
   0
ARC
   8
LEVEL004
   6
DOT
  62
3
  10
 159.000
  20
 460.136
  30
0.0
  40
 1.00003
  50
 180.000
  51
0.0
   0
ARC
   8
LEVEL004
   6
DOT
  62
3
  10
 133.000
  20
 460.136
  30
0.0
  40
 1.00001
  50
 180.000
  51
0.0
   0
ARC
   8
LEVEL004
   6
DOT
  62
3
  10
 141.000
  20
 460.136
  30
0.0
  40
 1.00003
  50
 180.000
  51
0.0
   0
LINE
   8
LEVEL004
   6
DASHDOT
  62
1
  10
 130.250
  20
 443.136
  30
0.0
  11
 149.405
  21
 443.136
  31
0.0
   0
LINE
   8
LEVEL004
   6
DASHDOT
  62
1
  10
 145.539
  20
 441.636
  30
0.0
  11
 145.118
  21
 444.636
  31
0.0
   0
LINE
   8
LEVEL004
   6
DASHDOT
  62
1
  10
 145.118
  20
 444.636
  30
0.0
  11
 144.697
  21
 441.636
  31
0.0
   0
LINE
   8
LEVEL004
   6
DASHDOT
  62
1
  10
 144.697
  20
 441.636
  30
0.0
  11
 144.277
  21
 444.636
  31
0.0
   0
LINE
   8
LEVEL004
   6
DASHDOT
  62
1
  10
 144.277
  20
 444.636
  30
0.0
  11
 143.856
  21
 441.636
  31
0.0
   0
LINE
   8
LEVEL004
   6
DASHDOT
  62
1
  10
 143.856
  20
 441.636
  30
0.0
  11
 143.435
  21
 444.636
  31
0.0
   0
LINE
   8
LEVEL004
   6
DASHDOT
  62
1
  10
 143.435
  20
 444.636
  30
0.0
  11
 143.015
  21
 441.636
  31
0.0
   0
LINE
   8
LEVEL004
   6
DASHDOT
  62
1
  10
 143.015
  20
 441.636
  30
0.0
  11
 142.594
  21
 444.636
  31
0.0
   0
LINE
   8
LEVEL004
   6
DASHDOT
  62
1
  10
 142.594
  20
 444.636
  30
0.0
  11
 142.173
  21
 441.636
  31
0.0
   0
LINE
   8
LEVEL004
   6
DASHDOT
  62
1
  10
 142.173
  20
 441.636
  30
0.0
  11
 141.752
  21
 444.636
  31
0.0
   0
LINE
   8
LEVEL004
   6
DASHDOT
  62
1
  10
 141.752
  20
 444.636
  30
0.0
  11
 141.332
  21
 441.636
  31
0.0
   0
LINE
   8
LEVEL004
   6
DASHDOT
  62
1
  10
 141.332
  20
 441.636
  30
0.0
  11
 140.911
  21
 444.636
  31
0.0
   0
LINE
   8
LEVEL004
   6
DASHDOT
  62
1
  10
 140.911
  20
 444.636
  30
0.0
  11
 140.490
  21
 441.636
  31
0.0
   0
LINE
   8
LEVEL004
   6
DASHDOT
  62
1
  10
 140.490
  20
 441.636
  30
0.0
  11
 140.070
  21
 444.636
  31
0.0
   0
LINE
   8
LEVEL004
   6
DASHDOT
  62
1
  10
 140.070
  20
 444.636
  30
0.0
  11
 139.649
  21
 441.636
  31
0.0
   0
LINE
   8
LEVEL004
   6
DASHDOT
  62
1
  10
 139.649
  20
 441.636
  30
0.0
  11
 139.228
  21
 444.636
  31
0.0
   0
LINE
   8
LEVEL004
   6
DASHDOT
  62
1
  10
 139.228
  20
 444.636
  30
0.0
  11
 138.808
  21
 441.636
  31
0.0
   0
LINE
   8
LEVEL004
   6
DASHDOT
  62
1
  10
 138.808
  20
 441.636
  30
0.0
  11
 138.387
  21
 444.636
  31
0.0
   0
LINE
   8
LEVEL004
   6
DASHDOT
  62
1
  10
 138.387
  20
 444.636
  30
0.0
  11
 137.966
  21
 441.636
  31
0.0
   0
LINE
   8
LEVEL004
   6
DASHDOT
  62
1
  10
 137.966
  20
 441.636
  30
0.0
  11
 137.546
  21
 444.636
  31
0.0
   0
LINE
   8
LEVEL004
   6
DASHDOT
  62
1
  10
 137.546
  20
 444.636
  30
0.0
  11
 137.125
  21
 441.636
  31
0.0
   0
LINE
   8
LEVEL004
   6
DASHDOT
  62
1
  10
 137.125
  20
 441.636
  30
0.0
  11
 136.704
  21
 444.636
  31
0.0
   0
ARC
   8
LEVEL004
   6
DOT
  62
3
  10
 133.000
  20
 427.136
  30
0.0
  40
 1.00000
  50
 89.9983
  51
 179.999
   0
ARC
   8
LEVEL004
   6
DOT
  62
3
  10
 133.000
  20
 426.136
  30
0.0
  40
 1.00000
  50
 180.000
  51
 270.002
   0
LINE
   8
LEVEL004
   6
DOT
  62
3
  10
 132.000
  20
 427.136
  30
0.0
  11
 132.000
  21
 426.136
  31
0.0
   0
LINE
   8
LEVEL004
   6
DOT
  62
3
  10
 132.000
  20
 448.136
  30
0.0
  11
 132.000
  21
 427.136
  31
0.0
   0
LINE
   8
LEVEL004
   6
DOT
  62
3
  10
 132.000
  20
 449.636
  30
0.0
  11
 131.500
  21
 450.136
  31
0.0
   0
LINE
   8
LEVEL004
   6
DOT
  62
3
  10
 132.000
  20
 449.636
  30
0.0
  11
 132.000
  21
 448.126
  31
0.0
   0
LINE
   8
LEVEL004
   6
DOT
  62
3
  10
 145.250
  20
 445.136
  30
0.0
  11
 145.250
  21
 441.136
  31
0.0
   0
LINE
   8
LEVEL004
   6
DOT
  62
3
  10
 132.000
  20
 448.136
  30
0.0
  11
 133.000
  21
 447.136
  31
0.0
   0
LINE
   8
LEVEL004
   6
DOT
  62
3
  10
 133.000
  20
 447.136
  30
0.0
  11
 133.000
  21
 428.136
  31
0.0
   0
LINE
   8
LEVEL004
   6
DOT
  62
3
  10
 133.250
  20
 438.136
  30
0.0
  11
 134.250
  21
 437.136
  31
0.0
   0
LINE
   8
LEVEL004
   6
DOT
  62
3
  10
 133.000
  20
 447.136
  30
0.0
  11
 133.250
  21
 447.136
  31
0.0
   0
ARC
   8
LEVEL004
   6
DOT
  62
3
  10
 131.750
  20
 448.636
  30
0.0
  40
 1.50000
  50
0.0
  51
 90.0000
   0
LINE
   8
LEVEL004
   6
DOT
  62
3
  10
 165.750
  20
 437.136
  30
0.0
  11
 134.250
  21
 437.136
  31
0.0
   0
LINE
   8
LEVEL004
   6
DOT
  62
3
  10
 133.250
  20
 441.136
  30
0.0
  11
 145.250
  21
 441.136
  31
0.0
   0
LINE
   8
LEVEL004
   6
DOT
  62
3
  10
 145.250
  20
 441.136
  30
0.0
  11
 146.405
  21
 443.136
  31
0.0
   0
LINE
   8
LEVEL004
   6
DOT
  62
3
  10
 146.405
  20
 443.136
  30
0.0
  11
 145.250
  21
 445.136
  31
0.0
   0
LINE
   8
LEVEL004
   6
DOT
  62
3
  10
 145.250
  20
 445.136
  30
0.0
  11
 133.250
  21
 445.136
  31
0.0
   0
CIRCLE
   8
LEVEL004
   6
DOT
  62
3
  10
 134.984
  20
 443.136
  30
0.0
  40
 1.98438
   0
LINE
   8
LEVEL004
   6
DOT
  62
3
  10
 133.250
  20
 448.636
  30
0.0
  11
 133.250
  21
 444.101
  31
0.0
   0
LINE
   8
LEVEL004
   6
DOT
  62
3
  10
 133.250
  20
 442.172
  30
0.0
  11
 133.250
  21
 438.136
  31
0.0
   0
LINE
   8
LEVEL004
   6
DOT
  62
3
  10
 167.000
  20
 425.136
  30
0.0
  11
 133.000
  21
 425.136
  31
0.0
   0
LINE
   8
LEVEL004
   6
DOT
  62
3
  10
 167.000
  20
 428.136
  30
0.0
  11
 133.000
  21
 428.136
  31
0.0
   0
ARC
   8
LEVEL004
   6
DOT
  62
3
  10
 167.000
  20
 427.136
  30
0.0
  40
 1.00000
  50
 0.875945E-3
  51
 90.0017
   0
ARC
   8
LEVEL004
   6
DOT
  62
3
  10
 167.000
  20
 426.136
  30
0.0
  40
 1.00000
  50
 269.998
  51
 0.435451E-3
   0
LINE
   8
LEVEL004
   6
DOT
  62
3
  10
 168.000
  20
 427.136
  30
0.0
  11
 168.000
  21
 426.136
  31
0.0
   0
LINE
   8
LEVEL004
   6
DOT
  62
3
  10
 168.000
  20
 448.136
  30
0.0
  11
 168.000
  21
 427.136
  31
0.0
   0
LINE
   8
LEVEL004
   6
DOT
  62
3
  10
 168.000
  20
 448.136
  30
0.0
  11
 167.000
  21
 447.136
  31
0.0
   0
LINE
   8
LEVEL004
   6
DOT
  62
3
  10
 167.000
  20
 447.136
  30
0.0
  11
 167.000
  21
 428.136
  31
0.0
   0
LINE
   8
LEVEL004
   6
DOT
  62
3
  10
 168.000
  20
 449.636
  30
0.0
  11
 168.500
  21
 450.136
  31
0.0
   0
LINE
   8
LEVEL004
   6
DOT
  62
3
  10
 168.000
  20
 449.636
  30
0.0
  11
 168.000
  21
 448.126
  31
0.0
   0
LINE
   8
LEVEL004
   6
DOT
  62
3
  10
 167.000
  20
 447.136
  30
0.0
  11
 166.750
  21
 447.136
  31
0.0
   0
LINE
   8
LEVEL004
   6
DOT
  62
3
  10
 166.750
  20
 448.636
  30
0.0
  11
 166.750
  21
 438.136
  31
0.0
   0
ARC
   8
LEVEL004
   6
DOT
  62
3
  10
 168.250
  20
 448.636
  30
0.0
  40
 1.50000
  50
 90.0000
  51
 180.000
   0
LINE
   8
LEVEL004
   6
DOT
  62
3
  10
 166.750
  20
 438.136
  30
0.0
  11
 165.750
  21
 437.136
  31
0.0
   0
LINE
   8
LEVEL001
   6
CONTINUOUS
  62
7
  10
 201.000
  20
 137.136
  30
0.0
  11
 201.000
  21
 401.404
  31
0.0
   0
LINE
   8
LEVEL004
   6
DOT
  62
3
  10
 187.500
  20
 412.136
  30
0.0
  11
 187.500
  21
 178.936
  31
0.0
   0
LINE
   8
LEVEL004
   6
DOT
  62
3
  10
 182.500
  20
 295.136
  30
0.0
  11
 182.500
  21
 447.136
  31
0.0
   0
LINE
   8
LEVEL004
   6
DOT
  62
3
  10
 112.500
  20
 412.136
  30
0.0
  11
 112.500
  21
 178.936
  31
0.0
   0
LINE
   8
LEVEL004
   6
DOT
  62
3
  10
 117.500
  20
 295.136
  30
0.0
  11
 117.500
  21
 447.136
  31
0.0
   0
LINE
   8
LEVEL001
   6
CONTINUOUS
  62
3
  10
 200.000
  20
 445.136
  30
0.0
  11
 200.000
  21
 405.136
  31
0.0
   0
LINE
   8
LEVEL001
   6
CONTINUOUS
  62
7
  10
 100.000
  20
 445.136
  30
0.0
  11
 200.000
  21
 445.136
  31
0.0
   0
LINE
   8
LEVEL001
   6
CONTINUOUS
  62
7
  10
 199.500
  20
 449.136
  30
0.0
  11
 100.500
  21
 449.136
  31
0.0
   0
LINE
   8
LEVEL001
   6
CONTINUOUS
  62
7
  10
 125.000
  20
 459.136
  30
0.0
  11
 175.000
  21
 459.136
  31
0.0
   0
LINE
   8
LEVEL001
   6
CONTINUOUS
  62
3
  10
 100.000
  20
 445.136
  30
0.0
  11
 100.000
  21
 405.136
  31
0.0
   0
LINE
   8
LEVEL001
   6
CONTINUOUS
  62
7
  10
 201.000
  20
 401.404
  30
0.0
  11
 99.0000
  21
 401.404
  31
0.0
   0
LINE
   8
LEVEL001
   6
CONTINUOUS
  62
3
  10
 99.0000
  20
 444.136
  30
0.0
  11
 201.000
  21
 444.136
  31
0.0
   0
LINE
   8
LEVEL001
   6
CONTINUOUS
  62
3
  10
 99.0000
  20
 405.136
  30
0.0
  11
 201.000
  21
 405.136
  31
0.0
   0
LINE
   8
LEVEL003
   6
CONTINUOUS
  62
3
  10
 217.500
  20
 410.136
  30
0.0
  11
 261.706
  21
 410.136
  31
0.0
   0
LINE
   8
LEVEL003
   6
CONTINUOUS
  62
3
  10
 195.000
  20
 470.136
  30
0.0
  11
 231.084
  21
 470.136
  31
0.0
   0
TEXT
   8
LEVEL003
  62
3
  10
 321.300
  20
 293.136
  30
0.0
  40
 6.00000
   1
325
  50
 90.0000
  41
 0.500000
   7
STANDARD
  72
1
  11
 321.300
  21
 297.636
  31
0.0
   0
TEXT
   8
LEVEL003
  62
7
  10
 272.102
  20
 29.6134
  30
0.0
  40
 6.00000
   1
Model : Ｅ３０Ｓ２０
   7
STANDARD
   0
LINE
   8
LEVEL003
   6
CONTINUOUS
  62
3
  10
 159.810
  20
 425.136
  30
0.0
  11
 159.810
  21
 425.136
  31
0.0
   0
LINE
   8
LEVEL003
   6
CONTINUOUS
  62
3
  10
 167.250
  20
 450.136
  30
0.0
  11
 157.810
  21
 450.136
  31
0.0
   0
LINE
   8
LEVEL003
   6
CONTINUOUS
  62
3
  10
 159.810
  20
 425.136
  30
0.0
  11
 159.810
  21
 450.136
  31
0.0
   0
LINE
   8
LEVEL003
   6
CONTINUOUS
  62
3
  10
 159.810
  20
 425.136
  30
0.0
  11
 160.339
  21
 428.136
  31
0.0
   0
LINE
   8
LEVEL003
   6
CONTINUOUS
  62
3
  10
 159.810
  20
 425.136
  30
0.0
  11
 159.281
  21
 428.136
  31
0.0
   0
LINE
   8
LEVEL003
   6
CONTINUOUS
  62
3
  10
 159.810
  20
 450.136
  30
0.0
  11
 159.281
  21
 447.136
  31
0.0
   0
LINE
   8
LEVEL003
   6
CONTINUOUS
  62
3
  10
 159.810
  20
 450.136
  30
0.0
  11
 160.339
  21
 447.136
  31
0.0
   0
TEXT
   8
LEVEL003
  62
3
  10
 159.010
  20
 433.636
  30
0.0
  40
 4.00000
   1
25
  50
 90.0000
   7
STANDARD
  72
1
  11
 159.010
  21
 437.636
  31
0.0
   0
LINE
   8
LEVEL003
   6
CONTINUOUS
  62
3
  10
 199.500
  20
 450.136
  30
0.0
  11
 275.855
  21
 450.136
  31
0.0
   0
LINE
   8
LEVEL003
   6
CONTINUOUS
  62
3
  10
 205.000
  20
 405.136
  30
0.0
  11
 275.855
  21
 405.136
  31
0.0
   0
LINE
   8
LEVEL003
   6
CONTINUOUS
  62
3
  10
 273.855
  20
 450.136
  30
0.0
  11
 273.855
  21
 405.136
  31
0.0
   0
LINE
   8
LEVEL003
   6
CONTINUOUS
  62
3
  10
 273.855
  20
 450.136
  30
0.0
  11
 273.326
  21
 447.136
  31
0.0
   0
LINE
   8
LEVEL003
   6
CONTINUOUS
  62
3
  10
 273.855
  20
 450.136
  30
0.0
  11
 274.384
  21
 447.136
  31
0.0
   0
LINE
   8
LEVEL003
   6
CONTINUOUS
  62
3
  10
 273.855
  20
 405.136
  30
0.0
  11
 274.384
  21
 408.136
  31
0.0
   0
LINE
   8
LEVEL003
   6
CONTINUOUS
  62
3
  10
 273.855
  20
 405.136
  30
0.0
  11
 273.326
  21
 408.136
  31
0.0
   0
TEXT
   8
LEVEL003
  62
3
  10
 273.055
  20
 423.636
  30
0.0
  40
 4.00000
   1
45
  50
 90.0000
   7
STANDARD
  72
1
  11
 273.055
  21
 427.636
  31
0.0
   0
LINE
   8
LEVEL003
   6
CONTINUOUS
  62
3
  10
 175.000
  20
 460.136
  30
0.0
  11
 275.855
  21
 460.136
  31
0.0
   0
LINE
   8
LEVEL003
   6
CONTINUOUS
  62
3
  10
 199.500
  20
 450.136
  30
0.0
  11
 275.855
  21
 450.136
  31
0.0
   0
LINE
   8
LEVEL003
   6
CONTINUOUS
  62
3
  10
 273.855
  20
 460.136
  30
0.0
  11
 273.855
  21
 450.136
  31
0.0
   0
LINE
   8
LEVEL003
   6
CONTINUOUS
  62
3
  10
 273.855
  20
 460.136
  30
0.0
  11
 273.855
  21
 469.803
  31
0.0
   0
LINE
   8
LEVEL003
   6
CONTINUOUS
  62
3
  10
 273.855
  20
 460.136
  30
0.0
  11
 274.384
  21
 463.136
  31
0.0
   0
LINE
   8
LEVEL003
   6
CONTINUOUS
  62
3
  10
 273.855
  20
 460.136
  30
0.0
  11
 273.326
  21
 463.136
  31
0.0
   0
LINE
   8
LEVEL003
   6
CONTINUOUS
  62
3
  10
 273.855
  20
 450.136
  30
0.0
  11
 273.326
  21
 447.136
  31
0.0
   0
LINE
   8
LEVEL003
   6
CONTINUOUS
  62
3
  10
 273.855
  20
 450.136
  30
0.0
  11
 274.384
  21
 447.136
  31
0.0
   0
LINE
   8
LEVEL003
   6
CONTINUOUS
  62
3
  10
 273.855
  20
 460.136
  30
0.0
  11
 273.855
  21
 469.803
  31
0.0
   0
LINE
   8
LEVEL003
   6
CONTINUOUS
  62
3
  10
 273.855
  20
 450.136
  30
0.0
  11
 273.855
  21
 446.386
  31
0.0
   0
TEXT
   8
LEVEL003
  62
3
  10
 273.055
  20
 461.803
  30
0.0
  40
 4.00000
   1
10
  50
 90.0000
   7
STANDARD
  72
1
  11
 273.055
  21
 465.803
  31
0.0
   0
LINE
   8
LEVEL003
   6
CONTINUOUS
  62
3
  10
 199.500
  20
 450.136
  30
0.0
  11
 257.356
  21
 450.136
  31
0.0
   0
LINE
   8
LEVEL003
   6
CONTINUOUS
  62
3
  10
 205.000
  20
 445.136
  30
0.0
  11
 257.356
  21
 445.136
  31
0.0
   0
LINE
   8
LEVEL003
   6
CONTINUOUS
  62
3
  10
 255.356
  20
 450.136
  30
0.0
  11
 255.356
  21
 445.136
  31
0.0
   0
LINE
   8
LEVEL003
   6
CONTINUOUS
  62
3
  10
 255.356
  20
 445.136
  30
0.0
  11
 255.356
  21
 436.803
  31
0.0
   0
LINE
   8
LEVEL003
   6
CONTINUOUS
  62
3
  10
 255.356
  20
 450.136
  30
0.0
  11
 255.885
  21
 453.136
  31
0.0
   0
LINE
   8
LEVEL003
   6
CONTINUOUS
  62
3
  10
 255.356
  20
 450.136
  30
0.0
  11
 254.827
  21
 453.136
  31
0.0
   0
LINE
   8
LEVEL003
   6
CONTINUOUS
  62
3
  10
 255.356
  20
 445.136
  30
0.0
  11
 254.827
  21
 442.136
  31
0.0
   0
LINE
   8
LEVEL003
   6
CONTINUOUS
  62
3
  10
 255.356
  20
 445.136
  30
0.0
  11
 255.885
  21
 442.136
  31
0.0
   0
LINE
   8
LEVEL003
   6
CONTINUOUS
  62
3
  10
 255.356
  20
 450.136
  30
0.0
  11
 255.356
  21
 453.886
  31
0.0
   0
LINE
   8
LEVEL003
   6
CONTINUOUS
  62
3
  10
 255.356
  20
 445.136
  30
0.0
  11
 255.356
  21
 436.803
  31
0.0
   0
TEXT
   8
LEVEL003
  62
3
  10
 254.556
  20
 436.803
  30
0.0
  40
 4.00000
   1
5
  50
 90.0000
   7
STANDARD
  72
1
  11
 254.556
  21
 438.803
  31
0.0
   0
LINE
   8
LEVEL003
   6
CONTINUOUS
  62
3
  10
 97.5000
  20
 120.000
  30
0.0
  11
 32.0173
  21
 120.000
  31
0.0
   0
ENDSEC
   0
EOF
