   0
SECTION
   2
HEADER
   9
$LIMMIN
  10
0.0
  20
0.0
   9
$LIMMAX
  10
 630.000
  20
 465.000
   9
$EXTMIN
  10
0.0
  20
0.0
   9
$EXTMAX
  10
 630.000
  20
 465.000
   9
$LTSCALE
  40
 12.6000
   0
ENDSEC
   0
SECTION
   2
TABLES
  0
TABLE
  2
LTYPE
 70
    25
  0
LTYPE
  2
CONTINUOUS
 70
    64
  3
Solid line
 72
    65
 73
     0
 40
0.0
  0
LTYPE
  2
BORDER
 70
    64
  3
__ __ . __ __ . __ __ . __ __ . __ __ . __ __ .
 72
    65
 73
     6
 40
1.75
 49
0.5
 49
-0.25
 49
0.5
 49
-0.25
 49
0.0
 49
-0.25
  0
LTYPE
  2
BORDER2
 70
    64
  3
__.__.__.__.__.__.__.__.__.__.__.__.__.__.__.__
 72
    65
 73
     6
 40
0.875
 49
0.25
 49
-0.125
 49
0.25
 49
-0.125
 49
0.0
 49
-0.125
  0
LTYPE
  2
BORDERX2
 70
    64
  3
____  ____  .  ____  ____  .  ____  ____  .  __
 72
    65
 73
     6
 40
3.5
 49
1.0
 49
-0.5
 49
1.0
 49
-0.5
 49
0.0
 49
-0.5
  0
LTYPE
  2
CENTER
 70
    64
  3
____ _ ____ _ ____ _ ____ _ ____ _ ____ _ ____ 
 72
    65
 73
     4
 40
2.0
 49
1.25
 49
-0.25
 49
0.25
 49
-0.25
  0
LTYPE
  2
CENTER2
 70
    64
  3
___ _ ___ _ ___ _ ___ _ ___ _ ___ _ ___ _ ___ _
 72
    65
 73
     4
 40
1.125
 49
0.75
 49
-0.125
 49
0.125
 49
-0.125
  0
LTYPE
  2
CENTERX2
 70
    64
  3
________  __  ________  __  ________  __  _____
 72
    65
 73
     4
 40
4.0
 49
2.5
 49
-0.5
 49
0.5
 49
-0.5
  0
LTYPE
  2
DASHDOT
 70
    64
  3
__ . __ . __ . __ . __ . __ . __ . __ . __ . __
 72
    65
 73
     4
 40
1.0
 49
0.5
 49
-0.25
 49
0.0
 49
-0.25
  0
LTYPE
  2
DASHDOT2
 70
    64
  3
_._._._._._._._._._._._._._._._._._._._._._._._
 72
    65
 73
     4
 40
0.5
 49
0.25
 49
-0.125
 49
0.0
 49
-0.125
  0
LTYPE
  2
DASHDOTX2
 70
    64
  3
____  .  ____  .  ____  .  ____  .  ____  .  __
 72
    65
 73
     4
 40
2.0
 49
1.0
 49
-0.5
 49
0.0
 49
-0.5
  0
LTYPE
  2
DASHED
 70
    64
  3
__ __ __ __ __ __ __ __ __ __ __ __ __ __ __ __
 72
    65
 73
     2
 40
0.75
 49
0.5
 49
-0.25
  0
LTYPE
  2
DASHED2
 70
    64
  3
_ _ _ _ _ _ _ _ _ _ _ _ _ _ _ _ _ _ _ _ _ _ _ _
 72
    65
 73
     2
 40
0.375
 49
0.25
 49
-0.125
  0
LTYPE
  2
DASHEDX2
 70
    64
  3
____  ____  ____  ____  ____  ____  ____  ____ 
 72
    65
 73
     2
 40
1.5
 49
1.0
 49
-0.5
  0
LTYPE
  2
DIVIDE
 70
    64
  3
____ . . ____ . . ____ . . ____ . . ____ . . __
 72
    65
 73
     6
 40
1.25
 49
0.5
 49
-0.25
 49
0.0
 49
-0.25
 49
0.0
 49
-0.25
  0
LTYPE
  2
DIVIDE2
 70
    64
  3
__..__..__..__..__..__..__..__..__..__..__..__.
 72
    65
 73
     6
 40
0.625
 49
0.25
 49
-0.125
 49
0.0
 49
-0.125
 49
0.0
 49
-0.125
  0
LTYPE
  2
DIVIDEX2
 70
    64
  3
________  .  .  ________  .  .  ________  .  . 
 72
    65
 73
     6
 40
2.5
 49
1.0
 49
-0.5
 49
0.0
 49
-0.5
 49
0.0
 49
-0.5
  0
LTYPE
  2
DOT
 70
    64
  3
. . . . . . . . . . . . . . . . . . . . . . . .
 72
    65
 73
     2
 40
0.25
 49
0.0
 49
-0.25
  0
LTYPE
  2
DOT2
 70
    64
  3
...............................................
 72
    65
 73
     2
 40
0.125
 49
0.0
 49
-0.125
  0
LTYPE
  2
DOTX2
 70
    64
  3
.  .  .  .  .  .  .  .  .  .  .  .  .  .  .  . 
 72
    65
 73
     2
 40
0.5
 49
0.0
 49
-0.5
  0
LTYPE
  2
HIDDEN
 70
    64
  3
__ __ __ __ __ __ __ __ __ __ __ __ __ __ __ __
 72
    65
 73
     2
 40
0.375
 49
0.25
 49
-0.125
  0
LTYPE
  2
HIDDEN2
 70
    64
  3
_ _ _ _ _ _ _ _ _ _ _ _ _ _ _ _ _ _ _ _ _ _ _ _
 72
    65
 73
     2
 40
0.1875
 49
0.125
 49
-0.0625
  0
LTYPE
  2
HIDDENX2
 70
    64
  3
____ ____ ____ ____ ____ ____ ____ ____ ____ __
 72
    65
 73
     2
 40
0.75
 49
0.5
 49
-0.25
  0
LTYPE
  2
PHANTOM
 70
    64
  3
______  __  __  ______  __  __  ______  __  __ 
 72
    65
 73
     6
 40
2.5
 49
1.25
 49
-0.25
 49
0.25
 49
-0.25
 49
0.25
 49
-0.25
  0
LTYPE
  2
PHANTOM2
 70
    64
  3
___ _ _ ___ _ _ ___ _ _ ___ _ _ ___ _ _ ___ _ _
 72
    65
 73
     6
 40
1.25
 49
0.625
 49
-0.125
 49
0.125
 49
-0.125
 49
0.125
 49
-0.125
  0
LTYPE
  2
PHANTOMX2
 70
    64
  3
____________    ____    ____    ____________   
 72
    65
 73
     6
 40
5.0
 49
2.5
 49
-0.5
 49
0.5
 49
-0.5
 49
0.5
 49
-0.5
  0
ENDTAB
  0
TABLE
  2
STYLE
 70
     2
  0
STYLE
  2
STANDARD
 70
0
 40
0.0
 41
1.0
 50
0.0
 71
0
 42
0.2
  3
TXT
  4
BIGFONT
  0
STYLE
  2
STANDARD1
 70
     4
 40
0.0
 41
1.0
 50
0.0
 71
     0
 42
0.2
  3
TXT
  4
BIGFONT
  0
ENDTAB
   0
TABLE
   2
LAYER
  70
4
   0
LAYER
   2
0
  70
0
  62
7
   6
CONTINUOUS
   0
LAYER
   2
LEVEL001
  70
0
  62
7
   6
CONTINUOUS
   0
LAYER
   2
LEVEL003
  70
0
  62
7
   6
CONTINUOUS
   0
LAYER
   2
LEVEL004
  70
0
  62
7
   6
CONTINUOUS
   0
ENDTAB
   0
ENDSEC
   0
SECTION
   2
ENTITIES
   0
CIRCLE
   8
LEVEL001
   6
CONTINUOUS
  62
7
  10
 150.000
  20
 90.0000
  30
0.0
  40
 62.5000
   0
CIRCLE
   8
LEVEL001
   6
CONTINUOUS
  62
7
  10
 150.000
  20
 90.0000
  30
0.0
  40
 60.5000
   0
CIRCLE
   8
LEVEL001
   6
CONTINUOUS
  62
7
  10
 183.588
  20
 123.588
  30
0.0
  40
 5.12500
   0
CIRCLE
   8
LEVEL001
   6
CONTINUOUS
  62
3
  10
 183.588
  20
 123.588
  30
0.0
  40
 6.00000
   0
LINE
   8
LEVEL001
   6
DASHDOT
  62
1
  10
 189.952
  20
 129.952
  30
0.0
  11
 177.224
  21
 117.224
  31
0.0
   0
CIRCLE
   8
LEVEL001
   6
CONTINUOUS
  62
7
  10
 116.412
  20
 123.588
  30
0.0
  40
 5.12500
   0
CIRCLE
   8
LEVEL001
   6
CONTINUOUS
  62
3
  10
 116.412
  20
 123.588
  30
0.0
  40
 6.00000
   0
LINE
   8
LEVEL001
   6
DASHDOT
  62
1
  10
 110.048
  20
 129.952
  30
0.0
  11
 122.776
  21
 117.224
  31
0.0
   0
CIRCLE
   8
LEVEL001
   6
CONTINUOUS
  62
7
  10
 116.412
  20
 56.4124
  30
0.0
  40
 5.12500
   0
CIRCLE
   8
LEVEL001
   6
CONTINUOUS
  62
3
  10
 116.412
  20
 56.4124
  30
0.0
  40
 6.00000
   0
LINE
   8
LEVEL001
   6
DASHDOT
  62
1
  10
 110.048
  20
 50.0485
  30
0.0
  11
 122.776
  21
 62.7764
  31
0.0
   0
CIRCLE
   8
LEVEL001
   6
CONTINUOUS
  62
7
  10
 183.588
  20
 56.4124
  30
0.0
  40
 5.12500
   0
CIRCLE
   8
LEVEL001
   6
CONTINUOUS
  62
3
  10
 183.588
  20
 56.4124
  30
0.0
  40
 6.00000
   0
LINE
   8
LEVEL001
   6
DASHDOT
  62
1
  10
 189.952
  20
 50.0484
  30
0.0
  11
 177.224
  21
 62.7764
  31
0.0
   0
ARC
   8
LEVEL001
   6
CONTINUOUS
  62
7
  10
 150.000
  20
 90.0002
  30
0.0
  40
 65.4820
  50
 23.8632
  51
 36.1365
   0
LINE
   8
LEVEL001
   6
CONTINUOUS
  62
7
  10
 209.884
  20
 116.491
  30
0.0
  11
 208.419
  21
 112.213
  31
0.0
   0
LINE
   8
LEVEL001
   6
CONTINUOUS
  62
7
  10
 202.884
  20
 128.616
  30
0.0
  11
 198.447
  21
 129.486
  31
0.0
   0
LINE
   8
LEVEL001
   6
CONTINUOUS
  62
7
  10
 245.732
  20
 137.188
  30
0.0
  11
 209.884
  21
 116.491
  31
0.0
   0
LINE
   8
LEVEL001
   6
CONTINUOUS
  62
7
  10
 238.732
  20
 149.312
  30
0.0
  11
 202.884
  21
 128.616
  31
0.0
   0
ARC
   8
LEVEL001
   6
CONTINUOUS
  62
7
  10
 242.219
  20
 143.243
  30
0.0
  40
 7.00000
  50
 300.123
  51
 119.877
   0
LINE
   8
LEVEL001
   6
DASHDOT
  62
1
  10
 253.923
  20
 150.000
  30
0.0
  11
 195.466
  21
 116.250
  31
0.0
   0
LINE
   8
LEVEL001
   6
DASHDOT
  62
1
  10
 150.000
  20
 15.0000
  30
0.0
  11
 150.000
  21
 165.000
  31
0.0
   0
CIRCLE
   8
LEVEL001
   6
CONTINUOUS
  62
3
  10
 150.000
  20
 90.0000
  30
0.0
  40
 7.47500
   0
LINE
   8
LEVEL001
   6
CONTINUOUS
  62
7
  10
 150.000
  20
 85.3812
  30
0.0
  11
 146.000
  21
 87.6906
  31
0.0
   0
LINE
   8
LEVEL001
   6
CONTINUOUS
  62
7
  10
 146.000
  20
 87.6906
  30
0.0
  11
 146.000
  21
 92.3093
  31
0.0
   0
LINE
   8
LEVEL001
   6
CONTINUOUS
  62
7
  10
 146.000
  20
 92.3093
  30
0.0
  11
 150.000
  21
 94.6188
  31
0.0
   0
LINE
   8
LEVEL001
   6
CONTINUOUS
  62
7
  10
 150.000
  20
 94.6188
  30
0.0
  11
 154.000
  21
 92.3094
  31
0.0
   0
LINE
   8
LEVEL001
   6
CONTINUOUS
  62
7
  10
 154.000
  20
 92.3094
  30
0.0
  11
 154.000
  21
 87.6906
  31
0.0
   0
LINE
   8
LEVEL001
   6
CONTINUOUS
  62
7
  10
 154.000
  20
 87.6906
  30
0.0
  11
 150.000
  21
 85.3812
  31
0.0
   0
ARC
   8
LEVEL001
   6
CONTINUOUS
  62
7
  10
 241.000
  20
 103.000
  30
0.0
  40
 1.50000
  50
 90.0000
  51
 180.000
   0
LINE
   8
LEVEL001
   6
CONTINUOUS
  62
7
  10
 241.000
  20
 104.500
  30
0.0
  11
 246.000
  21
 104.500
  31
0.0
   0
ARC
   8
LEVEL001
   6
CONTINUOUS
  62
7
  10
 241.000
  20
 77.0000
  30
0.0
  40
 1.50000
  50
 180.000
  51
 270.000
   0
LINE
   8
LEVEL001
   6
CONTINUOUS
  62
7
  10
 239.500
  20
 77.0000
  30
0.0
  11
 239.500
  21
 103.000
  31
0.0
   0
LINE
   8
LEVEL001
   6
CONTINUOUS
  62
7
  10
 241.000
  20
 75.5000
  30
0.0
  11
 246.000
  21
 75.5000
  31
0.0
   0
ARC
   8
LEVEL001
   6
CONTINUOUS
  62
7
  10
 262.000
  20
 103.000
  30
0.0
  40
 1.50000
  50
 0.683030E-5
  51
 90.0000
   0
LINE
   8
LEVEL001
   6
CONTINUOUS
  62
7
  10
 257.000
  20
 104.500
  30
0.0
  11
 262.000
  21
 104.500
  31
0.0
   0
ARC
   8
LEVEL001
   6
CONTINUOUS
  62
7
  10
 262.000
  20
 77.0000
  30
0.0
  40
 1.50000
  50
 270.000
  51
0.0
   0
LINE
   8
LEVEL001
   6
CONTINUOUS
  62
7
  10
 257.000
  20
 75.5000
  30
0.0
  11
 262.000
  21
 75.5000
  31
0.0
   0
LINE
   8
LEVEL001
   6
CONTINUOUS
  62
7
  10
 263.500
  20
 103.000
  30
0.0
  11
 263.500
  21
 77.0000
  31
0.0
   0
ARC
   8
LEVEL001
   6
DASHDOT
  62
1
  10
 272.500
  20
 103.000
  30
0.0
  40
 1.00000
  50
 359.993
  51
 89.9965
   0
LINE
   8
LEVEL001
   6
DASHDOT
  62
1
  10
 264.500
  20
 104.000
  30
0.0
  11
 272.500
  21
 104.000
  31
0.0
   0
ARC
   8
LEVEL001
   6
DASHDOT
  62
1
  10
 272.500
  20
 76.9999
  30
0.0
  40
 1.00000
  50
 270.004
  51
 0.174181E-2
   0
LINE
   8
LEVEL001
   6
DASHDOT
  62
1
  10
 264.500
  20
 75.9999
  30
0.0
  11
 272.500
  21
 75.9999
  31
0.0
   0
LINE
   8
LEVEL001
   6
DASHDOT
  62
1
  10
 273.500
  20
 103.000
  30
0.0
  11
 273.500
  21
 77.0000
  31
0.0
   0
ARC
   8
LEVEL001
   6
DASHDOT
  62
1
  10
 264.500
  20
 76.9999
  30
0.0
  40
 1.00000
  50
 179.998
  51
 269.996
   0
ARC
   8
LEVEL001
   6
DASHDOT
  62
1
  10
 264.500
  20
 103.000
  30
0.0
  40
 1.00000
  50
 90.0035
  51
 180.007
   0
LINE
   8
LEVEL001
   6
CONTINUOUS
  62
3
  10
 218.884
  20
 97.5000
  30
0.0
  11
 218.883
  21
 82.5000
  31
0.0
   0
LINE
   8
LEVEL001
   6
CONTINUOUS
  62
7
  10
 222.500
  20
 97.5000
  30
0.0
  11
 222.500
  21
 82.5000
  31
0.0
   0
LINE
   8
LEVEL001
   6
CONTINUOUS
  62
7
  10
 223.983
  20
 82.5000
  30
0.0
  11
 223.983
  21
 97.5000
  31
0.0
   0
LINE
   8
LEVEL001
   6
CONTINUOUS
  62
3
  10
 246.000
  20
 77.0000
  30
0.0
  11
 257.000
  21
 77.0000
  31
0.0
   0
LINE
   8
LEVEL001
   6
CONTINUOUS
  62
3
  10
 246.000
  20
 78.9999
  30
0.0
  11
 257.000
  21
 78.9999
  31
0.0
   0
LINE
   8
LEVEL001
   6
CONTINUOUS
  62
3
  10
 246.000
  20
 81.0000
  30
0.0
  11
 257.000
  21
 81.0000
  31
0.0
   0
LINE
   8
LEVEL001
   6
CONTINUOUS
  62
3
  10
 246.000
  20
 83.0001
  30
0.0
  11
 257.000
  21
 83.0001
  31
0.0
   0
LINE
   8
LEVEL001
   6
CONTINUOUS
  62
3
  10
 246.000
  20
 84.9999
  30
0.0
  11
 257.000
  21
 84.9999
  31
0.0
   0
LINE
   8
LEVEL001
   6
CONTINUOUS
  62
3
  10
 246.000
  20
 87.0000
  30
0.0
  11
 257.000
  21
 87.0000
  31
0.0
   0
LINE
   8
LEVEL001
   6
CONTINUOUS
  62
3
  10
 246.000
  20
 89.0001
  30
0.0
  11
 257.000
  21
 89.0001
  31
0.0
   0
LINE
   8
LEVEL001
   6
CONTINUOUS
  62
3
  10
 246.000
  20
 90.9999
  30
0.0
  11
 257.000
  21
 90.9999
  31
0.0
   0
LINE
   8
LEVEL001
   6
CONTINUOUS
  62
3
  10
 246.000
  20
 93.0000
  30
0.0
  11
 257.000
  21
 93.0000
  31
0.0
   0
LINE
   8
LEVEL001
   6
CONTINUOUS
  62
3
  10
 246.000
  20
 95.0001
  30
0.0
  11
 257.000
  21
 95.0001
  31
0.0
   0
LINE
   8
LEVEL001
   6
CONTINUOUS
  62
3
  10
 246.000
  20
 96.9999
  30
0.0
  11
 257.000
  21
 96.9999
  31
0.0
   0
LINE
   8
LEVEL001
   6
CONTINUOUS
  62
3
  10
 246.000
  20
 99.0000
  30
0.0
  11
 257.000
  21
 99.0000
  31
0.0
   0
LINE
   8
LEVEL001
   6
CONTINUOUS
  62
3
  10
 246.000
  20
 101.000
  30
0.0
  11
 257.000
  21
 101.000
  31
0.0
   0
LINE
   8
LEVEL001
   6
CONTINUOUS
  62
3
  10
 246.000
  20
 103.000
  30
0.0
  11
 257.000
  21
 103.000
  31
0.0
   0
LINE
   8
LEVEL001
   6
CONTINUOUS
  62
3
  10
 218.500
  20
 97.6625
  30
0.0
  11
 212.500
  21
 97.4750
  31
0.0
   0
LINE
   8
LEVEL001
   6
CONTINUOUS
  62
3
  10
 218.495
  20
 82.3377
  30
0.0
  11
 212.500
  21
 82.5250
  31
0.0
   0
LINE
   8
LEVEL001
   6
DASHDOT
  62
1
  10
 273.500
  20
 92.0001
  30
0.0
  11
 279.500
  21
 92.0001
  31
0.0
   0
LINE
   8
LEVEL001
   6
DASHDOT
  62
1
  10
 279.500
  20
 92.0001
  30
0.0
  11
 279.500
  21
 87.9999
  31
0.0
   0
LINE
   8
LEVEL001
   6
DASHDOT
  62
1
  10
 279.500
  20
 87.9999
  30
0.0
  11
 273.500
  21
 87.9999
  31
0.0
   0
LINE
   8
LEVEL001
   6
CONTINUOUS
  62
7
  10
 246.000
  20
 75.0000
  30
0.0
  11
 246.000
  21
 105.000
  31
0.0
   0
LINE
   8
LEVEL001
   6
CONTINUOUS
  62
7
  10
 246.000
  20
 105.000
  30
0.0
  11
 257.000
  21
 105.000
  31
0.0
   0
LINE
   8
LEVEL001
   6
CONTINUOUS
  62
7
  10
 257.000
  20
 105.000
  30
0.0
  11
 257.000
  21
 75.0000
  31
0.0
   0
LINE
   8
LEVEL001
   6
CONTINUOUS
  62
7
  10
 257.000
  20
 75.0000
  30
0.0
  11
 246.000
  21
 75.0000
  31
0.0
   0
LINE
   8
LEVEL001
   6
CONTINUOUS
  62
7
  10
 211.945
  20
 81.6863
  30
0.0
  11
 218.500
  21
 81.4815
  31
0.0
   0
LINE
   8
LEVEL001
   6
CONTINUOUS
  62
7
  10
 218.500
  20
 81.4815
  30
0.0
  11
 218.500
  21
 82.5000
  31
0.0
   0
LINE
   8
LEVEL001
   6
CONTINUOUS
  62
7
  10
 218.500
  20
 82.5000
  30
0.0
  11
 232.500
  21
 82.5000
  31
0.0
   0
LINE
   8
LEVEL001
   6
CONTINUOUS
  62
7
  10
 232.500
  20
 82.5000
  30
0.0
  11
 232.500
  21
 80.4999
  31
0.0
   0
LINE
   8
LEVEL001
   6
CONTINUOUS
  62
7
  10
 232.500
  20
 80.4999
  30
0.0
  11
 239.500
  21
 80.4999
  31
0.0
   0
LINE
   8
LEVEL001
   6
CONTINUOUS
  62
7
  10
 211.945
  20
 98.3135
  30
0.0
  11
 218.500
  21
 98.5185
  31
0.0
   0
LINE
   8
LEVEL001
   6
CONTINUOUS
  62
7
  10
 218.500
  20
 98.5185
  30
0.0
  11
 218.500
  21
 97.5000
  31
0.0
   0
LINE
   8
LEVEL001
   6
CONTINUOUS
  62
7
  10
 218.500
  20
 97.5000
  30
0.0
  11
 232.500
  21
 97.5000
  31
0.0
   0
LINE
   8
LEVEL001
   6
CONTINUOUS
  62
7
  10
 232.500
  20
 97.5000
  30
0.0
  11
 232.500
  21
 99.5001
  31
0.0
   0
LINE
   8
LEVEL001
   6
CONTINUOUS
  62
7
  10
 232.500
  20
 99.5001
  30
0.0
  11
 239.500
  21
 99.5001
  31
0.0
   0
LINE
   8
LEVEL001
   6
DASHDOT
  62
1
  10
 285.000
  20
 90.0000
  30
0.0
  11
 75.0000
  21
 90.0000
  31
0.0
   0
LINE
   8
LEVEL003
   6
CONTINUOUS
  62
3
  10
 286.500
  20
 90.0000
  30
0.0
  11
 311.741
  21
 90.0000
  31
0.0
   0
LINE
   8
LEVEL003
   6
CONTINUOUS
  62
3
  10
 255.222
  20
 150.750
  30
0.0
  11
 290.072
  21
 170.871
  31
0.0
   0
ARC
   8
LEVEL003
   6
CONTINUOUS
  62
3
  10
 150.000
  20
 90.0000
  30
0.0
  40
 158.741
  50
 0.307755E-13
  51
 30.0000
   0
LINE
   8
LEVEL003
   6
CONTINUOUS
  62
3
  10
 308.741
  20
 90.0000
  30
0.0
  11
 309.492
  21
 94.5073
  31
0.0
   0
LINE
   8
LEVEL003
   6
CONTINUOUS
  62
3
  10
 308.741
  20
 90.0000
  30
0.0
  11
 307.905
  21
 94.4923
  31
0.0
   0
LINE
   8
LEVEL003
   6
CONTINUOUS
  62
3
  10
 287.474
  20
 169.371
  30
0.0
  11
 288.996
  21
 165.062
  31
0.0
   0
LINE
   8
LEVEL003
   6
CONTINUOUS
  62
3
  10
 287.474
  20
 169.371
  30
0.0
  11
 290.378
  21
 165.843
  31
0.0
   0
TEXT
   8
LEVEL003
  62
3
  10
 289.893
  20
 116.751
  30
0.0
  40
 6.00000
   1
30%%d
   7
STANDARD
  72
1
  11
 295.893
  21
 116.751
  31
0.0
   0
CIRCLE
   8
LEVEL001
   6
CONTINUOUS
  62
7
  10
 150.000
  20
 90.0000
  30
0.0
  40
 8.33100
   0
CIRCLE
   8
LEVEL001
   6
CONTINUOUS
  62
7
  10
 150.000
  20
 90.0000
  30
0.0
  40
 9.83102
   0
CIRCLE
   8
LEVEL001
   6
DASHDOT
  62
1
  10
 150.000
  20
 90.0000
  30
0.0
  40
 47.5000
   0
TEXT
   8
LEVEL003
  62
3
  10
 225.000
  20
 387.500
  30
0.0
  40
 6.00000
   1
Ｍ１２５×２
   7
STANDARD
   0
LINE
   8
LEVEL003
   6
CONTINUOUS
  62
3
  10
 212.500
  20
 395.000
  30
0.0
  11
 225.000
  21
 387.500
  31
0.0
   0
LINE
   8
LEVEL003
   6
CONTINUOUS
  62
3
  10
 212.500
  20
 395.000
  30
0.0
  11
 215.950
  21
 392.004
  31
0.0
   0
LINE
   8
LEVEL003
   6
CONTINUOUS
  62
3
  10
 212.500
  20
 395.000
  30
0.0
  11
 216.767
  21
 393.365
  31
0.0
   0
LINE
   8
LEVEL003
   6
CONTINUOUS
  62
3
  10
 59.0000
  20
 354.000
  30
0.0
  11
 19.5000
  21
 354.000
  31
0.0
   0
LINE
   8
LEVEL003
   6
CONTINUOUS
  62
3
  10
 59.0000
  20
 234.000
  30
0.0
  11
 19.5000
  21
 234.000
  31
0.0
   0
LINE
   8
LEVEL003
   6
CONTINUOUS
  62
3
  10
 22.5000
  20
 354.000
  30
0.0
  11
 22.5000
  21
 234.000
  31
0.0
   0
LINE
   8
LEVEL003
   6
CONTINUOUS
  62
3
  10
 22.5000
  20
 354.000
  30
0.0
  11
 21.7065
  21
 349.500
  31
0.0
   0
LINE
   8
LEVEL003
   6
CONTINUOUS
  62
3
  10
 22.5000
  20
 354.000
  30
0.0
  11
 23.2935
  21
 349.500
  31
0.0
   0
LINE
   8
LEVEL003
   6
CONTINUOUS
  62
3
  10
 22.5000
  20
 234.000
  30
0.0
  11
 23.2935
  21
 238.500
  31
0.0
   0
LINE
   8
LEVEL003
   6
CONTINUOUS
  62
3
  10
 22.5000
  20
 234.000
  30
0.0
  11
 21.7065
  21
 238.500
  31
0.0
   0
TEXT
   8
LEVEL003
  62
3
  10
 21.3000
  20
 289.500
  30
0.0
  40
 6.00000
   1
120
  50
 90.0000
  41
 0.500000
   7
STANDARD
  72
1
  11
 21.3000
  21
 294.000
  31
0.0
   0
LINE
   8
LEVEL003
   6
CONTINUOUS
  62
3
  10
 115.000
  20
 429.500
  30
0.0
  11
 115.000
  21
 460.500
  31
0.0
   0
LINE
   8
LEVEL003
   6
CONTINUOUS
  62
3
  10
 185.000
  20
 429.500
  30
0.0
  11
 185.000
  21
 460.500
  31
0.0
   0
LINE
   8
LEVEL003
   6
CONTINUOUS
  62
3
  10
 115.000
  20
 457.500
  30
0.0
  11
 185.000
  21
 457.500
  31
0.0
   0
LINE
   8
LEVEL003
   6
CONTINUOUS
  62
3
  10
 115.000
  20
 457.500
  30
0.0
  11
 119.500
  21
 456.707
  31
0.0
   0
LINE
   8
LEVEL003
   6
CONTINUOUS
  62
3
  10
 115.000
  20
 457.500
  30
0.0
  11
 119.500
  21
 458.293
  31
0.0
   0
LINE
   8
LEVEL003
   6
CONTINUOUS
  62
3
  10
 185.000
  20
 457.500
  30
0.0
  11
 180.500
  21
 458.293
  31
0.0
   0
LINE
   8
LEVEL003
   6
CONTINUOUS
  62
3
  10
 185.000
  20
 457.500
  30
0.0
  11
 180.500
  21
 456.707
  31
0.0
   0
TEXT
   8
LEVEL003
  62
3
  10
 144.000
  20
 458.700
  30
0.0
  40
 6.00000
   1
%%c70
   7
STANDARD
  72
1
  11
 150.000
  21
 458.700
  31
0.0
   0
LINE
   8
LEVEL003
   6
CONTINUOUS
  62
3
  10
 102.500
  20
 205.500
  30
0.0
  11
 102.500
  21
 177.000
  31
0.0
   0
LINE
   8
LEVEL003
   6
CONTINUOUS
  62
3
  10
 197.500
  20
 205.500
  30
0.0
  11
 197.500
  21
 177.000
  31
0.0
   0
LINE
   8
LEVEL003
   6
CONTINUOUS
  62
3
  10
 102.500
  20
 180.000
  30
0.0
  11
 197.500
  21
 180.000
  31
0.0
   0
LINE
   8
LEVEL003
   6
CONTINUOUS
  62
3
  10
 102.500
  20
 180.000
  30
0.0
  11
 107.000
  21
 179.207
  31
0.0
   0
LINE
   8
LEVEL003
   6
CONTINUOUS
  62
3
  10
 102.500
  20
 180.000
  30
0.0
  11
 107.000
  21
 180.793
  31
0.0
   0
LINE
   8
LEVEL003
   6
CONTINUOUS
  62
3
  10
 197.500
  20
 180.000
  30
0.0
  11
 193.000
  21
 180.793
  31
0.0
   0
LINE
   8
LEVEL003
   6
CONTINUOUS
  62
3
  10
 197.500
  20
 180.000
  30
0.0
  11
 193.000
  21
 179.207
  31
0.0
   0
TEXT
   8
LEVEL003
  62
3
  10
 144.000
  20
 181.200
  30
0.0
  40
 6.00000
   1
%%c95
   7
STANDARD
  72
1
  11
 150.000
  21
 181.200
  31
0.0
   0
TEXT
   8
LEVEL003
  62
3
  10
 232.500
  20
 195.000
  30
0.0
  40
 6.00000
   1
ＮＰＴ３／８
   7
STANDARD
   0
LINE
   8
LEVEL003
   6
CONTINUOUS
  62
3
  10
 215.806
  20
 230.566
  30
0.0
  11
 232.500
  21
 195.000
  31
0.0
   0
LINE
   8
LEVEL003
   6
CONTINUOUS
  62
3
  10
 215.806
  20
 230.566
  30
0.0
  11
 217.000
  21
 226.155
  31
0.0
   0
LINE
   8
LEVEL003
   6
CONTINUOUS
  62
3
  10
 215.806
  20
 230.566
  30
0.0
  11
 218.436
  21
 226.829
  31
0.0
   0
LINE
   8
LEVEL003
   6
CONTINUOUS
  62
3
  10
 87.5000
  20
 300.000
  30
0.0
  11
 212.500
  21
 300.000
  31
0.0
   0
LINE
   8
LEVEL003
   6
CONTINUOUS
  62
3
  10
 87.5000
  20
 300.000
  30
0.0
  11
 92.0000
  21
 299.207
  31
0.0
   0
LINE
   8
LEVEL003
   6
CONTINUOUS
  62
3
  10
 87.5000
  20
 300.000
  30
0.0
  11
 92.0000
  21
 300.793
  31
0.0
   0
LINE
   8
LEVEL003
   6
CONTINUOUS
  62
3
  10
 212.500
  20
 300.000
  30
0.0
  11
 208.000
  21
 300.793
  31
0.0
   0
LINE
   8
LEVEL003
   6
CONTINUOUS
  62
3
  10
 212.500
  20
 300.000
  30
0.0
  11
 208.000
  21
 299.207
  31
0.0
   0
TEXT
   8
LEVEL003
  62
3
  10
 142.500
  20
 301.200
  30
0.0
  40
 6.00000
   1
%%c125
   7
STANDARD
  72
1
  11
 150.000
  21
 301.200
  31
0.0
   0
LINE
   8
LEVEL003
   6
CONTINUOUS
  62
3
  10
 36.5000
  20
 300.000
  30
0.0
  11
 87.5000
  21
 300.000
  31
0.0
   0
LINE
   8
LEVEL003
   6
CONTINUOUS
  62
3
  10
 36.5000
  20
 300.000
  30
0.0
  11
 41.0000
  21
 299.207
  31
0.0
   0
LINE
   8
LEVEL003
   6
CONTINUOUS
  62
3
  10
 36.5000
  20
 300.000
  30
0.0
  11
 41.0000
  21
 300.793
  31
0.0
   0
LINE
   8
LEVEL003
   6
CONTINUOUS
  62
3
  10
 87.5000
  20
 300.000
  30
0.0
  11
 83.0000
  21
 300.793
  31
0.0
   0
LINE
   8
LEVEL003
   6
CONTINUOUS
  62
3
  10
 87.5000
  20
 300.000
  30
0.0
  11
 83.0000
  21
 299.207
  31
0.0
   0
TEXT
   8
LEVEL003
  62
3
  10
 59.0000
  20
 301.200
  30
0.0
  40
 6.00000
   1
51
  41
 0.500000
   7
STANDARD
  72
1
  11
 62.0000
  21
 301.200
  31
0.0
   0
LINE
   8
LEVEL003
   6
CONTINUOUS
  62
3
  10
 102.500
  20
 315.000
  30
0.0
  11
 197.500
  21
 315.000
  31
0.0
   0
LINE
   8
LEVEL003
   6
CONTINUOUS
  62
3
  10
 102.500
  20
 315.000
  30
0.0
  11
 107.000
  21
 314.207
  31
0.0
   0
LINE
   8
LEVEL003
   6
CONTINUOUS
  62
3
  10
 102.500
  20
 315.000
  30
0.0
  11
 107.000
  21
 315.793
  31
0.0
   0
LINE
   8
LEVEL003
   6
CONTINUOUS
  62
3
  10
 197.500
  20
 315.000
  30
0.0
  11
 193.000
  21
 315.793
  31
0.0
   0
LINE
   8
LEVEL003
   6
CONTINUOUS
  62
3
  10
 197.500
  20
 315.000
  30
0.0
  11
 193.000
  21
 314.207
  31
0.0
   0
TEXT
   8
LEVEL003
  62
3
  10
 144.000
  20
 316.200
  30
0.0
  40
 6.00000
   1
%%c95
   7
STANDARD
  72
1
  11
 150.000
  21
 316.200
  31
0.0
   0
LINE
   8
LEVEL003
   6
CONTINUOUS
  62
3
  10
 107.500
  20
 330.000
  30
0.0
  11
 192.500
  21
 330.000
  31
0.0
   0
LINE
   8
LEVEL003
   6
CONTINUOUS
  62
3
  10
 107.500
  20
 330.000
  30
0.0
  11
 112.000
  21
 329.207
  31
0.0
   0
LINE
   8
LEVEL003
   6
CONTINUOUS
  62
3
  10
 107.500
  20
 330.000
  30
0.0
  11
 112.000
  21
 330.793
  31
0.0
   0
LINE
   8
LEVEL003
   6
CONTINUOUS
  62
3
  10
 192.500
  20
 330.000
  30
0.0
  11
 188.000
  21
 330.793
  31
0.0
   0
LINE
   8
LEVEL003
   6
CONTINUOUS
  62
3
  10
 192.500
  20
 330.000
  30
0.0
  11
 188.000
  21
 329.207
  31
0.0
   0
TEXT
   8
LEVEL003
  62
3
  10
 144.000
  20
 331.200
  30
0.0
  40
 6.00000
   1
%%c85
   7
STANDARD
  72
1
  11
 150.000
  21
 331.200
  31
0.0
   0
LINE
   8
LEVEL001
   6
CONTINUOUS
  62
3
  10
 222.500
  20
 230.356
  30
0.0
  11
 218.884
  21
 231.326
  31
0.0
   0
LINE
   8
LEVEL001
   6
CONTINUOUS
  62
7
  10
 222.500
  20
 230.356
  30
0.0
  11
 223.984
  21
 229.500
  31
0.0
   0
LINE
   8
LEVEL001
   6
CONTINUOUS
  62
7
  10
 239.500
  20
 229.500
  30
0.0
  11
 223.984
  21
 229.500
  31
0.0
   0
ARC
   8
LEVEL001
   6
CONTINUOUS
  62
7
  10
 241.000
  20
 226.000
  30
0.0
  40
 1.50000
  50
 180.000
  51
 270.000
   0
LINE
   8
LEVEL001
   6
CONTINUOUS
  62
7
  10
 239.500
  20
 226.000
  30
0.0
  11
 239.500
  21
 252.000
  31
0.0
   0
LINE
   8
LEVEL001
   6
CONTINUOUS
  62
7
  10
 241.000
  20
 224.500
  30
0.0
  11
 246.000
  21
 224.500
  31
0.0
   0
ARC
   8
LEVEL001
   6
CONTINUOUS
  62
7
  10
 262.000
  20
 226.000
  30
0.0
  40
 1.50000
  50
 270.000
  51
0.0
   0
LINE
   8
LEVEL001
   6
CONTINUOUS
  62
7
  10
 257.000
  20
 224.500
  30
0.0
  11
 262.000
  21
 224.500
  31
0.0
   0
LINE
   8
LEVEL001
   6
CONTINUOUS
  62
7
  10
 263.500
  20
 252.000
  30
0.0
  11
 263.500
  21
 226.000
  31
0.0
   0
ARC
   8
LEVEL001
   6
DASHDOT
  62
1
  10
 272.500
  20
 226.000
  30
0.0
  40
 1.00000
  50
 270.000
  51
 0.435426E-3
   0
LINE
   8
LEVEL001
   6
DASHDOT
  62
1
  10
 264.500
  20
 225.000
  30
0.0
  11
 272.500
  21
 225.000
  31
0.0
   0
LINE
   8
LEVEL001
   6
DASHDOT
  62
1
  10
 273.500
  20
 252.000
  30
0.0
  11
 273.500
  21
 226.000
  31
0.0
   0
ARC
   8
LEVEL001
   6
DASHDOT
  62
1
  10
 264.500
  20
 226.000
  30
0.0
  40
 1.00000
  50
 180.000
  51
 270.000
   0
ARC
   8
LEVEL001
   6
DASHDOT
  62
1
  10
 275.500
  20
 233.500
  30
0.0
  40
 2.00000
  50
 90.0002
  51
 180.000
   0
LINE
   8
LEVEL001
   6
DASHDOT
  62
1
  10
 275.500
  20
 235.500
  30
0.0
  11
 276.000
  21
 235.500
  31
0.0
   0
ARC
   8
LEVEL001
   6
DASHDOT
  62
1
  10
 276.000
  20
 239.000
  30
0.0
  40
 3.50000
  50
 270.000
  51
 90.0000
   0
LINE
   8
LEVEL001
   6
CONTINUOUS
  62
7
  10
 223.984
  20
 229.500
  30
0.0
  11
 223.984
  21
 233.169
  31
0.0
   0
LINE
   8
LEVEL001
   6
CONTINUOUS
  62
7
  10
 218.500
  20
 234.961
  30
0.0
  11
 232.500
  21
 244.831
  31
0.0
   0
LINE
   8
LEVEL001
   6
CONTINUOUS
  62
7
  10
 218.500
  20
 243.039
  30
0.0
  11
 232.500
  21
 233.169
  31
0.0
   0
LINE
   8
LEVEL001
   6
CONTINUOUS
  62
3
  10
 218.884
  20
 234.961
  30
0.0
  11
 218.884
  21
 231.326
  31
0.0
   0
LINE
   8
LEVEL001
   6
CONTINUOUS
  62
7
  10
 222.500
  20
 234.703
  30
0.0
  11
 222.500
  21
 230.356
  31
0.0
   0
LINE
   8
LEVEL001
   6
CONTINUOUS
  62
3
  10
 246.000
  20
 226.000
  30
0.0
  11
 257.000
  21
 226.000
  31
0.0
   0
LINE
   8
LEVEL001
   6
CONTINUOUS
  62
3
  10
 246.000
  20
 228.000
  30
0.0
  11
 257.000
  21
 228.000
  31
0.0
   0
LINE
   8
LEVEL001
   6
CONTINUOUS
  62
3
  10
 246.000
  20
 230.000
  30
0.0
  11
 257.000
  21
 230.000
  31
0.0
   0
LINE
   8
LEVEL001
   6
CONTINUOUS
  62
3
  10
 246.000
  20
 232.000
  30
0.0
  11
 257.000
  21
 232.000
  31
0.0
   0
LINE
   8
LEVEL001
   6
CONTINUOUS
  62
3
  10
 246.000
  20
 234.000
  30
0.0
  11
 257.000
  21
 234.000
  31
0.0
   0
LINE
   8
LEVEL001
   6
CONTINUOUS
  62
3
  10
 246.000
  20
 236.000
  30
0.0
  11
 257.000
  21
 236.000
  31
0.0
   0
LINE
   8
LEVEL001
   6
CONTINUOUS
  62
7
  10
 218.500
  20
 234.961
  30
0.0
  11
 218.500
  21
 243.039
  31
0.0
   0
LINE
   8
LEVEL001
   6
CONTINUOUS
  62
7
  10
 218.500
  20
 243.039
  30
0.0
  11
 222.500
  21
 243.297
  31
0.0
   0
LINE
   8
LEVEL001
   6
CONTINUOUS
  62
7
  10
 222.500
  20
 243.297
  30
0.0
  11
 223.984
  21
 244.831
  31
0.0
   0
LINE
   8
LEVEL001
   6
CONTINUOUS
  62
7
  10
 223.984
  20
 244.831
  30
0.0
  11
 232.500
  21
 244.831
  31
0.0
   0
LINE
   8
LEVEL001
   6
CONTINUOUS
  62
7
  10
 232.500
  20
 244.831
  30
0.0
  11
 232.500
  21
 233.169
  31
0.0
   0
LINE
   8
LEVEL001
   6
CONTINUOUS
  62
7
  10
 232.500
  20
 233.169
  30
0.0
  11
 223.984
  21
 233.169
  31
0.0
   0
LINE
   8
LEVEL001
   6
CONTINUOUS
  62
7
  10
 223.984
  20
 233.169
  30
0.0
  11
 222.500
  21
 234.703
  31
0.0
   0
LINE
   8
LEVEL001
   6
CONTINUOUS
  62
7
  10
 222.500
  20
 234.703
  30
0.0
  11
 218.500
  21
 234.961
  31
0.0
   0
LINE
   8
LEVEL001
   6
CONTINUOUS
  62
7
  10
 246.000
  20
 224.000
  30
0.0
  11
 246.000
  21
 254.000
  31
0.0
   0
LINE
   8
LEVEL001
   6
CONTINUOUS
  62
7
  10
 246.000
  20
 254.000
  30
0.0
  11
 257.000
  21
 254.000
  31
0.0
   0
LINE
   8
LEVEL001
   6
CONTINUOUS
  62
7
  10
 257.000
  20
 254.000
  30
0.0
  11
 257.000
  21
 224.000
  31
0.0
   0
LINE
   8
LEVEL001
   6
CONTINUOUS
  62
7
  10
 257.000
  20
 224.000
  30
0.0
  11
 246.000
  21
 224.000
  31
0.0
   0
LINE
   8
LEVEL001
   6
CONTINUOUS
  62
3
  10
 222.500
  20
 247.644
  30
0.0
  11
 218.884
  21
 246.675
  31
0.0
   0
LINE
   8
LEVEL001
   6
CONTINUOUS
  62
7
  10
 222.500
  20
 247.644
  30
0.0
  11
 223.984
  21
 248.500
  31
0.0
   0
LINE
   8
LEVEL001
   6
CONTINUOUS
  62
7
  10
 239.500
  20
 248.500
  30
0.0
  11
 223.984
  21
 248.500
  31
0.0
   0
ARC
   8
LEVEL001
   6
CONTINUOUS
  62
7
  10
 241.000
  20
 252.000
  30
0.0
  40
 1.50000
  50
 90.0000
  51
 180.000
   0
LINE
   8
LEVEL001
   6
CONTINUOUS
  62
7
  10
 241.000
  20
 253.500
  30
0.0
  11
 246.000
  21
 253.500
  31
0.0
   0
ARC
   8
LEVEL001
   6
CONTINUOUS
  62
7
  10
 262.000
  20
 252.000
  30
0.0
  40
 1.50000
  50
0.0
  51
 90.0000
   0
LINE
   8
LEVEL001
   6
CONTINUOUS
  62
7
  10
 257.000
  20
 253.500
  30
0.0
  11
 262.000
  21
 253.500
  31
0.0
   0
ARC
   8
LEVEL001
   6
DASHDOT
  62
1
  10
 272.500
  20
 252.000
  30
0.0
  40
 1.00000
  50
0.0
  51
 90.0004
   0
LINE
   8
LEVEL001
   6
DASHDOT
  62
1
  10
 264.500
  20
 253.000
  30
0.0
  11
 272.500
  21
 253.000
  31
0.0
   0
CIRCLE
   8
LEVEL001
   6
DASHDOT
  62
1
  10
 276.500
  20
 239.000
  30
0.0
  40
 1.50000
   0
ARC
   8
LEVEL001
   6
DASHDOT
  62
1
  10
 264.500
  20
 252.000
  30
0.0
  40
 1.00000
  50
 89.9996
  51
 180.000
   0
ARC
   8
LEVEL001
   6
DASHDOT
  62
1
  10
 275.500
  20
 244.500
  30
0.0
  40
 2.00000
  50
 180.000
  51
 270.000
   0
LINE
   8
LEVEL001
   6
DASHDOT
  62
1
  10
 275.500
  20
 242.500
  30
0.0
  11
 276.000
  21
 242.500
  31
0.0
   0
LINE
   8
LEVEL001
   6
CONTINUOUS
  62
7
  10
 223.984
  20
 244.831
  30
0.0
  11
 223.984
  21
 248.500
  31
0.0
   0
LINE
   8
LEVEL001
   6
CONTINUOUS
  62
3
  10
 218.884
  20
 246.674
  30
0.0
  11
 218.884
  21
 243.039
  31
0.0
   0
LINE
   8
LEVEL001
   6
CONTINUOUS
  62
7
  10
 222.500
  20
 247.644
  30
0.0
  11
 222.500
  21
 243.297
  31
0.0
   0
LINE
   8
LEVEL001
   6
CONTINUOUS
  62
3
  10
 246.000
  20
 240.000
  30
0.0
  11
 257.000
  21
 240.000
  31
0.0
   0
LINE
   8
LEVEL001
   6
CONTINUOUS
  62
3
  10
 246.000
  20
 242.000
  30
0.0
  11
 257.000
  21
 242.000
  31
0.0
   0
LINE
   8
LEVEL001
   6
CONTINUOUS
  62
3
  10
 246.000
  20
 244.000
  30
0.0
  11
 257.000
  21
 244.000
  31
0.0
   0
LINE
   8
LEVEL001
   6
CONTINUOUS
  62
3
  10
 246.000
  20
 246.000
  30
0.0
  11
 257.000
  21
 246.000
  31
0.0
   0
LINE
   8
LEVEL001
   6
CONTINUOUS
  62
3
  10
 246.000
  20
 248.000
  30
0.0
  11
 257.000
  21
 248.000
  31
0.0
   0
LINE
   8
LEVEL001
   6
CONTINUOUS
  62
3
  10
 246.000
  20
 250.000
  30
0.0
  11
 257.000
  21
 250.000
  31
0.0
   0
LINE
   8
LEVEL001
   6
CONTINUOUS
  62
3
  10
 246.000
  20
 252.000
  30
0.0
  11
 257.000
  21
 252.000
  31
0.0
   0
LINE
   8
LEVEL001
   6
CONTINUOUS
  62
3
  10
 246.000
  20
 238.000
  30
0.0
  11
 257.000
  21
 238.000
  31
0.0
   0
LINE
   8
LEVEL003
   6
CONTINUOUS
  62
3
  10
 212.000
  20
 210.000
  30
0.0
  11
 310.500
  21
 210.000
  31
0.0
   0
LINE
   8
LEVEL003
   6
CONTINUOUS
  62
3
  10
 284.000
  20
 239.000
  30
0.0
  11
 310.500
  21
 239.000
  31
0.0
   0
LINE
   8
LEVEL003
   6
CONTINUOUS
  62
3
  10
 307.500
  20
 210.000
  30
0.0
  11
 307.500
  21
 239.000
  31
0.0
   0
LINE
   8
LEVEL003
   6
CONTINUOUS
  62
3
  10
 307.500
  20
 210.000
  30
0.0
  11
 308.293
  21
 214.500
  31
0.0
   0
LINE
   8
LEVEL003
   6
CONTINUOUS
  62
3
  10
 307.500
  20
 210.000
  30
0.0
  11
 306.707
  21
 214.500
  31
0.0
   0
LINE
   8
LEVEL003
   6
CONTINUOUS
  62
3
  10
 307.500
  20
 239.000
  30
0.0
  11
 306.707
  21
 234.500
  31
0.0
   0
LINE
   8
LEVEL003
   6
CONTINUOUS
  62
3
  10
 307.500
  20
 239.000
  30
0.0
  11
 308.293
  21
 234.500
  31
0.0
   0
TEXT
   8
LEVEL003
  62
3
  10
 306.300
  20
 221.500
  30
0.0
  40
 6.00000
   1
29
  50
 90.0000
  41
 0.500000
   7
STANDARD
  72
1
  11
 306.300
  21
 224.500
  31
0.0
   0
LINE
   8
LEVEL003
   6
CONTINUOUS
  62
3
  10
 212.000
  20
 210.000
  30
0.0
  11
 340.500
  21
 210.000
  31
0.0
   0
LINE
   8
LEVEL003
   6
CONTINUOUS
  62
3
  10
 184.500
  20
 430.000
  30
0.0
  11
 340.500
  21
 430.000
  31
0.0
   0
LINE
   8
LEVEL003
   6
CONTINUOUS
  62
3
  10
 337.500
  20
 210.000
  30
0.0
  11
 337.500
  21
 430.000
  31
0.0
   0
LINE
   8
LEVEL003
   6
CONTINUOUS
  62
3
  10
 337.500
  20
 210.000
  30
0.0
  11
 338.293
  21
 214.500
  31
0.0
   0
LINE
   8
LEVEL003
   6
CONTINUOUS
  62
3
  10
 337.500
  20
 210.000
  30
0.0
  11
 336.707
  21
 214.500
  31
0.0
   0
LINE
   8
LEVEL003
   6
CONTINUOUS
  62
3
  10
 337.500
  20
 430.000
  30
0.0
  11
 336.707
  21
 425.500
  31
0.0
   0
LINE
   8
LEVEL003
   6
CONTINUOUS
  62
3
  10
 337.500
  20
 430.000
  30
0.0
  11
 338.293
  21
 425.500
  31
0.0
   0
TEXT
   8
LEVEL003
  62
3
  10
 336.300
  20
 315.500
  30
0.0
  40
 6.00000
   1
220
  50
 90.0000
  41
 0.500000
   7
STANDARD
  72
1
  11
 336.300
  21
 320.000
  31
0.0
   0
LINE
   8
LEVEL001
   6
CONTINUOUS
  62
7
  10
 210.500
  20
 424.000
  30
0.0
  11
 209.500
  21
 425.000
  31
0.0
   0
LINE
   8
LEVEL001
   6
CONTINUOUS
  62
7
  10
 210.500
  20
 420.000
  30
0.0
  11
 210.500
  21
 424.000
  31
0.0
   0
LINE
   8
LEVEL001
   6
CONTINUOUS
  62
7
  10
 211.500
  20
 420.000
  30
0.0
  11
 212.500
  21
 419.000
  31
0.0
   0
LINE
   8
LEVEL001
   6
CONTINUOUS
  62
7
  10
 212.500
  20
 419.000
  30
0.0
  11
 212.500
  21
 371.268
  31
0.0
   0
LINE
   8
LEVEL001
   6
CONTINUOUS
  62
3
  10
 211.500
  20
 375.000
  30
0.0
  11
 212.500
  21
 371.268
  31
0.0
   0
LINE
   8
LEVEL001
   6
CONTINUOUS
  62
7
  10
 185.000
  20
 428.000
  30
0.0
  11
 183.000
  21
 430.000
  31
0.0
   0
LINE
   8
LEVEL001
   6
CONTINUOUS
  62
7
  10
 89.5000
  20
 424.000
  30
0.0
  11
 90.5000
  21
 425.000
  31
0.0
   0
LINE
   8
LEVEL001
   6
CONTINUOUS
  62
7
  10
 89.5000
  20
 420.000
  30
0.0
  11
 89.5000
  21
 424.000
  31
0.0
   0
LINE
   8
LEVEL001
   6
CONTINUOUS
  62
7
  10
 87.5000
  20
 212.000
  30
0.0
  11
 87.5000
  21
 371.268
  31
0.0
   0
LINE
   8
LEVEL001
   6
CONTINUOUS
  62
7
  10
 88.5000
  20
 420.000
  30
0.0
  11
 87.5000
  21
 419.000
  31
0.0
   0
LINE
   8
LEVEL001
   6
CONTINUOUS
  62
7
  10
 87.5000
  20
 419.000
  30
0.0
  11
 87.5000
  21
 371.268
  31
0.0
   0
LINE
   8
LEVEL001
   6
CONTINUOUS
  62
3
  10
 88.5000
  20
 375.000
  30
0.0
  11
 87.5000
  21
 371.268
  31
0.0
   0
LINE
   8
LEVEL001
   6
CONTINUOUS
  62
7
  10
 115.000
  20
 428.000
  30
0.0
  11
 117.000
  21
 430.000
  31
0.0
   0
LINE
   8
LEVEL001
   6
CONTINUOUS
  62
7
  10
 183.000
  20
 430.000
  30
0.0
  11
 117.000
  21
 430.000
  31
0.0
   0
LINE
   8
LEVEL001
   6
DASHDOT
  62
1
  10
 215.500
  20
 420.000
  30
0.0
  11
 215.500
  21
 375.000
  31
0.0
   0
LINE
   8
LEVEL001
   6
DASHDOT
  62
1
  10
 211.500
  20
 420.000
  30
0.0
  11
 215.500
  21
 420.000
  31
0.0
   0
LINE
   8
LEVEL001
   6
DASHDOT
  62
1
  10
 212.500
  20
 375.000
  30
0.0
  11
 215.500
  21
 375.000
  31
0.0
   0
LINE
   8
LEVEL001
   6
DASHDOT
  62
1
  10
 84.5000
  20
 420.000
  30
0.0
  11
 84.5000
  21
 375.000
  31
0.0
   0
LINE
   8
LEVEL001
   6
DASHDOT
  62
1
  10
 88.5000
  20
 420.000
  30
0.0
  11
 84.5000
  21
 420.000
  31
0.0
   0
LINE
   8
LEVEL001
   6
DASHDOT
  62
1
  10
 87.5000
  20
 375.000
  30
0.0
  11
 84.5000
  21
 375.000
  31
0.0
   0
LINE
   8
LEVEL001
   6
DASHDOT
  62
1
  10
 90.0000
  20
 361.000
  30
0.0
  11
 60.5000
  21
 361.000
  31
0.0
   0
LINE
   8
LEVEL001
   6
DASHDOT
  62
1
  10
 84.5000
  20
 368.000
  30
0.0
  11
 87.5000
  21
 371.268
  31
0.0
   0
LINE
   8
LEVEL001
   6
DASHDOT
  62
1
  10
 84.5000
  20
 354.000
  30
0.0
  11
 87.5000
  21
 351.000
  31
0.0
   0
LINE
   8
LEVEL001
   6
DASHDOT
  62
1
  10
 84.5000
  20
 354.000
  30
0.0
  11
 84.5000
  21
 368.000
  31
0.0
   0
LINE
   8
LEVEL001
   6
DASHDOT
  62
1
  10
 84.5000
  20
 354.000
  30
0.0
  11
 60.5000
  21
 354.000
  31
0.0
   0
LINE
   8
LEVEL001
   6
DASHDOT
  62
1
  10
 84.5000
  20
 368.000
  30
0.0
  11
 60.5000
  21
 368.000
  31
0.0
   0
LINE
   8
LEVEL001
   6
DASHDOT
  62
1
  10
 150.000
  20
 315.000
  30
0.0
  11
 150.000
  21
 202.500
  31
0.0
   0
LINE
   8
LEVEL001
   6
DASHDOT
  62
1
  10
 150.000
  20
 440.000
  30
0.0
  11
 150.000
  21
 337.500
  31
0.0
   0
LINE
   8
LEVEL001
   6
DASHDOT
  62
1
  10
 150.000
  20
 330.000
  30
0.0
  11
 150.000
  21
 322.500
  31
0.0
   0
ARC
   8
LEVEL001
   6
DASHDOT
  62
1
  10
 60.5000
  20
 344.000
  30
0.0
  40
 10.0000
  50
 90.0001
  51
 180.000
   0
LINE
   8
LEVEL001
   6
DASHDOT
  62
1
  10
 50.5000
  20
 344.000
  30
0.0
  11
 50.5000
  21
 244.000
  31
0.0
   0
ARC
   8
LEVEL001
   6
DASHDOT
  62
1
  10
 60.5000
  20
 344.000
  30
0.0
  40
 24.0000
  50
 90.0000
  51
 180.000
   0
ARC
   8
LEVEL001
   6
DASHDOT
  62
1
  10
 60.5000
  20
 344.000
  30
0.0
  40
 17.0000
  50
 90.0001
  51
 180.000
   0
LINE
   8
LEVEL001
   6
DASHDOT
  62
1
  10
 43.5000
  20
 344.000
  30
0.0
  11
 43.5000
  21
 244.000
  31
0.0
   0
LINE
   8
LEVEL001
   6
DASHDOT
  62
1
  10
 36.5000
  20
 344.000
  30
0.0
  11
 36.5000
  21
 244.000
  31
0.0
   0
LINE
   8
LEVEL001
   6
CONTINUOUS
  62
7
  10
 87.5000
  20
 212.000
  30
0.0
  11
 89.5000
  21
 210.000
  31
0.0
   0
LINE
   8
LEVEL001
   6
CONTINUOUS
  62
7
  10
 89.5000
  20
 210.000
  30
0.0
  11
 210.500
  21
 210.000
  31
0.0
   0
LINE
   8
LEVEL001
   6
DASHDOT
  62
1
  10
 60.5000
  20
 227.000
  30
0.0
  11
 90.0000
  21
 227.000
  31
0.0
   0
LINE
   8
LEVEL001
   6
DASHDOT
  62
1
  10
 84.5000
  20
 220.000
  30
0.0
  11
 87.5000
  21
 217.000
  31
0.0
   0
LINE
   8
LEVEL001
   6
DASHDOT
  62
1
  10
 84.5000
  20
 234.000
  30
0.0
  11
 87.5000
  21
 237.000
  31
0.0
   0
LINE
   8
LEVEL001
   6
DASHDOT
  62
1
  10
 84.5000
  20
 220.000
  30
0.0
  11
 84.5000
  21
 234.000
  31
0.0
   0
LINE
   8
LEVEL001
   6
DASHDOT
  62
1
  10
 60.5000
  20
 234.000
  30
0.0
  11
 84.5000
  21
 234.000
  31
0.0
   0
LINE
   8
LEVEL001
   6
DASHDOT
  62
1
  10
 60.5000
  20
 220.000
  30
0.0
  11
 84.5000
  21
 220.000
  31
0.0
   0
ARC
   8
LEVEL001
   6
DASHDOT
  62
1
  10
 60.5000
  20
 244.000
  30
0.0
  40
 10.0000
  50
 180.000
  51
 270.000
   0
ARC
   8
LEVEL001
   6
DASHDOT
  62
1
  10
 60.5000
  20
 244.000
  30
0.0
  40
 24.0000
  50
 180.000
  51
 270.000
   0
ARC
   8
LEVEL001
   6
DASHDOT
  62
1
  10
 60.5000
  20
 244.000
  30
0.0
  40
 17.0000
  50
 180.000
  51
 270.000
   0
LINE
   8
LEVEL001
   6
CONTINUOUS
  62
7
  10
 212.500
  20
 212.000
  30
0.0
  11
 210.500
  21
 210.000
  31
0.0
   0
LINE
   8
LEVEL003
   6
CONTINUOUS
  62
3
  10
 102.500
  20
 210.000
  30
0.0
  11
 90.0000
  21
 187.500
  31
0.0
   0
LINE
   8
LEVEL003
   6
CONTINUOUS
  62
3
  10
 102.500
  20
 210.000
  30
0.0
  11
 99.6210
  21
 206.452
  31
0.0
   0
LINE
   8
LEVEL003
   6
CONTINUOUS
  62
3
  10
 102.500
  20
 210.000
  30
0.0
  11
 101.008
  21
 205.681
  31
0.0
   0
LINE
   8
LEVEL001
   6
CONTINUOUS
  62
7
  10
 108.250
  20
 427.000
  30
0.0
  11
 191.750
  21
 427.000
  31
0.0
   0
LINE
   8
LEVEL001
   6
CONTINUOUS
  62
7
  10
 90.5000
  20
 425.000
  30
0.0
  11
 209.500
  21
 425.000
  31
0.0
   0
LINE
   8
LEVEL001
   6
CONTINUOUS
  62
7
  10
 88.5000
  20
 420.000
  30
0.0
  11
 211.500
  21
 420.000
  31
0.0
   0
LINE
   8
LEVEL001
   6
CONTINUOUS
  62
7
  10
 210.500
  20
 424.000
  30
0.0
  11
 89.5000
  21
 424.000
  31
0.0
   0
LINE
   8
LEVEL001
   6
CONTINUOUS
  62
7
  10
 115.000
  20
 428.000
  30
0.0
  11
 185.000
  21
 428.000
  31
0.0
   0
LINE
   8
LEVEL001
   6
CONTINUOUS
  62
7
  10
 115.000
  20
 428.000
  30
0.0
  11
 115.000
  21
 427.000
  31
0.0
   0
LINE
   8
LEVEL001
   6
CONTINUOUS
  62
7
  10
 185.000
  20
 428.000
  30
0.0
  11
 185.000
  21
 427.000
  31
0.0
   0
LINE
   8
LEVEL001
   6
CONTINUOUS
  62
7
  10
 191.750
  20
 427.000
  30
0.0
  11
 192.250
  21
 425.000
  31
0.0
   0
LINE
   8
LEVEL001
   6
CONTINUOUS
  62
7
  10
 108.250
  20
 427.000
  30
0.0
  11
 107.750
  21
 425.000
  31
0.0
   0
LINE
   8
LEVEL001
   6
CONTINUOUS
  62
7
  10
 212.500
  20
 212.000
  30
0.0
  11
 87.5000
  21
 212.000
  31
0.0
   0
LINE
   8
LEVEL001
   6
CONTINUOUS
  62
7
  10
 212.500
  20
 212.000
  30
0.0
  11
 212.500
  21
 371.268
  31
0.0
   0
LINE
   8
LEVEL001
   6
CONTINUOUS
  62
7
  10
 222.500
  20
 230.356
  30
0.0
  11
 212.500
  21
 230.669
  31
0.0
   0
LINE
   8
LEVEL001
   6
CONTINUOUS
  62
7
  10
 222.500
  20
 247.644
  30
0.0
  11
 212.500
  21
 247.331
  31
0.0
   0
LINE
   8
LEVEL001
   6
CONTINUOUS
  62
3
  10
 218.884
  20
 246.674
  30
0.0
  11
 212.500
  21
 246.475
  31
0.0
   0
LINE
   8
LEVEL001
   6
CONTINUOUS
  62
3
  10
 218.884
  20
 231.326
  30
0.0
  11
 212.500
  21
 231.525
  31
0.0
   0
LINE
   8
LEVEL001
   6
DASHDOT
  62
1
  10
 282.500
  20
 239.000
  30
0.0
  11
 202.500
  21
 239.000
  31
0.0
   0
LINE
   8
LEVEL004
   6
DOT
  62
3
  10
 96.5000
  20
 210.000
  30
0.0
  11
 97.3750
  21
 210.875
  31
0.0
   0
LINE
   8
LEVEL004
   6
DOT
  62
3
  10
 97.3750
  20
 210.875
  30
0.0
  11
 97.3750
  21
 229.266
  31
0.0
   0
LINE
   8
LEVEL004
   6
DOT
  62
3
  10
 97.3750
  20
 229.266
  30
0.0
  11
 102.500
  21
 232.224
  31
0.0
   0
LINE
   8
LEVEL004
   6
DOT
  62
3
  10
 102.500
  20
 232.224
  30
0.0
  11
 107.625
  21
 229.266
  31
0.0
   0
LINE
   8
LEVEL004
   6
DOT
  62
3
  10
 107.625
  20
 229.266
  30
0.0
  11
 107.625
  21
 210.875
  31
0.0
   0
LINE
   8
LEVEL004
   6
DOT
  62
3
  10
 107.625
  20
 210.875
  30
0.0
  11
 108.500
  21
 210.000
  31
0.0
   0
LINE
   8
LEVEL004
   6
DOT
  62
3
  10
 97.3750
  20
 210.875
  30
0.0
  11
 107.625
  21
 210.875
  31
0.0
   0
LINE
   8
LEVEL004
   6
DOT
  62
3
  10
 97.3750
  20
 229.266
  30
0.0
  11
 107.625
  21
 229.266
  31
0.0
   0
LINE
   8
LEVEL004
   6
DOT
  62
3
  10
 96.5000
  20
 210.000
  30
0.0
  11
 96.5000
  21
 226.000
  31
0.0
   0
LINE
   8
LEVEL004
   6
DOT
  62
3
  10
 96.5000
  20
 226.000
  30
0.0
  11
 97.3750
  21
 229.266
  31
0.0
   0
LINE
   8
LEVEL004
   6
DOT
  62
3
  10
 107.625
  20
 229.266
  30
0.0
  11
 108.500
  21
 226.000
  31
0.0
   0
LINE
   8
LEVEL004
   6
DOT
  62
3
  10
 108.500
  20
 226.000
  30
0.0
  11
 108.500
  21
 210.000
  31
0.0
   0
LINE
   8
LEVEL004
   6
DOT
  62
3
  10
 96.5000
  20
 226.000
  30
0.0
  11
 108.500
  21
 226.000
  31
0.0
   0
ARC
   8
LEVEL004
   6
DOT
  62
3
  10
 140.000
  20
 430.000
  30
0.0
  40
 1.00001
  50
 180.000
  51
0.0
   0
ARC
   8
LEVEL004
   6
DOT
  62
3
  10
 130.000
  20
 430.000
  30
0.0
  40
 1.00001
  50
 180.000
  51
0.0
   0
ARC
   8
LEVEL004
   6
DOT
  62
3
  10
 160.000
  20
 430.000
  30
0.0
  40
 1.00001
  50
 180.000
  51
0.0
   0
ARC
   8
LEVEL004
   6
DOT
  62
3
  10
 170.000
  20
 430.000
  30
0.0
  40
 1.00001
  50
 180.000
  51
0.0
   0
LINE
   8
LEVEL004
   6
DOT
  62
3
  10
 170.500
  20
 420.500
  30
0.0
  11
 170.500
  21
 417.000
  31
0.0
   0
LINE
   8
LEVEL004
   6
DOT
  62
3
  10
 182.000
  20
 430.000
  30
0.0
  11
 182.000
  21
 420.500
  31
0.0
   0
LINE
   8
LEVEL004
   6
DOT
  62
3
  10
 181.500
  20
 420.500
  30
0.0
  11
 182.000
  21
 420.500
  31
0.0
   0
LINE
   8
LEVEL004
   6
DOT
  62
3
  10
 179.500
  20
 420.500
  30
0.0
  11
 179.500
  21
 417.000
  31
0.0
   0
LINE
   8
LEVEL004
   6
DOT
  62
3
  10
 181.500
  20
 420.500
  30
0.0
  11
 168.500
  21
 420.500
  31
0.0
   0
LINE
   8
LEVEL004
   6
DOT
  62
3
  10
 168.500
  20
 420.500
  30
0.0
  11
 168.500
  21
 428.100
  31
0.0
   0
LINE
   8
LEVEL004
   6
DOT
  62
3
  10
 168.500
  20
 428.100
  30
0.0
  11
 169.193
  21
 428.500
  31
0.0
   0
LINE
   8
LEVEL004
   6
DOT
  62
3
  10
 169.193
  20
 428.500
  30
0.0
  11
 180.807
  21
 428.500
  31
0.0
   0
LINE
   8
LEVEL004
   6
DOT
  62
3
  10
 180.807
  20
 428.500
  30
0.0
  11
 181.500
  21
 428.100
  31
0.0
   0
LINE
   8
LEVEL004
   6
DOT
  62
3
  10
 181.500
  20
 428.100
  30
0.0
  11
 181.500
  21
 420.500
  31
0.0
   0
LINE
   8
LEVEL004
   6
DOT
  62
3
  10
 181.500
  20
 428.100
  30
0.0
  11
 168.500
  21
 428.100
  31
0.0
   0
LINE
   8
LEVEL004
   6
DOT
  62
3
  10
 171.000
  20
 407.125
  30
0.0
  11
 171.000
  21
 405.000
  31
0.0
   0
LINE
   8
LEVEL004
   6
DOT
  62
3
  10
 171.000
  20
 405.000
  30
0.0
  11
 171.625
  21
 402.668
  31
0.0
   0
LINE
   8
LEVEL004
   6
DOT
  62
3
  10
 171.625
  20
 406.500
  30
0.0
  11
 171.625
  21
 420.500
  31
0.0
   0
LINE
   8
LEVEL004
   6
DOT
  62
3
  10
 179.000
  20
 407.125
  30
0.0
  11
 179.000
  21
 405.000
  31
0.0
   0
LINE
   8
LEVEL004
   6
DOT
  62
3
  10
 179.000
  20
 405.000
  30
0.0
  11
 178.375
  21
 402.668
  31
0.0
   0
LINE
   8
LEVEL004
   6
DOT
  62
3
  10
 178.375
  20
 406.500
  30
0.0
  11
 178.375
  21
 420.500
  31
0.0
   0
LINE
   8
LEVEL004
   6
DOT
  62
3
  10
 179.000
  20
 407.125
  30
0.0
  11
 171.000
  21
 407.125
  31
0.0
   0
LINE
   8
LEVEL004
   6
DOT
  62
3
  10
 178.375
  20
 406.500
  30
0.0
  11
 178.375
  21
 402.668
  31
0.0
   0
LINE
   8
LEVEL004
   6
DOT
  62
3
  10
 178.375
  20
 402.668
  30
0.0
  11
 175.000
  21
 400.719
  31
0.0
   0
LINE
   8
LEVEL004
   6
DOT
  62
3
  10
 175.000
  20
 400.719
  30
0.0
  11
 171.625
  21
 402.668
  31
0.0
   0
LINE
   8
LEVEL004
   6
DOT
  62
3
  10
 171.625
  20
 402.668
  30
0.0
  11
 171.625
  21
 406.500
  31
0.0
   0
LINE
   8
LEVEL004
   6
DOT
  62
3
  10
 178.375
  20
 402.668
  30
0.0
  11
 171.625
  21
 402.668
  31
0.0
   0
LINE
   8
LEVEL004
   6
DOT
  62
3
  10
 179.000
  20
 405.000
  30
0.0
  11
 171.000
  21
 405.000
  31
0.0
   0
LINE
   8
LEVEL004
   6
DOT
  62
3
  10
 179.000
  20
 420.500
  30
0.0
  11
 179.000
  21
 407.125
  31
0.0
   0
LINE
   8
LEVEL004
   6
DOT
  62
3
  10
 179.000
  20
 407.125
  30
0.0
  11
 178.375
  21
 406.500
  31
0.0
   0
LINE
   8
LEVEL004
   6
DOT
  62
3
  10
 178.375
  20
 406.500
  30
0.0
  11
 171.625
  21
 406.500
  31
0.0
   0
LINE
   8
LEVEL004
   6
DOT
  62
3
  10
 171.625
  20
 406.500
  30
0.0
  11
 171.000
  21
 407.125
  31
0.0
   0
LINE
   8
LEVEL004
   6
DOT
  62
3
  10
 171.000
  20
 407.125
  30
0.0
  11
 171.000
  21
 420.500
  31
0.0
   0
LINE
   8
LEVEL004
   6
DOT
  62
3
  10
 185.500
  20
 427.000
  30
0.0
  11
 185.000
  21
 426.500
  31
0.0
   0
LINE
   8
LEVEL004
   6
DOT
  62
3
  10
 183.500
  20
 417.000
  30
0.0
  11
 185.000
  21
 418.500
  31
0.0
   0
ARC
   8
LEVEL004
   6
DOT
  62
3
  10
 184.000
  20
 418.000
  30
0.0
  40
 1.00000
  50
 270.001
  51
 0.174683E-2
   0
LINE
   8
LEVEL004
   6
DOT
  62
3
  10
 185.000
  20
 427.000
  30
0.0
  11
 185.000
  21
 418.000
  31
0.0
   0
LINE
   8
LEVEL004
   6
DOT
  62
3
  10
 184.000
  20
 417.000
  30
0.0
  11
 178.375
  21
 417.000
  31
0.0
   0
LINE
   8
LEVEL004
   6
DOT
  62
3
  10
 168.000
  20
 420.500
  30
0.0
  11
 168.500
  21
 420.500
  31
0.0
   0
LINE
   8
LEVEL004
   6
DOT
  62
3
  10
 168.000
  20
 430.000
  30
0.0
  11
 168.000
  21
 420.500
  31
0.0
   0
LINE
   8
LEVEL004
   6
DOT
  62
3
  10
 116.500
  20
 417.000
  30
0.0
  11
 115.000
  21
 418.500
  31
0.0
   0
ARC
   8
LEVEL004
   6
DOT
  62
3
  10
 116.000
  20
 418.000
  30
0.0
  40
 1.00000
  50
 179.998
  51
 269.999
   0
LINE
   8
LEVEL004
   6
DOT
  62
3
  10
 171.625
  20
 417.000
  30
0.0
  11
 116.000
  21
 417.000
  31
0.0
   0
LINE
   8
LEVEL004
   6
DOT
  62
3
  10
 114.500
  20
 427.000
  30
0.0
  11
 115.000
  21
 426.500
  31
0.0
   0
LINE
   8
LEVEL004
   6
DOT
  62
3
  10
 115.000
  20
 427.000
  30
0.0
  11
 115.000
  21
 418.000
  31
0.0
   0
LINE
   8
LEVEL004
   6
DOT
  62
3
  10
 192.500
  20
 297.000
  30
0.0
  11
 192.500
  21
 424.000
  31
0.0
   0
LINE
   8
LEVEL004
   6
DOT
  62
3
  10
 197.500
  20
 389.000
  30
0.0
  11
 197.500
  21
 256.800
  31
0.0
   0
LINE
   8
LEVEL004
   6
DOT
  62
3
  10
 107.500
  20
 297.000
  30
0.0
  11
 107.500
  21
 424.000
  31
0.0
   0
LINE
   8
LEVEL004
   6
DOT
  62
3
  10
 102.500
  20
 389.000
  30
0.0
  11
 102.500
  21
 256.800
  31
0.0
   0
LINE
   8
LEVEL004
   6
DASHDOT
  62
1
  10
 102.500
  20
 207.000
  30
0.0
  11
 102.500
  21
 235.224
  31
0.0
   0
LINE
   8
LEVEL004
   6
DASHDOT
  62
1
  10
 197.500
  20
 207.000
  30
0.0
  11
 197.500
  21
 225.000
  31
0.0
   0
LINE
   8
LEVEL004
   6
DASHDOT
  62
1
  10
 175.000
  20
 431.500
  30
0.0
  11
 175.000
  21
 397.719
  31
0.0
   0
LINE
   8
LEVEL001
   6
CONTINUOUS
  62
3
  10
 211.500
  20
 420.000
  30
0.0
  11
 211.500
  21
 375.000
  31
0.0
   0
LINE
   8
LEVEL001
   6
CONTINUOUS
  62
3
  10
 88.5000
  20
 420.000
  30
0.0
  11
 88.5000
  21
 375.000
  31
0.0
   0
LINE
   8
LEVEL001
   6
CONTINUOUS
  62
7
  10
 212.500
  20
 371.268
  30
0.0
  11
 87.5000
  21
 371.268
  31
0.0
   0
LINE
   8
LEVEL001
   6
CONTINUOUS
  62
3
  10
 87.5000
  20
 419.000
  30
0.0
  11
 212.500
  21
 419.000
  31
0.0
   0
LINE
   8
LEVEL001
   6
CONTINUOUS
  62
3
  10
 87.5000
  20
 375.000
  30
0.0
  11
 212.500
  21
 375.000
  31
0.0
   0
TEXT
   8
LEVEL003
  62
7
  10
 306.691
  20
 27.7200
  30
0.0
  40
 10.0000
   1
ＯＳＡＫＡ ＪＡＣＫ
   7
STANDARD
   0
CIRCLE
   8
LEVEL003
   6
CONTINUOUS
  62
7
  10
 294.718
  20
 34.7707
  30
0.0
  40
 3.00000
   0
LINE
   8
LEVEL003
   6
CONTINUOUS
  62
7
  10
 300.606
  20
 37.7707
  30
0.0
  11
 296.797
  21
 31.1707
  31
0.0
   0
LINE
   8
LEVEL003
   6
CONTINUOUS
  62
7
  10
 296.797
  20
 31.1707
  30
0.0
  11
 289.176
  21
 31.1707
  31
0.0
   0
LINE
   8
LEVEL003
   6
CONTINUOUS
  62
7
  10
 288.309
  20
 29.6707
  30
0.0
  11
 301.930
  21
 29.6707
  31
0.0
   0
LINE
   8
LEVEL003
   6
CONTINUOUS
  62
7
  10
 301.930
  20
 29.6707
  30
0.0
  11
 306.606
  21
 37.7707
  31
0.0
   0
LINE
   8
LEVEL003
   6
CONTINUOUS
  62
7
  10
 306.606
  20
 37.7707
  30
0.0
  11
 300.606
  21
 37.7707
  31
0.0
   0
LINE
   8
LEVEL003
   6
CONTINUOUS
  62
7
  10
 289.176
  20
 31.1707
  30
0.0
  11
 288.309
  21
 29.6707
  31
0.0
   0
TEXT
   8
LEVEL003
  62
7
  10
 309.602
  20
 44.6134
  30
0.0
  40
 6.00000
   1
Model : Ｅ５０Ｓ１０
   7
STANDARD
   0
TEXT
   8
LEVEL003
  62
3
  10
 24.8750
  20
 187.500
  30
0.0
  40
 6.00000
   1
４－Ｍ１２×１６Ｌ
   7
STANDARD
   0
LINE
   8
LEVEL003
   6
CONTINUOUS
  62
3
  10
 90.0000
  20
 187.500
  30
0.0
  11
 24.6711
  21
 187.500
  31
0.0
   0
LINE
   8
LEVEL003
   6
CONTINUOUS
  62
3
  10
 232.500
  20
 195.000
  30
0.0
  11
 276.348
  21
 195.000
  31
0.0
   0
LINE
   8
LEVEL003
   6
CONTINUOUS
  62
3
  10
 225.000
  20
 387.500
  30
0.0
  11
 268.070
  21
 387.500
  31
0.0
   0
LINE
   8
LEVEL003
   6
CONTINUOUS
  62
3
  10
 210.500
  20
 425.000
  30
0.0
  11
 292.924
  21
 425.000
  31
0.0
   0
LINE
   8
LEVEL003
   6
CONTINUOUS
  62
3
  10
 216.500
  20
 375.000
  30
0.0
  11
 292.924
  21
 375.000
  31
0.0
   0
LINE
   8
LEVEL003
   6
CONTINUOUS
  62
3
  10
 290.924
  20
 425.000
  30
0.0
  11
 290.924
  21
 375.000
  31
0.0
   0
LINE
   8
LEVEL003
   6
CONTINUOUS
  62
3
  10
 290.924
  20
 425.000
  30
0.0
  11
 290.395
  21
 422.000
  31
0.0
   0
LINE
   8
LEVEL003
   6
CONTINUOUS
  62
3
  10
 290.924
  20
 425.000
  30
0.0
  11
 291.453
  21
 422.000
  31
0.0
   0
LINE
   8
LEVEL003
   6
CONTINUOUS
  62
3
  10
 290.924
  20
 375.000
  30
0.0
  11
 291.453
  21
 378.000
  31
0.0
   0
LINE
   8
LEVEL003
   6
CONTINUOUS
  62
3
  10
 290.924
  20
 375.000
  30
0.0
  11
 290.395
  21
 378.000
  31
0.0
   0
TEXT
   8
LEVEL003
  62
3
  10
 290.124
  20
 396.000
  30
0.0
  40
 4.00000
   1
50
  50
 90.0000
   7
STANDARD
  72
1
  11
 290.124
  21
 400.000
  31
0.0
   0
LINE
   8
LEVEL003
   6
CONTINUOUS
  62
3
  10
 210.500
  20
 425.000
  30
0.0
  11
 269.669
  21
 425.000
  31
0.0
   0
LINE
   8
LEVEL003
   6
CONTINUOUS
  62
3
  10
 216.500
  20
 420.000
  30
0.0
  11
 269.669
  21
 420.000
  31
0.0
   0
LINE
   8
LEVEL003
   6
CONTINUOUS
  62
3
  10
 267.669
  20
 425.000
  30
0.0
  11
 267.669
  21
 420.000
  31
0.0
   0
LINE
   8
LEVEL003
   6
CONTINUOUS
  62
3
  10
 267.669
  20
 420.000
  30
0.0
  11
 267.669
  21
 413.333
  31
0.0
   0
LINE
   8
LEVEL003
   6
CONTINUOUS
  62
3
  10
 267.669
  20
 425.000
  30
0.0
  11
 268.198
  21
 428.000
  31
0.0
   0
LINE
   8
LEVEL003
   6
CONTINUOUS
  62
3
  10
 267.669
  20
 425.000
  30
0.0
  11
 267.140
  21
 428.000
  31
0.0
   0
LINE
   8
LEVEL003
   6
CONTINUOUS
  62
3
  10
 267.669
  20
 420.000
  30
0.0
  11
 267.140
  21
 417.000
  31
0.0
   0
LINE
   8
LEVEL003
   6
CONTINUOUS
  62
3
  10
 267.669
  20
 420.000
  30
0.0
  11
 268.198
  21
 417.000
  31
0.0
   0
LINE
   8
LEVEL003
   6
CONTINUOUS
  62
3
  10
 267.669
  20
 425.000
  30
0.0
  11
 267.669
  21
 428.750
  31
0.0
   0
LINE
   8
LEVEL003
   6
CONTINUOUS
  62
3
  10
 267.669
  20
 420.000
  30
0.0
  11
 267.669
  21
 413.333
  31
0.0
   0
TEXT
   8
LEVEL003
  62
3
  10
 266.869
  20
 413.333
  30
0.0
  40
 4.00000
   1
5
  50
 90.0000
   7
STANDARD
  72
1
  11
 266.869
  21
 415.333
  31
0.0
   0
LINE
   8
LEVEL003
   6
CONTINUOUS
  62
3
  10
 184.000
  20
 430.000
  30
0.0
  11
 269.669
  21
 430.000
  31
0.0
   0
LINE
   8
LEVEL003
   6
CONTINUOUS
  62
3
  10
 210.500
  20
 425.000
  30
0.0
  11
 269.669
  21
 425.000
  31
0.0
   0
LINE
   8
LEVEL003
   6
CONTINUOUS
  62
3
  10
 267.669
  20
 430.000
  30
0.0
  11
 267.669
  21
 425.000
  31
0.0
   0
LINE
   8
LEVEL003
   6
CONTINUOUS
  62
3
  10
 267.669
  20
 430.000
  30
0.0
  11
 267.669
  21
 435.667
  31
0.0
   0
LINE
   8
LEVEL003
   6
CONTINUOUS
  62
3
  10
 267.669
  20
 430.000
  30
0.0
  11
 268.198
  21
 433.000
  31
0.0
   0
LINE
   8
LEVEL003
   6
CONTINUOUS
  62
3
  10
 267.669
  20
 430.000
  30
0.0
  11
 267.140
  21
 433.000
  31
0.0
   0
LINE
   8
LEVEL003
   6
CONTINUOUS
  62
3
  10
 267.669
  20
 425.000
  30
0.0
  11
 267.140
  21
 422.000
  31
0.0
   0
LINE
   8
LEVEL003
   6
CONTINUOUS
  62
3
  10
 267.669
  20
 425.000
  30
0.0
  11
 268.198
  21
 422.000
  31
0.0
   0
LINE
   8
LEVEL003
   6
CONTINUOUS
  62
3
  10
 267.669
  20
 430.000
  30
0.0
  11
 267.669
  21
 435.667
  31
0.0
   0
LINE
   8
LEVEL003
   6
CONTINUOUS
  62
3
  10
 267.669
  20
 425.000
  30
0.0
  11
 267.669
  21
 421.250
  31
0.0
   0
TEXT
   8
LEVEL003
  62
3
  10
 266.869
  20
 431.667
  30
0.0
  40
 4.00000
   1
5
  50
 90.0000
   7
STANDARD
  72
1
  11
 266.869
  21
 433.667
  31
0.0
   0
ENDSEC
   0
EOF
