   0
SECTION
   2
HEADER
   9
$LIMMIN
  10
0.0
  20
0.0
   9
$LIMMAX
  10
 630.000
  20
 510.000
   9
$EXTMIN
  10
0.0
  20
0.0
   9
$EXTMAX
  10
 630.000
  20
 510.000
   9
$LTSCALE
  40
 12.6000
   0
ENDSEC
   0
SECTION
   2
TABLES
  0
TABLE
  2
LTYPE
 70
    25
  0
LTYPE
  2
CONTINUOUS
 70
    64
  3
Solid line
 72
    65
 73
     0
 40
0.0
  0
LTYPE
  2
BORDER
 70
    64
  3
__ __ . __ __ . __ __ . __ __ . __ __ . __ __ .
 72
    65
 73
     6
 40
1.75
 49
0.5
 49
-0.25
 49
0.5
 49
-0.25
 49
0.0
 49
-0.25
  0
LTYPE
  2
BORDER2
 70
    64
  3
__.__.__.__.__.__.__.__.__.__.__.__.__.__.__.__
 72
    65
 73
     6
 40
0.875
 49
0.25
 49
-0.125
 49
0.25
 49
-0.125
 49
0.0
 49
-0.125
  0
LTYPE
  2
BORDERX2
 70
    64
  3
____  ____  .  ____  ____  .  ____  ____  .  __
 72
    65
 73
     6
 40
3.5
 49
1.0
 49
-0.5
 49
1.0
 49
-0.5
 49
0.0
 49
-0.5
  0
LTYPE
  2
CENTER
 70
    64
  3
____ _ ____ _ ____ _ ____ _ ____ _ ____ _ ____ 
 72
    65
 73
     4
 40
2.0
 49
1.25
 49
-0.25
 49
0.25
 49
-0.25
  0
LTYPE
  2
CENTER2
 70
    64
  3
___ _ ___ _ ___ _ ___ _ ___ _ ___ _ ___ _ ___ _
 72
    65
 73
     4
 40
1.125
 49
0.75
 49
-0.125
 49
0.125
 49
-0.125
  0
LTYPE
  2
CENTERX2
 70
    64
  3
________  __  ________  __  ________  __  _____
 72
    65
 73
     4
 40
4.0
 49
2.5
 49
-0.5
 49
0.5
 49
-0.5
  0
LTYPE
  2
DASHDOT
 70
    64
  3
__ . __ . __ . __ . __ . __ . __ . __ . __ . __
 72
    65
 73
     4
 40
1.0
 49
0.5
 49
-0.25
 49
0.0
 49
-0.25
  0
LTYPE
  2
DASHDOT2
 70
    64
  3
_._._._._._._._._._._._._._._._._._._._._._._._
 72
    65
 73
     4
 40
0.5
 49
0.25
 49
-0.125
 49
0.0
 49
-0.125
  0
LTYPE
  2
DASHDOTX2
 70
    64
  3
____  .  ____  .  ____  .  ____  .  ____  .  __
 72
    65
 73
     4
 40
2.0
 49
1.0
 49
-0.5
 49
0.0
 49
-0.5
  0
LTYPE
  2
DASHED
 70
    64
  3
__ __ __ __ __ __ __ __ __ __ __ __ __ __ __ __
 72
    65
 73
     2
 40
0.75
 49
0.5
 49
-0.25
  0
LTYPE
  2
DASHED2
 70
    64
  3
_ _ _ _ _ _ _ _ _ _ _ _ _ _ _ _ _ _ _ _ _ _ _ _
 72
    65
 73
     2
 40
0.375
 49
0.25
 49
-0.125
  0
LTYPE
  2
DASHEDX2
 70
    64
  3
____  ____  ____  ____  ____  ____  ____  ____ 
 72
    65
 73
     2
 40
1.5
 49
1.0
 49
-0.5
  0
LTYPE
  2
DIVIDE
 70
    64
  3
____ . . ____ . . ____ . . ____ . . ____ . . __
 72
    65
 73
     6
 40
1.25
 49
0.5
 49
-0.25
 49
0.0
 49
-0.25
 49
0.0
 49
-0.25
  0
LTYPE
  2
DIVIDE2
 70
    64
  3
__..__..__..__..__..__..__..__..__..__..__..__.
 72
    65
 73
     6
 40
0.625
 49
0.25
 49
-0.125
 49
0.0
 49
-0.125
 49
0.0
 49
-0.125
  0
LTYPE
  2
DIVIDEX2
 70
    64
  3
________  .  .  ________  .  .  ________  .  . 
 72
    65
 73
     6
 40
2.5
 49
1.0
 49
-0.5
 49
0.0
 49
-0.5
 49
0.0
 49
-0.5
  0
LTYPE
  2
DOT
 70
    64
  3
. . . . . . . . . . . . . . . . . . . . . . . .
 72
    65
 73
     2
 40
0.25
 49
0.0
 49
-0.25
  0
LTYPE
  2
DOT2
 70
    64
  3
...............................................
 72
    65
 73
     2
 40
0.125
 49
0.0
 49
-0.125
  0
LTYPE
  2
DOTX2
 70
    64
  3
.  .  .  .  .  .  .  .  .  .  .  .  .  .  .  . 
 72
    65
 73
     2
 40
0.5
 49
0.0
 49
-0.5
  0
LTYPE
  2
HIDDEN
 70
    64
  3
__ __ __ __ __ __ __ __ __ __ __ __ __ __ __ __
 72
    65
 73
     2
 40
0.375
 49
0.25
 49
-0.125
  0
LTYPE
  2
HIDDEN2
 70
    64
  3
_ _ _ _ _ _ _ _ _ _ _ _ _ _ _ _ _ _ _ _ _ _ _ _
 72
    65
 73
     2
 40
0.1875
 49
0.125
 49
-0.0625
  0
LTYPE
  2
HIDDENX2
 70
    64
  3
____ ____ ____ ____ ____ ____ ____ ____ ____ __
 72
    65
 73
     2
 40
0.75
 49
0.5
 49
-0.25
  0
LTYPE
  2
PHANTOM
 70
    64
  3
______  __  __  ______  __  __  ______  __  __ 
 72
    65
 73
     6
 40
2.5
 49
1.25
 49
-0.25
 49
0.25
 49
-0.25
 49
0.25
 49
-0.25
  0
LTYPE
  2
PHANTOM2
 70
    64
  3
___ _ _ ___ _ _ ___ _ _ ___ _ _ ___ _ _ ___ _ _
 72
    65
 73
     6
 40
1.25
 49
0.625
 49
-0.125
 49
0.125
 49
-0.125
 49
0.125
 49
-0.125
  0
LTYPE
  2
PHANTOMX2
 70
    64
  3
____________    ____    ____    ____________   
 72
    65
 73
     6
 40
5.0
 49
2.5
 49
-0.5
 49
0.5
 49
-0.5
 49
0.5
 49
-0.5
  0
ENDTAB
  0
TABLE
  2
STYLE
 70
     2
  0
STYLE
  2
STANDARD
 70
0
 40
0.0
 41
1.0
 50
0.0
 71
0
 42
0.2
  3
TXT
  4
BIGFONT
  0
STYLE
  2
STANDARD1
 70
     4
 40
0.0
 41
1.0
 50
0.0
 71
     0
 42
0.2
  3
TXT
  4
BIGFONT
  0
ENDTAB
   0
TABLE
   2
LAYER
  70
4
   0
LAYER
   2
0
  70
0
  62
7
   6
CONTINUOUS
   0
LAYER
   2
LEVEL001
  70
0
  62
7
   6
CONTINUOUS
   0
LAYER
   2
LEVEL003
  70
0
  62
7
   6
CONTINUOUS
   0
LAYER
   2
LEVEL004
  70
0
  62
7
   6
CONTINUOUS
   0
ENDTAB
   0
ENDSEC
   0
SECTION
   2
ENTITIES
   0
TEXT
   8
LEVEL003
  62
3
  10
 217.500
  20
 172.500
  30
0.0
  40
 6.00000
   1
ＮＰＴ３／８
   7
STANDARD
   0
LINE
   8
LEVEL003
   6
CONTINUOUS
  62
3
  10
 200.806
  20
 208.066
  30
0.0
  11
 217.500
  21
 172.500
  31
0.0
   0
LINE
   8
LEVEL003
   6
CONTINUOUS
  62
3
  10
 200.806
  20
 208.066
  30
0.0
  11
 202.000
  21
 203.655
  31
0.0
   0
LINE
   8
LEVEL003
   6
CONTINUOUS
  62
3
  10
 200.806
  20
 208.066
  30
0.0
  11
 203.436
  21
 204.329
  31
0.0
   0
LINE
   8
LEVEL003
   6
CONTINUOUS
  62
3
  10
 87.5000
  20
 183.000
  30
0.0
  11
 87.5000
  21
 162.000
  31
0.0
   0
LINE
   8
LEVEL003
   6
CONTINUOUS
  62
3
  10
 182.500
  20
 183.000
  30
0.0
  11
 182.500
  21
 162.000
  31
0.0
   0
LINE
   8
LEVEL003
   6
CONTINUOUS
  62
3
  10
 87.5000
  20
 165.000
  30
0.0
  11
 182.500
  21
 165.000
  31
0.0
   0
LINE
   8
LEVEL003
   6
CONTINUOUS
  62
3
  10
 87.5000
  20
 165.000
  30
0.0
  11
 92.0000
  21
 164.207
  31
0.0
   0
LINE
   8
LEVEL003
   6
CONTINUOUS
  62
3
  10
 87.5000
  20
 165.000
  30
0.0
  11
 92.0000
  21
 165.793
  31
0.0
   0
LINE
   8
LEVEL003
   6
CONTINUOUS
  62
3
  10
 182.500
  20
 165.000
  30
0.0
  11
 178.000
  21
 165.793
  31
0.0
   0
LINE
   8
LEVEL003
   6
CONTINUOUS
  62
3
  10
 182.500
  20
 165.000
  30
0.0
  11
 178.000
  21
 164.207
  31
0.0
   0
TEXT
   8
LEVEL003
  62
3
  10
 129.000
  20
 166.200
  30
0.0
  40
 6.00000
   1
%%c95
   7
STANDARD
  72
1
  11
 135.000
  21
 166.200
  31
0.0
   0
TEXT
   8
LEVEL003
  62
3
  10
 210.000
  20
 427.500
  30
0.0
  40
 6.00000
   1
Ｍ１２５×２
   7
STANDARD
   0
LINE
   8
LEVEL003
   6
CONTINUOUS
  62
3
  10
 197.500
  20
 435.000
  30
0.0
  11
 210.000
  21
 427.500
  31
0.0
   0
LINE
   8
LEVEL003
   6
CONTINUOUS
  62
3
  10
 197.500
  20
 435.000
  30
0.0
  11
 200.950
  21
 432.004
  31
0.0
   0
LINE
   8
LEVEL003
   6
CONTINUOUS
  62
3
  10
 197.500
  20
 435.000
  30
0.0
  11
 201.767
  21
 433.365
  31
0.0
   0
LINE
   8
LEVEL003
   6
CONTINUOUS
  62
3
  10
 100.000
  20
 472.000
  30
0.0
  11
 100.000
  21
 505.500
  31
0.0
   0
LINE
   8
LEVEL003
   6
CONTINUOUS
  62
3
  10
 170.000
  20
 472.000
  30
0.0
  11
 170.000
  21
 505.500
  31
0.0
   0
LINE
   8
LEVEL003
   6
CONTINUOUS
  62
3
  10
 100.000
  20
 502.500
  30
0.0
  11
 170.000
  21
 502.500
  31
0.0
   0
LINE
   8
LEVEL003
   6
CONTINUOUS
  62
3
  10
 100.000
  20
 502.500
  30
0.0
  11
 104.500
  21
 501.707
  31
0.0
   0
LINE
   8
LEVEL003
   6
CONTINUOUS
  62
3
  10
 100.000
  20
 502.500
  30
0.0
  11
 104.500
  21
 503.293
  31
0.0
   0
LINE
   8
LEVEL003
   6
CONTINUOUS
  62
3
  10
 170.000
  20
 502.500
  30
0.0
  11
 165.500
  21
 503.293
  31
0.0
   0
LINE
   8
LEVEL003
   6
CONTINUOUS
  62
3
  10
 170.000
  20
 502.500
  30
0.0
  11
 165.500
  21
 501.707
  31
0.0
   0
TEXT
   8
LEVEL003
  62
3
  10
 129.000
  20
 503.700
  30
0.0
  40
 6.00000
   1
%%c70
   7
STANDARD
  72
1
  11
 135.000
  21
 503.700
  31
0.0
   0
LINE
   8
LEVEL003
   6
CONTINUOUS
  62
3
  10
 72.5000
  20
 307.500
  30
0.0
  11
 197.500
  21
 307.500
  31
0.0
   0
LINE
   8
LEVEL003
   6
CONTINUOUS
  62
3
  10
 72.5000
  20
 307.500
  30
0.0
  11
 77.0000
  21
 306.707
  31
0.0
   0
LINE
   8
LEVEL003
   6
CONTINUOUS
  62
3
  10
 72.5000
  20
 307.500
  30
0.0
  11
 77.0000
  21
 308.293
  31
0.0
   0
LINE
   8
LEVEL003
   6
CONTINUOUS
  62
3
  10
 197.500
  20
 307.500
  30
0.0
  11
 193.000
  21
 308.293
  31
0.0
   0
LINE
   8
LEVEL003
   6
CONTINUOUS
  62
3
  10
 197.500
  20
 307.500
  30
0.0
  11
 193.000
  21
 306.707
  31
0.0
   0
TEXT
   8
LEVEL003
  62
3
  10
 127.500
  20
 308.700
  30
0.0
  40
 6.00000
   1
%%c125
   7
STANDARD
  72
1
  11
 135.000
  21
 308.700
  31
0.0
   0
LINE
   8
LEVEL003
   6
CONTINUOUS
  62
3
  10
 87.5000
  20
 322.500
  30
0.0
  11
 182.500
  21
 322.500
  31
0.0
   0
LINE
   8
LEVEL003
   6
CONTINUOUS
  62
3
  10
 87.5000
  20
 322.500
  30
0.0
  11
 92.0000
  21
 321.707
  31
0.0
   0
LINE
   8
LEVEL003
   6
CONTINUOUS
  62
3
  10
 87.5000
  20
 322.500
  30
0.0
  11
 92.0000
  21
 323.293
  31
0.0
   0
LINE
   8
LEVEL003
   6
CONTINUOUS
  62
3
  10
 182.500
  20
 322.500
  30
0.0
  11
 178.000
  21
 323.293
  31
0.0
   0
LINE
   8
LEVEL003
   6
CONTINUOUS
  62
3
  10
 182.500
  20
 322.500
  30
0.0
  11
 178.000
  21
 321.707
  31
0.0
   0
TEXT
   8
LEVEL003
  62
3
  10
 129.000
  20
 323.700
  30
0.0
  40
 6.00000
   1
%%c95
   7
STANDARD
  72
1
  11
 135.000
  21
 323.700
  31
0.0
   0
LINE
   8
LEVEL003
   6
CONTINUOUS
  62
3
  10
 92.5000
  20
 337.500
  30
0.0
  11
 177.500
  21
 337.500
  31
0.0
   0
LINE
   8
LEVEL003
   6
CONTINUOUS
  62
3
  10
 92.5000
  20
 337.500
  30
0.0
  11
 97.0000
  21
 336.707
  31
0.0
   0
LINE
   8
LEVEL003
   6
CONTINUOUS
  62
3
  10
 92.5000
  20
 337.500
  30
0.0
  11
 97.0000
  21
 338.293
  31
0.0
   0
LINE
   8
LEVEL003
   6
CONTINUOUS
  62
3
  10
 177.500
  20
 337.500
  30
0.0
  11
 173.000
  21
 338.293
  31
0.0
   0
LINE
   8
LEVEL003
   6
CONTINUOUS
  62
3
  10
 177.500
  20
 337.500
  30
0.0
  11
 173.000
  21
 336.707
  31
0.0
   0
TEXT
   8
LEVEL003
  62
3
  10
 129.000
  20
 338.700
  30
0.0
  40
 6.00000
   1
%%c85
   7
STANDARD
  72
1
  11
 135.000
  21
 338.700
  31
0.0
   0
LINE
   8
LEVEL001
   6
CONTINUOUS
  62
7
  10
 234.500
  20
 369.500
  30
0.0
  11
 234.500
  21
 269.500
  31
0.0
   0
LINE
   8
LEVEL001
   6
CONTINUOUS
  62
7
  10
 248.500
  20
 369.500
  30
0.0
  11
 248.500
  21
 269.500
  31
0.0
   0
LINE
   8
LEVEL003
   6
CONTINUOUS
  62
3
  10
 226.000
  20
 379.500
  30
0.0
  11
 273.000
  21
 379.500
  31
0.0
   0
LINE
   8
LEVEL003
   6
CONTINUOUS
  62
3
  10
 226.000
  20
 259.500
  30
0.0
  11
 273.000
  21
 259.500
  31
0.0
   0
LINE
   8
LEVEL003
   6
CONTINUOUS
  62
3
  10
 270.000
  20
 379.500
  30
0.0
  11
 270.000
  21
 259.500
  31
0.0
   0
LINE
   8
LEVEL003
   6
CONTINUOUS
  62
3
  10
 270.000
  20
 379.500
  30
0.0
  11
 269.207
  21
 375.000
  31
0.0
   0
LINE
   8
LEVEL003
   6
CONTINUOUS
  62
3
  10
 270.000
  20
 379.500
  30
0.0
  11
 270.793
  21
 375.000
  31
0.0
   0
LINE
   8
LEVEL003
   6
CONTINUOUS
  62
3
  10
 270.000
  20
 259.500
  30
0.0
  11
 270.793
  21
 264.000
  31
0.0
   0
LINE
   8
LEVEL003
   6
CONTINUOUS
  62
3
  10
 270.000
  20
 259.500
  30
0.0
  11
 269.207
  21
 264.000
  31
0.0
   0
TEXT
   8
LEVEL003
  62
3
  10
 268.800
  20
 315.000
  30
0.0
  40
 6.00000
   1
120
  50
 90.0000
  41
 0.500000
   7
STANDARD
  72
1
  11
 268.800
  21
 319.500
  31
0.0
   0
LINE
   8
LEVEL003
   6
CONTINUOUS
  62
3
  10
 197.500
  20
 307.500
  30
0.0
  11
 248.500
  21
 307.500
  31
0.0
   0
LINE
   8
LEVEL003
   6
CONTINUOUS
  62
3
  10
 197.500
  20
 307.500
  30
0.0
  11
 202.000
  21
 306.707
  31
0.0
   0
LINE
   8
LEVEL003
   6
CONTINUOUS
  62
3
  10
 197.500
  20
 307.500
  30
0.0
  11
 202.000
  21
 308.293
  31
0.0
   0
LINE
   8
LEVEL003
   6
CONTINUOUS
  62
3
  10
 248.500
  20
 307.500
  30
0.0
  11
 244.000
  21
 308.293
  31
0.0
   0
LINE
   8
LEVEL003
   6
CONTINUOUS
  62
3
  10
 248.500
  20
 307.500
  30
0.0
  11
 244.000
  21
 306.707
  31
0.0
   0
TEXT
   8
LEVEL003
  62
3
  10
 220.000
  20
 308.700
  30
0.0
  40
 6.00000
   1
51
  41
 0.500000
   7
STANDARD
  72
1
  11
 223.000
  21
 308.700
  31
0.0
   0
LINE
   8
LEVEL001
   6
DASHDOT
  62
1
  10
 241.500
  20
 369.500
  30
0.0
  11
 241.500
  21
 269.500
  31
0.0
   0
LINE
   8
LEVEL001
   6
CONTINUOUS
  62
3
  10
 207.500
  20
 207.856
  30
0.0
  11
 203.884
  21
 208.826
  31
0.0
   0
LINE
   8
LEVEL001
   6
CONTINUOUS
  62
7
  10
 207.500
  20
 207.856
  30
0.0
  11
 208.984
  21
 207.000
  31
0.0
   0
LINE
   8
LEVEL001
   6
CONTINUOUS
  62
7
  10
 224.500
  20
 207.000
  30
0.0
  11
 208.984
  21
 207.000
  31
0.0
   0
LINE
   8
LEVEL001
   6
CONTINUOUS
  62
7
  10
 224.500
  20
 203.500
  30
0.0
  11
 224.500
  21
 229.500
  31
0.0
   0
LINE
   8
LEVEL001
   6
CONTINUOUS
  62
7
  10
 248.500
  20
 229.500
  30
0.0
  11
 248.500
  21
 203.500
  31
0.0
   0
LINE
   8
LEVEL001
   6
DASHDOT
  62
1
  10
 258.500
  20
 229.500
  30
0.0
  11
 258.500
  21
 203.500
  31
0.0
   0
CIRCLE
   8
LEVEL001
   6
DASHDOT
  62
1
  10
 261.500
  20
 216.500
  30
0.0
  40
 1.50000
   0
ARC
   8
LEVEL001
   6
DASHDOT
  62
1
  10
 260.500
  20
 211.000
  30
0.0
  40
 2.00000
  50
 90.0002
  51
 180.000
   0
LINE
   8
LEVEL001
   6
DASHDOT
  62
1
  10
 260.500
  20
 213.000
  30
0.0
  11
 261.000
  21
 213.000
  31
0.0
   0
ARC
   8
LEVEL001
   6
DASHDOT
  62
1
  10
 261.000
  20
 216.500
  30
0.0
  40
 3.50000
  50
 270.000
  51
 90.0000
   0
LINE
   8
LEVEL001
   6
CONTINUOUS
  62
7
  10
 208.984
  20
 207.000
  30
0.0
  11
 208.984
  21
 210.669
  31
0.0
   0
LINE
   8
LEVEL001
   6
CONTINUOUS
  62
7
  10
 203.500
  20
 212.461
  30
0.0
  11
 217.500
  21
 222.331
  31
0.0
   0
LINE
   8
LEVEL001
   6
CONTINUOUS
  62
7
  10
 203.500
  20
 220.539
  30
0.0
  11
 217.500
  21
 210.669
  31
0.0
   0
LINE
   8
LEVEL001
   6
CONTINUOUS
  62
3
  10
 203.884
  20
 212.461
  30
0.0
  11
 203.884
  21
 208.826
  31
0.0
   0
LINE
   8
LEVEL001
   6
CONTINUOUS
  62
7
  10
 207.500
  20
 212.203
  30
0.0
  11
 207.500
  21
 207.856
  31
0.0
   0
LINE
   8
LEVEL001
   6
CONTINUOUS
  62
3
  10
 231.000
  20
 205.500
  30
0.0
  11
 242.000
  21
 205.500
  31
0.0
   0
LINE
   8
LEVEL001
   6
CONTINUOUS
  62
3
  10
 231.000
  20
 207.500
  30
0.0
  11
 242.000
  21
 207.500
  31
0.0
   0
LINE
   8
LEVEL001
   6
CONTINUOUS
  62
3
  10
 231.000
  20
 209.500
  30
0.0
  11
 242.000
  21
 209.500
  31
0.0
   0
LINE
   8
LEVEL001
   6
CONTINUOUS
  62
3
  10
 231.000
  20
 211.500
  30
0.0
  11
 242.000
  21
 211.500
  31
0.0
   0
LINE
   8
LEVEL001
   6
CONTINUOUS
  62
3
  10
 231.000
  20
 213.500
  30
0.0
  11
 242.000
  21
 213.500
  31
0.0
   0
LINE
   8
LEVEL001
   6
CONTINUOUS
  62
3
  10
 231.000
  20
 215.500
  30
0.0
  11
 242.000
  21
 215.500
  31
0.0
   0
LINE
   8
LEVEL001
   6
CONTINUOUS
  62
7
  10
 203.500
  20
 212.461
  30
0.0
  11
 203.500
  21
 220.539
  31
0.0
   0
LINE
   8
LEVEL001
   6
CONTINUOUS
  62
7
  10
 203.500
  20
 220.539
  30
0.0
  11
 207.500
  21
 220.797
  31
0.0
   0
LINE
   8
LEVEL001
   6
CONTINUOUS
  62
7
  10
 207.500
  20
 220.797
  30
0.0
  11
 208.984
  21
 222.331
  31
0.0
   0
LINE
   8
LEVEL001
   6
CONTINUOUS
  62
7
  10
 208.984
  20
 222.331
  30
0.0
  11
 217.500
  21
 222.331
  31
0.0
   0
LINE
   8
LEVEL001
   6
CONTINUOUS
  62
7
  10
 217.500
  20
 222.331
  30
0.0
  11
 217.500
  21
 210.669
  31
0.0
   0
LINE
   8
LEVEL001
   6
CONTINUOUS
  62
7
  10
 217.500
  20
 210.669
  30
0.0
  11
 208.984
  21
 210.669
  31
0.0
   0
LINE
   8
LEVEL001
   6
CONTINUOUS
  62
7
  10
 208.984
  20
 210.669
  30
0.0
  11
 207.500
  21
 212.203
  31
0.0
   0
LINE
   8
LEVEL001
   6
CONTINUOUS
  62
7
  10
 207.500
  20
 212.203
  30
0.0
  11
 203.500
  21
 212.461
  31
0.0
   0
LINE
   8
LEVEL001
   6
CONTINUOUS
  62
7
  10
 231.000
  20
 201.500
  30
0.0
  11
 231.000
  21
 231.500
  31
0.0
   0
LINE
   8
LEVEL001
   6
CONTINUOUS
  62
7
  10
 231.000
  20
 231.500
  30
0.0
  11
 242.000
  21
 231.500
  31
0.0
   0
LINE
   8
LEVEL001
   6
CONTINUOUS
  62
7
  10
 242.000
  20
 231.500
  30
0.0
  11
 242.000
  21
 201.500
  31
0.0
   0
LINE
   8
LEVEL001
   6
CONTINUOUS
  62
7
  10
 242.000
  20
 201.500
  30
0.0
  11
 231.000
  21
 201.500
  31
0.0
   0
ARC
   8
LEVEL001
   6
CONTINUOUS
  62
7
  10
 226.000
  20
 203.500
  30
0.0
  40
 1.50000
  50
 180.000
  51
 270.000
   0
LINE
   8
LEVEL001
   6
CONTINUOUS
  62
7
  10
 226.000
  20
 202.000
  30
0.0
  11
 231.000
  21
 202.000
  31
0.0
   0
ARC
   8
LEVEL001
   6
CONTINUOUS
  62
7
  10
 247.000
  20
 203.500
  30
0.0
  40
 1.50000
  50
 270.000
  51
0.0
   0
LINE
   8
LEVEL001
   6
CONTINUOUS
  62
7
  10
 242.000
  20
 202.000
  30
0.0
  11
 247.000
  21
 202.000
  31
0.0
   0
ARC
   8
LEVEL001
   6
DASHDOT
  62
1
  10
 257.500
  20
 203.500
  30
0.0
  40
 1.00000
  50
 270.000
  51
 0.435426E-3
   0
LINE
   8
LEVEL001
   6
DASHDOT
  62
1
  10
 249.500
  20
 202.500
  30
0.0
  11
 257.500
  21
 202.500
  31
0.0
   0
ARC
   8
LEVEL001
   6
DASHDOT
  62
1
  10
 249.500
  20
 203.500
  30
0.0
  40
 1.00000
  50
 180.000
  51
 270.000
   0
LINE
   8
LEVEL001
   6
CONTINUOUS
  62
3
  10
 231.000
  20
 203.500
  30
0.0
  11
 242.000
  21
 203.500
  31
0.0
   0
LINE
   8
LEVEL001
   6
CONTINUOUS
  62
3
  10
 207.500
  20
 225.144
  30
0.0
  11
 203.884
  21
 224.175
  31
0.0
   0
LINE
   8
LEVEL001
   6
CONTINUOUS
  62
7
  10
 207.500
  20
 225.144
  30
0.0
  11
 208.984
  21
 226.000
  31
0.0
   0
LINE
   8
LEVEL001
   6
CONTINUOUS
  62
7
  10
 224.500
  20
 226.000
  30
0.0
  11
 208.984
  21
 226.000
  31
0.0
   0
LINE
   8
LEVEL001
   6
CONTINUOUS
  62
7
  10
 208.984
  20
 222.331
  30
0.0
  11
 208.984
  21
 226.000
  31
0.0
   0
LINE
   8
LEVEL001
   6
CONTINUOUS
  62
3
  10
 203.884
  20
 224.175
  30
0.0
  11
 203.884
  21
 220.539
  31
0.0
   0
LINE
   8
LEVEL001
   6
CONTINUOUS
  62
7
  10
 207.500
  20
 225.144
  30
0.0
  11
 207.500
  21
 220.797
  31
0.0
   0
ARC
   8
LEVEL001
   6
CONTINUOUS
  62
7
  10
 226.000
  20
 229.500
  30
0.0
  40
 1.50000
  50
 90.0000
  51
 180.000
   0
LINE
   8
LEVEL001
   6
CONTINUOUS
  62
7
  10
 226.000
  20
 231.000
  30
0.0
  11
 231.000
  21
 231.000
  31
0.0
   0
ARC
   8
LEVEL001
   6
CONTINUOUS
  62
7
  10
 247.000
  20
 229.500
  30
0.0
  40
 1.50000
  50
 0.217126E-11
  51
 90.0000
   0
LINE
   8
LEVEL001
   6
CONTINUOUS
  62
7
  10
 242.000
  20
 231.000
  30
0.0
  11
 247.000
  21
 231.000
  31
0.0
   0
LINE
   8
LEVEL001
   6
DASHDOT
  62
1
  10
 249.500
  20
 230.500
  30
0.0
  11
 257.500
  21
 230.500
  31
0.0
   0
ARC
   8
LEVEL001
   6
DASHDOT
  62
1
  10
 249.500
  20
 229.500
  30
0.0
  40
 1.00000
  50
 89.9996
  51
 180.000
   0
ARC
   8
LEVEL001
   6
DASHDOT
  62
1
  10
 257.500
  20
 229.500
  30
0.0
  40
 1.00000
  50
0.0
  51
 90.0004
   0
ARC
   8
LEVEL001
   6
DASHDOT
  62
1
  10
 260.500
  20
 222.000
  30
0.0
  40
 2.00000
  50
 180.000
  51
 270.000
   0
LINE
   8
LEVEL001
   6
CONTINUOUS
  62
3
  10
 231.000
  20
 217.500
  30
0.0
  11
 242.000
  21
 217.500
  31
0.0
   0
LINE
   8
LEVEL001
   6
CONTINUOUS
  62
3
  10
 231.000
  20
 219.500
  30
0.0
  11
 242.000
  21
 219.500
  31
0.0
   0
LINE
   8
LEVEL001
   6
CONTINUOUS
  62
3
  10
 231.000
  20
 221.500
  30
0.0
  11
 242.000
  21
 221.500
  31
0.0
   0
LINE
   8
LEVEL001
   6
CONTINUOUS
  62
3
  10
 231.000
  20
 223.500
  30
0.0
  11
 242.000
  21
 223.500
  31
0.0
   0
LINE
   8
LEVEL001
   6
CONTINUOUS
  62
3
  10
 231.000
  20
 225.500
  30
0.0
  11
 242.000
  21
 225.500
  31
0.0
   0
LINE
   8
LEVEL001
   6
CONTINUOUS
  62
3
  10
 231.000
  20
 227.500
  30
0.0
  11
 242.000
  21
 227.500
  31
0.0
   0
LINE
   8
LEVEL001
   6
CONTINUOUS
  62
3
  10
 231.000
  20
 229.500
  30
0.0
  11
 242.000
  21
 229.500
  31
0.0
   0
LINE
   8
LEVEL001
   6
DASHDOT
  62
1
  10
 260.500
  20
 220.000
  30
0.0
  11
 261.000
  21
 220.000
  31
0.0
   0
LINE
   8
LEVEL003
   6
CONTINUOUS
  62
3
  10
 197.000
  20
 187.500
  30
0.0
  11
 295.500
  21
 187.500
  31
0.0
   0
LINE
   8
LEVEL003
   6
CONTINUOUS
  62
3
  10
 269.000
  20
 216.500
  30
0.0
  11
 295.500
  21
 216.500
  31
0.0
   0
LINE
   8
LEVEL003
   6
CONTINUOUS
  62
3
  10
 292.500
  20
 187.500
  30
0.0
  11
 292.500
  21
 216.500
  31
0.0
   0
LINE
   8
LEVEL003
   6
CONTINUOUS
  62
3
  10
 292.500
  20
 187.500
  30
0.0
  11
 293.293
  21
 192.000
  31
0.0
   0
LINE
   8
LEVEL003
   6
CONTINUOUS
  62
3
  10
 292.500
  20
 187.500
  30
0.0
  11
 291.707
  21
 192.000
  31
0.0
   0
LINE
   8
LEVEL003
   6
CONTINUOUS
  62
3
  10
 292.500
  20
 216.500
  30
0.0
  11
 291.707
  21
 212.000
  31
0.0
   0
LINE
   8
LEVEL003
   6
CONTINUOUS
  62
3
  10
 292.500
  20
 216.500
  30
0.0
  11
 293.293
  21
 212.000
  31
0.0
   0
TEXT
   8
LEVEL003
  62
3
  10
 291.300
  20
 199.000
  30
0.0
  40
 6.00000
   1
29
  50
 90.0000
  41
 0.500000
   7
STANDARD
  72
1
  11
 291.300
  21
 202.000
  31
0.0
   0
LINE
   8
LEVEL003
   6
CONTINUOUS
  62
3
  10
 197.000
  20
 187.500
  30
0.0
  11
 325.500
  21
 187.500
  31
0.0
   0
LINE
   8
LEVEL003
   6
CONTINUOUS
  62
3
  10
 169.500
  20
 472.500
  30
0.0
  11
 325.500
  21
 472.500
  31
0.0
   0
LINE
   8
LEVEL003
   6
CONTINUOUS
  62
3
  10
 322.500
  20
 187.500
  30
0.0
  11
 322.500
  21
 472.500
  31
0.0
   0
LINE
   8
LEVEL003
   6
CONTINUOUS
  62
3
  10
 322.500
  20
 187.500
  30
0.0
  11
 323.293
  21
 192.000
  31
0.0
   0
LINE
   8
LEVEL003
   6
CONTINUOUS
  62
3
  10
 322.500
  20
 187.500
  30
0.0
  11
 321.707
  21
 192.000
  31
0.0
   0
LINE
   8
LEVEL003
   6
CONTINUOUS
  62
3
  10
 322.500
  20
 472.500
  30
0.0
  11
 321.707
  21
 468.000
  31
0.0
   0
LINE
   8
LEVEL003
   6
CONTINUOUS
  62
3
  10
 322.500
  20
 472.500
  30
0.0
  11
 323.293
  21
 468.000
  31
0.0
   0
TEXT
   8
LEVEL003
  62
3
  10
 321.300
  20
 325.500
  30
0.0
  40
 6.00000
   1
285
  50
 90.0000
  41
 0.500000
   7
STANDARD
  72
1
  11
 321.300
  21
 330.000
  31
0.0
   0
LINE
   8
LEVEL001
   6
CONTINUOUS
  62
7
  10
 197.500
  20
 189.500
  30
0.0
  11
 195.500
  21
 187.500
  31
0.0
   0
LINE
   8
LEVEL001
   6
CONTINUOUS
  62
7
  10
 74.5000
  20
 187.500
  30
0.0
  11
 195.500
  21
 187.500
  31
0.0
   0
LINE
   8
LEVEL001
   6
CONTINUOUS
  62
7
  10
 72.5000
  20
 189.500
  30
0.0
  11
 74.5000
  21
 187.500
  31
0.0
   0
LINE
   8
LEVEL001
   6
CONTINUOUS
  62
7
  10
 195.500
  20
 466.500
  30
0.0
  11
 194.500
  21
 467.500
  31
0.0
   0
LINE
   8
LEVEL001
   6
CONTINUOUS
  62
7
  10
 195.500
  20
 462.500
  30
0.0
  11
 195.500
  21
 466.500
  31
0.0
   0
LINE
   8
LEVEL001
   6
CONTINUOUS
  62
7
  10
 196.500
  20
 462.500
  30
0.0
  11
 197.500
  21
 461.500
  31
0.0
   0
LINE
   8
LEVEL001
   6
CONTINUOUS
  62
7
  10
 197.500
  20
 461.500
  30
0.0
  11
 197.500
  21
 413.768
  31
0.0
   0
LINE
   8
LEVEL001
   6
CONTINUOUS
  62
7
  10
 170.000
  20
 470.500
  30
0.0
  11
 168.000
  21
 472.500
  31
0.0
   0
LINE
   8
LEVEL001
   6
CONTINUOUS
  62
7
  10
 74.5000
  20
 466.500
  30
0.0
  11
 75.5000
  21
 467.500
  31
0.0
   0
LINE
   8
LEVEL001
   6
CONTINUOUS
  62
7
  10
 74.5000
  20
 462.500
  30
0.0
  11
 74.5000
  21
 466.500
  31
0.0
   0
LINE
   8
LEVEL001
   6
CONTINUOUS
  62
7
  10
 73.5000
  20
 462.500
  30
0.0
  11
 72.5000
  21
 461.500
  31
0.0
   0
LINE
   8
LEVEL001
   6
CONTINUOUS
  62
7
  10
 72.5000
  20
 461.500
  30
0.0
  11
 72.5000
  21
 413.768
  31
0.0
   0
LINE
   8
LEVEL001
   6
CONTINUOUS
  62
7
  10
 100.000
  20
 470.500
  30
0.0
  11
 102.000
  21
 472.500
  31
0.0
   0
LINE
   8
LEVEL001
   6
CONTINUOUS
  62
7
  10
 168.000
  20
 472.500
  30
0.0
  11
 102.000
  21
 472.500
  31
0.0
   0
LINE
   8
LEVEL001
   6
DASHDOT
  62
1
  10
 200.500
  20
 462.500
  30
0.0
  11
 200.500
  21
 417.500
  31
0.0
   0
LINE
   8
LEVEL001
   6
DASHDOT
  62
1
  10
 196.500
  20
 462.500
  30
0.0
  11
 200.500
  21
 462.500
  31
0.0
   0
LINE
   8
LEVEL001
   6
DASHDOT
  62
1
  10
 69.5000
  20
 462.500
  30
0.0
  11
 69.5000
  21
 417.500
  31
0.0
   0
LINE
   8
LEVEL001
   6
DASHDOT
  62
1
  10
 73.5000
  20
 462.500
  30
0.0
  11
 69.5000
  21
 462.500
  31
0.0
   0
LINE
   8
LEVEL001
   6
CONTINUOUS
  62
7
  10
 72.5000
  20
 189.500
  30
0.0
  11
 72.5000
  21
 413.768
  31
0.0
   0
LINE
   8
LEVEL001
   6
CONTINUOUS
  62
3
  10
 196.500
  20
 417.500
  30
0.0
  11
 197.500
  21
 413.768
  31
0.0
   0
LINE
   8
LEVEL001
   6
DASHDOT
  62
1
  10
 197.500
  20
 417.500
  30
0.0
  11
 200.500
  21
 417.500
  31
0.0
   0
LINE
   8
LEVEL001
   6
CONTINUOUS
  62
3
  10
 73.5000
  20
 417.500
  30
0.0
  11
 72.5000
  21
 413.768
  31
0.0
   0
LINE
   8
LEVEL001
   6
DASHDOT
  62
1
  10
 72.5000
  20
 417.500
  30
0.0
  11
 69.5000
  21
 417.500
  31
0.0
   0
ARC
   8
LEVEL001
   6
CONTINUOUS
  62
7
  10
 224.500
  20
 369.500
  30
0.0
  40
 10.0000
  50
0.0
  51
 89.9999
   0
ARC
   8
LEVEL001
   6
CONTINUOUS
  62
7
  10
 224.500
  20
 269.500
  30
0.0
  40
 10.0000
  50
 270.000
  51
0.0
   0
ARC
   8
LEVEL001
   6
CONTINUOUS
  62
7
  10
 224.500
  20
 369.500
  30
0.0
  40
 24.0000
  50
 0.271407E-12
  51
 90.0000
   0
ARC
   8
LEVEL001
   6
CONTINUOUS
  62
7
  10
 224.500
  20
 269.500
  30
0.0
  40
 24.0000
  50
 270.000
  51
0.0
   0
LINE
   8
LEVEL001
   6
CONTINUOUS
  62
7
  10
 200.500
  20
 379.500
  30
0.0
  11
 197.500
  21
 376.500
  31
0.0
   0
LINE
   8
LEVEL001
   6
CONTINUOUS
  62
7
  10
 200.500
  20
 259.500
  30
0.0
  11
 197.500
  21
 262.500
  31
0.0
   0
LINE
   8
LEVEL001
   6
CONTINUOUS
  62
7
  10
 200.500
  20
 245.500
  30
0.0
  11
 200.500
  21
 259.500
  31
0.0
   0
LINE
   8
LEVEL001
   6
CONTINUOUS
  62
7
  10
 200.500
  20
 379.500
  30
0.0
  11
 200.500
  21
 393.500
  31
0.0
   0
LINE
   8
LEVEL001
   6
CONTINUOUS
  62
7
  10
 200.500
  20
 379.500
  30
0.0
  11
 224.500
  21
 379.500
  31
0.0
   0
LINE
   8
LEVEL001
   6
CONTINUOUS
  62
7
  10
 224.500
  20
 259.500
  30
0.0
  11
 200.500
  21
 259.500
  31
0.0
   0
LINE
   8
LEVEL001
   6
CONTINUOUS
  62
7
  10
 200.500
  20
 393.500
  30
0.0
  11
 224.500
  21
 393.500
  31
0.0
   0
LINE
   8
LEVEL001
   6
CONTINUOUS
  62
7
  10
 224.500
  20
 245.500
  30
0.0
  11
 200.500
  21
 245.500
  31
0.0
   0
LINE
   8
LEVEL001
   6
CONTINUOUS
  62
7
  10
 200.500
  20
 393.500
  30
0.0
  11
 197.500
  21
 396.500
  31
0.0
   0
LINE
   8
LEVEL001
   6
DASHDOT
  62
1
  10
 195.000
  20
 386.500
  30
0.0
  11
 224.500
  21
 386.500
  31
0.0
   0
ARC
   8
LEVEL001
   6
DASHDOT
  62
1
  10
 224.500
  20
 369.500
  30
0.0
  40
 17.0000
  50
 0.106069E-3
  51
 89.9999
   0
ARC
   8
LEVEL001
   6
DASHDOT
  62
1
  10
 224.500
  20
 269.500
  30
0.0
  40
 17.0000
  50
 270.000
  51
 0.482132E-4
   0
LINE
   8
LEVEL001
   6
DASHDOT
  62
1
  10
 224.500
  20
 252.500
  30
0.0
  11
 195.000
  21
 252.500
  31
0.0
   0
LINE
   8
LEVEL001
   6
DASHDOT
  62
1
  10
 135.000
  20
 480.000
  30
0.0
  11
 135.000
  21
 345.000
  31
0.0
   0
LINE
   8
LEVEL001
   6
DASHDOT
  62
1
  10
 135.000
  20
 337.500
  30
0.0
  11
 135.000
  21
 330.000
  31
0.0
   0
LINE
   8
LEVEL001
   6
DASHDOT
  62
1
  10
 135.000
  20
 322.500
  30
0.0
  11
 135.000
  21
 315.000
  31
0.0
   0
LINE
   8
LEVEL001
   6
DASHDOT
  62
1
  10
 135.000
  20
 307.500
  30
0.0
  11
 135.000
  21
 180.000
  31
0.0
   0
LINE
   8
LEVEL001
   6
CONTINUOUS
  62
7
  10
 200.500
  20
 245.500
  30
0.0
  11
 197.500
  21
 242.500
  31
0.0
   0
CIRCLE
   8
LEVEL001
   6
CONTINUOUS
  62
7
  10
 135.000
  20
 75.0000
  30
0.0
  40
 62.5000
   0
CIRCLE
   8
LEVEL001
   6
CONTINUOUS
  62
7
  10
 135.000
  20
 75.0000
  30
0.0
  40
 60.5000
   0
CIRCLE
   8
LEVEL001
   6
CONTINUOUS
  62
7
  10
 101.412
  20
 108.588
  30
0.0
  40
 5.12500
   0
CIRCLE
   8
LEVEL001
   6
CONTINUOUS
  62
3
  10
 101.412
  20
 108.588
  30
0.0
  40
 6.00000
   0
LINE
   8
LEVEL001
   6
DASHDOT
  62
1
  10
 95.0484
  20
 114.952
  30
0.0
  11
 107.776
  21
 102.224
  31
0.0
   0
CIRCLE
   8
LEVEL001
   6
CONTINUOUS
  62
7
  10
 101.412
  20
 41.4124
  30
0.0
  40
 5.12500
   0
CIRCLE
   8
LEVEL001
   6
CONTINUOUS
  62
3
  10
 101.412
  20
 41.4124
  30
0.0
  40
 6.00000
   0
LINE
   8
LEVEL001
   6
DASHDOT
  62
1
  10
 95.0484
  20
 35.0485
  30
0.0
  11
 107.776
  21
 47.7764
  31
0.0
   0
LINE
   8
LEVEL001
   6
DASHDOT
  62
1
  10
 135.000
  20
 0.223517E-5
  30
0.0
  11
 135.000
  21
 150.000
  31
0.0
   0
CIRCLE
   8
LEVEL001
   6
CONTINUOUS
  62
3
  10
 135.000
  20
 75.0000
  30
0.0
  40
 7.47500
   0
LINE
   8
LEVEL001
   6
CONTINUOUS
  62
7
  10
 135.000
  20
 70.3812
  30
0.0
  11
 131.000
  21
 72.6906
  31
0.0
   0
LINE
   8
LEVEL001
   6
CONTINUOUS
  62
7
  10
 131.000
  20
 72.6906
  30
0.0
  11
 131.000
  21
 77.3093
  31
0.0
   0
LINE
   8
LEVEL001
   6
CONTINUOUS
  62
7
  10
 131.000
  20
 77.3093
  30
0.0
  11
 135.000
  21
 79.6188
  31
0.0
   0
LINE
   8
LEVEL001
   6
CONTINUOUS
  62
7
  10
 135.000
  20
 79.6188
  30
0.0
  11
 139.000
  21
 77.3094
  31
0.0
   0
LINE
   8
LEVEL001
   6
CONTINUOUS
  62
7
  10
 139.000
  20
 77.3094
  30
0.0
  11
 139.000
  21
 72.6906
  31
0.0
   0
LINE
   8
LEVEL001
   6
CONTINUOUS
  62
7
  10
 139.000
  20
 72.6906
  30
0.0
  11
 135.000
  21
 70.3812
  31
0.0
   0
LINE
   8
LEVEL001
   6
DASHDOT
  62
1
  10
 270.000
  20
 75.0000
  30
0.0
  11
 60.0000
  21
 75.0000
  31
0.0
   0
CIRCLE
   8
LEVEL001
   6
CONTINUOUS
  62
7
  10
 135.000
  20
 75.0000
  30
0.0
  40
 8.33100
   0
CIRCLE
   8
LEVEL001
   6
CONTINUOUS
  62
7
  10
 135.000
  20
 75.0000
  30
0.0
  40
 9.83102
   0
CIRCLE
   8
LEVEL001
   6
DASHDOT
  62
1
  10
 135.000
  20
 75.0000
  30
0.0
  40
 47.5000
   0
CIRCLE
   8
LEVEL001
   6
CONTINUOUS
  62
7
  10
 168.588
  20
 108.588
  30
0.0
  40
 5.12500
   0
CIRCLE
   8
LEVEL001
   6
CONTINUOUS
  62
3
  10
 168.588
  20
 108.588
  30
0.0
  40
 6.00000
   0
LINE
   8
LEVEL001
   6
DASHDOT
  62
1
  10
 174.952
  20
 114.952
  30
0.0
  11
 162.224
  21
 102.224
  31
0.0
   0
CIRCLE
   8
LEVEL001
   6
CONTINUOUS
  62
7
  10
 168.588
  20
 41.4124
  30
0.0
  40
 5.12500
   0
CIRCLE
   8
LEVEL001
   6
CONTINUOUS
  62
3
  10
 168.588
  20
 41.4124
  30
0.0
  40
 6.00000
   0
LINE
   8
LEVEL001
   6
DASHDOT
  62
1
  10
 174.952
  20
 35.0484
  30
0.0
  11
 162.224
  21
 47.7764
  31
0.0
   0
ARC
   8
LEVEL001
   6
CONTINUOUS
  62
7
  10
 226.000
  20
 87.9999
  30
0.0
  40
 1.50000
  50
 90.0000
  51
 180.000
   0
LINE
   8
LEVEL001
   6
CONTINUOUS
  62
7
  10
 226.000
  20
 89.4999
  30
0.0
  11
 231.000
  21
 89.4999
  31
0.0
   0
ARC
   8
LEVEL001
   6
CONTINUOUS
  62
7
  10
 226.000
  20
 62.0000
  30
0.0
  40
 1.50000
  50
 180.000
  51
 270.000
   0
LINE
   8
LEVEL001
   6
CONTINUOUS
  62
7
  10
 224.500
  20
 62.0000
  30
0.0
  11
 224.500
  21
 87.9999
  31
0.0
   0
LINE
   8
LEVEL001
   6
CONTINUOUS
  62
7
  10
 226.000
  20
 60.5000
  30
0.0
  11
 231.000
  21
 60.5000
  31
0.0
   0
ARC
   8
LEVEL001
   6
CONTINUOUS
  62
7
  10
 247.000
  20
 87.9999
  30
0.0
  40
 1.50000
  50
 0.683030E-5
  51
 90.0000
   0
LINE
   8
LEVEL001
   6
CONTINUOUS
  62
7
  10
 242.000
  20
 89.4999
  30
0.0
  11
 247.000
  21
 89.4999
  31
0.0
   0
ARC
   8
LEVEL001
   6
CONTINUOUS
  62
7
  10
 247.000
  20
 62.0000
  30
0.0
  40
 1.50000
  50
 270.000
  51
0.0
   0
LINE
   8
LEVEL001
   6
CONTINUOUS
  62
7
  10
 242.000
  20
 60.5000
  30
0.0
  11
 247.000
  21
 60.5000
  31
0.0
   0
LINE
   8
LEVEL001
   6
CONTINUOUS
  62
7
  10
 248.500
  20
 87.9999
  30
0.0
  11
 248.500
  21
 62.0000
  31
0.0
   0
ARC
   8
LEVEL001
   6
DASHDOT
  62
1
  10
 257.500
  20
 88.0001
  30
0.0
  40
 1.00000
  50
 359.993
  51
 89.9965
   0
LINE
   8
LEVEL001
   6
DASHDOT
  62
1
  10
 249.500
  20
 89.0001
  30
0.0
  11
 257.500
  21
 89.0001
  31
0.0
   0
ARC
   8
LEVEL001
   6
DASHDOT
  62
1
  10
 257.500
  20
 61.9999
  30
0.0
  40
 1.00000
  50
 270.004
  51
 0.174180E-2
   0
LINE
   8
LEVEL001
   6
DASHDOT
  62
1
  10
 249.500
  20
 60.9999
  30
0.0
  11
 257.500
  21
 60.9999
  31
0.0
   0
LINE
   8
LEVEL001
   6
DASHDOT
  62
1
  10
 258.500
  20
 87.9999
  30
0.0
  11
 258.500
  21
 62.0000
  31
0.0
   0
ARC
   8
LEVEL001
   6
DASHDOT
  62
1
  10
 249.500
  20
 61.9999
  30
0.0
  40
 1.00000
  50
 179.998
  51
 269.996
   0
ARC
   8
LEVEL001
   6
DASHDOT
  62
1
  10
 249.500
  20
 88.0001
  30
0.0
  40
 1.00000
  50
 90.0035
  51
 180.007
   0
LINE
   8
LEVEL001
   6
CONTINUOUS
  62
3
  10
 203.884
  20
 82.5000
  30
0.0
  11
 203.883
  21
 67.5000
  31
0.0
   0
LINE
   8
LEVEL001
   6
CONTINUOUS
  62
7
  10
 207.500
  20
 82.5000
  30
0.0
  11
 207.500
  21
 67.5000
  31
0.0
   0
LINE
   8
LEVEL001
   6
CONTINUOUS
  62
7
  10
 208.983
  20
 67.5000
  30
0.0
  11
 208.983
  21
 82.5000
  31
0.0
   0
LINE
   8
LEVEL001
   6
CONTINUOUS
  62
3
  10
 231.000
  20
 62.0000
  30
0.0
  11
 242.000
  21
 62.0000
  31
0.0
   0
LINE
   8
LEVEL001
   6
CONTINUOUS
  62
3
  10
 231.000
  20
 63.9999
  30
0.0
  11
 242.000
  21
 63.9999
  31
0.0
   0
LINE
   8
LEVEL001
   6
CONTINUOUS
  62
3
  10
 231.000
  20
 66.0000
  30
0.0
  11
 242.000
  21
 66.0000
  31
0.0
   0
LINE
   8
LEVEL001
   6
CONTINUOUS
  62
3
  10
 231.000
  20
 68.0001
  30
0.0
  11
 242.000
  21
 68.0001
  31
0.0
   0
LINE
   8
LEVEL001
   6
CONTINUOUS
  62
3
  10
 231.000
  20
 69.9999
  30
0.0
  11
 242.000
  21
 69.9999
  31
0.0
   0
LINE
   8
LEVEL001
   6
CONTINUOUS
  62
3
  10
 231.000
  20
 72.0000
  30
0.0
  11
 242.000
  21
 72.0000
  31
0.0
   0
LINE
   8
LEVEL001
   6
CONTINUOUS
  62
3
  10
 231.000
  20
 74.0001
  30
0.0
  11
 242.000
  21
 74.0001
  31
0.0
   0
LINE
   8
LEVEL001
   6
CONTINUOUS
  62
3
  10
 231.000
  20
 75.9999
  30
0.0
  11
 242.000
  21
 75.9999
  31
0.0
   0
LINE
   8
LEVEL001
   6
CONTINUOUS
  62
3
  10
 231.000
  20
 78.0000
  30
0.0
  11
 242.000
  21
 78.0000
  31
0.0
   0
LINE
   8
LEVEL001
   6
CONTINUOUS
  62
3
  10
 231.000
  20
 80.0001
  30
0.0
  11
 242.000
  21
 80.0001
  31
0.0
   0
LINE
   8
LEVEL001
   6
CONTINUOUS
  62
3
  10
 231.000
  20
 81.9999
  30
0.0
  11
 242.000
  21
 81.9999
  31
0.0
   0
LINE
   8
LEVEL001
   6
CONTINUOUS
  62
3
  10
 231.000
  20
 84.0000
  30
0.0
  11
 242.000
  21
 84.0000
  31
0.0
   0
LINE
   8
LEVEL001
   6
CONTINUOUS
  62
3
  10
 231.000
  20
 86.0001
  30
0.0
  11
 242.000
  21
 86.0001
  31
0.0
   0
LINE
   8
LEVEL001
   6
CONTINUOUS
  62
3
  10
 231.000
  20
 87.9999
  30
0.0
  11
 242.000
  21
 87.9999
  31
0.0
   0
LINE
   8
LEVEL001
   6
CONTINUOUS
  62
3
  10
 203.500
  20
 82.6625
  30
0.0
  11
 197.500
  21
 82.4750
  31
0.0
   0
LINE
   8
LEVEL001
   6
CONTINUOUS
  62
3
  10
 203.495
  20
 67.3377
  30
0.0
  11
 197.500
  21
 67.5250
  31
0.0
   0
LINE
   8
LEVEL001
   6
DASHDOT
  62
1
  10
 258.500
  20
 77.0001
  30
0.0
  11
 264.500
  21
 77.0001
  31
0.0
   0
LINE
   8
LEVEL001
   6
DASHDOT
  62
1
  10
 264.500
  20
 77.0001
  30
0.0
  11
 264.500
  21
 72.9999
  31
0.0
   0
LINE
   8
LEVEL001
   6
DASHDOT
  62
1
  10
 264.500
  20
 72.9999
  30
0.0
  11
 258.500
  21
 72.9999
  31
0.0
   0
LINE
   8
LEVEL001
   6
CONTINUOUS
  62
7
  10
 231.000
  20
 60.0000
  30
0.0
  11
 231.000
  21
 90.0000
  31
0.0
   0
LINE
   8
LEVEL001
   6
CONTINUOUS
  62
7
  10
 231.000
  20
 90.0000
  30
0.0
  11
 242.000
  21
 90.0000
  31
0.0
   0
LINE
   8
LEVEL001
   6
CONTINUOUS
  62
7
  10
 242.000
  20
 90.0000
  30
0.0
  11
 242.000
  21
 60.0000
  31
0.0
   0
LINE
   8
LEVEL001
   6
CONTINUOUS
  62
7
  10
 242.000
  20
 60.0000
  30
0.0
  11
 231.000
  21
 60.0000
  31
0.0
   0
LINE
   8
LEVEL001
   6
CONTINUOUS
  62
7
  10
 196.945
  20
 66.6863
  30
0.0
  11
 203.500
  21
 66.4815
  31
0.0
   0
LINE
   8
LEVEL001
   6
CONTINUOUS
  62
7
  10
 203.500
  20
 66.4815
  30
0.0
  11
 203.500
  21
 67.5000
  31
0.0
   0
LINE
   8
LEVEL001
   6
CONTINUOUS
  62
7
  10
 203.500
  20
 67.5000
  30
0.0
  11
 217.500
  21
 67.5000
  31
0.0
   0
LINE
   8
LEVEL001
   6
CONTINUOUS
  62
7
  10
 217.500
  20
 67.5000
  30
0.0
  11
 217.500
  21
 65.4999
  31
0.0
   0
LINE
   8
LEVEL001
   6
CONTINUOUS
  62
7
  10
 217.500
  20
 65.4999
  30
0.0
  11
 224.500
  21
 65.4999
  31
0.0
   0
LINE
   8
LEVEL001
   6
CONTINUOUS
  62
7
  10
 196.945
  20
 83.3135
  30
0.0
  11
 203.500
  21
 83.5185
  31
0.0
   0
LINE
   8
LEVEL001
   6
CONTINUOUS
  62
7
  10
 203.500
  20
 83.5185
  30
0.0
  11
 203.500
  21
 82.5000
  31
0.0
   0
LINE
   8
LEVEL001
   6
CONTINUOUS
  62
7
  10
 203.500
  20
 82.5000
  30
0.0
  11
 217.500
  21
 82.5000
  31
0.0
   0
LINE
   8
LEVEL001
   6
CONTINUOUS
  62
7
  10
 217.500
  20
 82.5000
  30
0.0
  11
 217.500
  21
 84.5001
  31
0.0
   0
LINE
   8
LEVEL001
   6
CONTINUOUS
  62
7
  10
 217.500
  20
 84.5001
  30
0.0
  11
 224.500
  21
 84.5001
  31
0.0
   0
LINE
   8
LEVEL003
   6
CONTINUOUS
  62
3
  10
 87.5000
  20
 187.500
  30
0.0
  11
 75.0000
  21
 165.000
  31
0.0
   0
LINE
   8
LEVEL003
   6
CONTINUOUS
  62
3
  10
 87.5000
  20
 187.500
  30
0.0
  11
 84.6210
  21
 183.952
  31
0.0
   0
LINE
   8
LEVEL003
   6
CONTINUOUS
  62
3
  10
 87.5000
  20
 187.500
  30
0.0
  11
 86.0082
  21
 183.181
  31
0.0
   0
LINE
   8
LEVEL001
   6
CONTINUOUS
  62
7
  10
 93.2500
  20
 469.500
  30
0.0
  11
 176.750
  21
 469.500
  31
0.0
   0
LINE
   8
LEVEL001
   6
CONTINUOUS
  62
7
  10
 75.5000
  20
 467.500
  30
0.0
  11
 194.500
  21
 467.500
  31
0.0
   0
LINE
   8
LEVEL001
   6
CONTINUOUS
  62
7
  10
 73.5000
  20
 462.500
  30
0.0
  11
 196.500
  21
 462.500
  31
0.0
   0
LINE
   8
LEVEL001
   6
CONTINUOUS
  62
7
  10
 170.000
  20
 470.500
  30
0.0
  11
 170.000
  21
 469.500
  31
0.0
   0
LINE
   8
LEVEL001
   6
CONTINUOUS
  62
7
  10
 100.000
  20
 470.500
  30
0.0
  11
 100.000
  21
 469.500
  31
0.0
   0
LINE
   8
LEVEL001
   6
CONTINUOUS
  62
7
  10
 93.2500
  20
 469.500
  30
0.0
  11
 92.7500
  21
 467.500
  31
0.0
   0
LINE
   8
LEVEL001
   6
CONTINUOUS
  62
7
  10
 176.750
  20
 469.500
  30
0.0
  11
 177.250
  21
 467.500
  31
0.0
   0
LINE
   8
LEVEL001
   6
CONTINUOUS
  62
7
  10
 170.000
  20
 470.500
  30
0.0
  11
 100.000
  21
 470.500
  31
0.0
   0
LINE
   8
LEVEL001
   6
CONTINUOUS
  62
7
  10
 74.5000
  20
 466.500
  30
0.0
  11
 195.500
  21
 466.500
  31
0.0
   0
LINE
   8
LEVEL001
   6
CONTINUOUS
  62
3
  10
 73.5000
  20
 462.500
  30
0.0
  11
 73.5000
  21
 417.500
  31
0.0
   0
LINE
   8
LEVEL001
   6
CONTINUOUS
  62
3
  10
 196.500
  20
 462.500
  30
0.0
  11
 196.500
  21
 417.500
  31
0.0
   0
LINE
   8
LEVEL001
   6
CONTINUOUS
  62
7
  10
 72.5000
  20
 413.768
  30
0.0
  11
 197.500
  21
 413.768
  31
0.0
   0
LINE
   8
LEVEL001
   6
CONTINUOUS
  62
3
  10
 197.500
  20
 417.500
  30
0.0
  11
 72.5000
  21
 417.500
  31
0.0
   0
LINE
   8
LEVEL001
   6
CONTINUOUS
  62
3
  10
 197.500
  20
 461.500
  30
0.0
  11
 72.5000
  21
 461.500
  31
0.0
   0
LINE
   8
LEVEL001
   6
CONTINUOUS
  62
7
  10
 72.5000
  20
 189.500
  30
0.0
  11
 197.500
  21
 189.500
  31
0.0
   0
LINE
   8
LEVEL001
   6
CONTINUOUS
  62
7
  10
 197.500
  20
 189.500
  30
0.0
  11
 197.500
  21
 413.768
  31
0.0
   0
LINE
   8
LEVEL001
   6
CONTINUOUS
  62
7
  10
 207.500
  20
 207.856
  30
0.0
  11
 197.500
  21
 208.169
  31
0.0
   0
LINE
   8
LEVEL001
   6
CONTINUOUS
  62
7
  10
 207.500
  20
 225.144
  30
0.0
  11
 197.500
  21
 224.831
  31
0.0
   0
LINE
   8
LEVEL001
   6
CONTINUOUS
  62
3
  10
 203.884
  20
 224.175
  30
0.0
  11
 197.500
  21
 223.975
  31
0.0
   0
LINE
   8
LEVEL001
   6
CONTINUOUS
  62
3
  10
 203.884
  20
 208.826
  30
0.0
  11
 197.500
  21
 209.025
  31
0.0
   0
LINE
   8
LEVEL001
   6
DASHDOT
  62
1
  10
 267.500
  20
 216.500
  30
0.0
  11
 187.500
  21
 216.500
  31
0.0
   0
LINE
   8
LEVEL004
   6
DOT
  62
3
  10
 81.5000
  20
 187.500
  30
0.0
  11
 82.3750
  21
 188.375
  31
0.0
   0
LINE
   8
LEVEL004
   6
DOT
  62
3
  10
 82.3750
  20
 188.375
  30
0.0
  11
 82.3750
  21
 206.766
  31
0.0
   0
LINE
   8
LEVEL004
   6
DOT
  62
3
  10
 82.3750
  20
 206.766
  30
0.0
  11
 87.5000
  21
 209.724
  31
0.0
   0
LINE
   8
LEVEL004
   6
DOT
  62
3
  10
 87.5000
  20
 209.724
  30
0.0
  11
 92.6250
  21
 206.766
  31
0.0
   0
LINE
   8
LEVEL004
   6
DOT
  62
3
  10
 92.6250
  20
 206.766
  30
0.0
  11
 92.6250
  21
 188.375
  31
0.0
   0
LINE
   8
LEVEL004
   6
DOT
  62
3
  10
 92.6250
  20
 188.375
  30
0.0
  11
 93.5000
  21
 187.500
  31
0.0
   0
LINE
   8
LEVEL004
   6
DOT
  62
3
  10
 82.3750
  20
 188.375
  30
0.0
  11
 92.6250
  21
 188.375
  31
0.0
   0
LINE
   8
LEVEL004
   6
DOT
  62
3
  10
 82.3750
  20
 206.766
  30
0.0
  11
 92.6250
  21
 206.766
  31
0.0
   0
LINE
   8
LEVEL004
   6
DOT
  62
3
  10
 81.5000
  20
 187.500
  30
0.0
  11
 81.5000
  21
 203.500
  31
0.0
   0
LINE
   8
LEVEL004
   6
DOT
  62
3
  10
 81.5000
  20
 203.500
  30
0.0
  11
 82.3750
  21
 206.766
  31
0.0
   0
LINE
   8
LEVEL004
   6
DOT
  62
3
  10
 92.6250
  20
 206.766
  30
0.0
  11
 93.5000
  21
 203.500
  31
0.0
   0
LINE
   8
LEVEL004
   6
DOT
  62
3
  10
 93.5000
  20
 203.500
  30
0.0
  11
 93.5000
  21
 187.500
  31
0.0
   0
LINE
   8
LEVEL004
   6
DOT
  62
3
  10
 81.5000
  20
 203.500
  30
0.0
  11
 93.5000
  21
 203.500
  31
0.0
   0
LINE
   8
LEVEL004
   6
DOT
  62
3
  10
 87.5000
  20
 426.500
  30
0.0
  11
 87.5000
  21
 234.300
  31
0.0
   0
LINE
   8
LEVEL004
   6
DOT
  62
3
  10
 92.5000
  20
 274.500
  30
0.0
  11
 92.5000
  21
 466.500
  31
0.0
   0
LINE
   8
LEVEL004
   6
DOT
  62
3
  10
 182.500
  20
 426.500
  30
0.0
  11
 182.500
  21
 234.300
  31
0.0
   0
LINE
   8
LEVEL004
   6
DOT
  62
3
  10
 177.500
  20
 274.500
  30
0.0
  11
 177.500
  21
 466.500
  31
0.0
   0
ARC
   8
LEVEL004
   6
DOT
  62
3
  10
 125.000
  20
 472.500
  30
0.0
  40
 1.00001
  50
 180.000
  51
0.0
   0
ARC
   8
LEVEL004
   6
DOT
  62
3
  10
 115.000
  20
 472.500
  30
0.0
  40
 1.00001
  50
 180.000
  51
0.0
   0
ARC
   8
LEVEL004
   6
DOT
  62
3
  10
 145.000
  20
 472.500
  30
0.0
  40
 1.00001
  50
 180.000
  51
0.0
   0
LINE
   8
LEVEL004
   6
DOT
  62
3
  10
 166.500
  20
 470.600
  30
0.0
  11
 153.500
  21
 470.600
  31
0.0
   0
ARC
   8
LEVEL004
   6
DOT
  62
3
  10
 155.000
  20
 472.500
  30
0.0
  40
 1.00001
  50
 180.000
  51
0.0
   0
LINE
   8
LEVEL004
   6
DOT
  62
3
  10
 153.000
  20
 463.000
  30
0.0
  11
 153.500
  21
 463.000
  31
0.0
   0
LINE
   8
LEVEL004
   6
DOT
  62
3
  10
 155.500
  20
 463.000
  30
0.0
  11
 155.500
  21
 459.500
  31
0.0
   0
LINE
   8
LEVEL004
   6
DOT
  62
3
  10
 153.000
  20
 472.500
  30
0.0
  11
 153.000
  21
 463.000
  31
0.0
   0
LINE
   8
LEVEL004
   6
DOT
  62
3
  10
 167.000
  20
 472.500
  30
0.0
  11
 167.000
  21
 463.000
  31
0.0
   0
LINE
   8
LEVEL004
   6
DOT
  62
3
  10
 166.500
  20
 463.000
  30
0.0
  11
 167.000
  21
 463.000
  31
0.0
   0
LINE
   8
LEVEL004
   6
DOT
  62
3
  10
 164.500
  20
 463.000
  30
0.0
  11
 164.500
  21
 459.500
  31
0.0
   0
LINE
   8
LEVEL004
   6
DOT
  62
3
  10
 166.500
  20
 463.000
  30
0.0
  11
 153.500
  21
 463.000
  31
0.0
   0
LINE
   8
LEVEL004
   6
DOT
  62
3
  10
 153.500
  20
 463.000
  30
0.0
  11
 153.500
  21
 470.600
  31
0.0
   0
LINE
   8
LEVEL004
   6
DOT
  62
3
  10
 153.500
  20
 470.600
  30
0.0
  11
 154.193
  21
 471.000
  31
0.0
   0
LINE
   8
LEVEL004
   6
DOT
  62
3
  10
 154.193
  20
 471.000
  30
0.0
  11
 165.807
  21
 471.000
  31
0.0
   0
LINE
   8
LEVEL004
   6
DOT
  62
3
  10
 165.807
  20
 471.000
  30
0.0
  11
 166.500
  21
 470.600
  31
0.0
   0
LINE
   8
LEVEL004
   6
DOT
  62
3
  10
 166.500
  20
 470.600
  30
0.0
  11
 166.500
  21
 463.000
  31
0.0
   0
LINE
   8
LEVEL004
   6
DOT
  62
3
  10
 168.500
  20
 459.500
  30
0.0
  11
 170.000
  21
 461.000
  31
0.0
   0
ARC
   8
LEVEL004
   6
DOT
  62
3
  10
 169.000
  20
 460.500
  30
0.0
  40
 1.00000
  50
 270.001
  51
 0.174683E-2
   0
LINE
   8
LEVEL004
   6
DOT
  62
3
  10
 169.000
  20
 459.500
  30
0.0
  11
 163.375
  21
 459.500
  31
0.0
   0
LINE
   8
LEVEL004
   6
DOT
  62
3
  10
 101.500
  20
 459.500
  30
0.0
  11
 100.000
  21
 461.000
  31
0.0
   0
ARC
   8
LEVEL004
   6
DOT
  62
3
  10
 101.000
  20
 460.500
  30
0.0
  40
 1.00000
  50
 179.998
  51
 269.999
   0
LINE
   8
LEVEL004
   6
DOT
  62
3
  10
 156.625
  20
 459.500
  30
0.0
  11
 101.000
  21
 459.500
  31
0.0
   0
LINE
   8
LEVEL004
   6
DOT
  62
3
  10
 156.000
  20
 449.625
  30
0.0
  11
 156.000
  21
 447.500
  31
0.0
   0
LINE
   8
LEVEL004
   6
DOT
  62
3
  10
 156.000
  20
 447.500
  30
0.0
  11
 156.625
  21
 445.168
  31
0.0
   0
LINE
   8
LEVEL004
   6
DOT
  62
3
  10
 156.625
  20
 449.000
  30
0.0
  11
 156.625
  21
 463.000
  31
0.0
   0
LINE
   8
LEVEL004
   6
DOT
  62
3
  10
 164.000
  20
 449.625
  30
0.0
  11
 164.000
  21
 447.500
  31
0.0
   0
LINE
   8
LEVEL004
   6
DOT
  62
3
  10
 164.000
  20
 447.500
  30
0.0
  11
 163.375
  21
 445.168
  31
0.0
   0
LINE
   8
LEVEL004
   6
DOT
  62
3
  10
 163.375
  20
 449.000
  30
0.0
  11
 163.375
  21
 463.000
  31
0.0
   0
LINE
   8
LEVEL004
   6
DOT
  62
3
  10
 164.000
  20
 449.625
  30
0.0
  11
 156.000
  21
 449.625
  31
0.0
   0
LINE
   8
LEVEL004
   6
DOT
  62
3
  10
 163.375
  20
 449.000
  30
0.0
  11
 163.375
  21
 445.168
  31
0.0
   0
LINE
   8
LEVEL004
   6
DOT
  62
3
  10
 163.375
  20
 445.168
  30
0.0
  11
 160.000
  21
 443.219
  31
0.0
   0
LINE
   8
LEVEL004
   6
DOT
  62
3
  10
 160.000
  20
 443.219
  30
0.0
  11
 156.625
  21
 445.168
  31
0.0
   0
LINE
   8
LEVEL004
   6
DOT
  62
3
  10
 156.625
  20
 445.168
  30
0.0
  11
 156.625
  21
 449.000
  31
0.0
   0
LINE
   8
LEVEL004
   6
DOT
  62
3
  10
 163.375
  20
 445.168
  30
0.0
  11
 156.625
  21
 445.168
  31
0.0
   0
LINE
   8
LEVEL004
   6
DOT
  62
3
  10
 164.000
  20
 447.500
  30
0.0
  11
 156.000
  21
 447.500
  31
0.0
   0
LINE
   8
LEVEL004
   6
DOT
  62
3
  10
 164.000
  20
 463.000
  30
0.0
  11
 164.000
  21
 449.625
  31
0.0
   0
LINE
   8
LEVEL004
   6
DOT
  62
3
  10
 164.000
  20
 449.625
  30
0.0
  11
 163.375
  21
 449.000
  31
0.0
   0
LINE
   8
LEVEL004
   6
DOT
  62
3
  10
 163.375
  20
 449.000
  30
0.0
  11
 156.625
  21
 449.000
  31
0.0
   0
LINE
   8
LEVEL004
   6
DOT
  62
3
  10
 156.625
  20
 449.000
  30
0.0
  11
 156.000
  21
 449.625
  31
0.0
   0
LINE
   8
LEVEL004
   6
DOT
  62
3
  10
 156.000
  20
 449.625
  30
0.0
  11
 156.000
  21
 463.000
  31
0.0
   0
LINE
   8
LEVEL004
   6
DASHDOT
  62
1
  10
 87.5000
  20
 184.500
  30
0.0
  11
 87.5000
  21
 212.724
  31
0.0
   0
LINE
   8
LEVEL004
   6
DASHDOT
  62
1
  10
 182.500
  20
 184.500
  30
0.0
  11
 182.500
  21
 202.500
  31
0.0
   0
LINE
   8
LEVEL004
   6
DOT
  62
3
  10
 99.5000
  20
 469.500
  30
0.0
  11
 100.000
  21
 469.000
  31
0.0
   0
LINE
   8
LEVEL004
   6
DOT
  62
3
  10
 100.000
  20
 469.500
  30
0.0
  11
 100.000
  21
 460.500
  31
0.0
   0
LINE
   8
LEVEL004
   6
DOT
  62
3
  10
 170.500
  20
 469.500
  30
0.0
  11
 170.000
  21
 469.000
  31
0.0
   0
LINE
   8
LEVEL004
   6
DOT
  62
3
  10
 170.000
  20
 469.500
  30
0.0
  11
 170.000
  21
 460.500
  31
0.0
   0
LINE
   8
LEVEL004
   6
DASHDOT
  62
1
  10
 160.000
  20
 474.000
  30
0.0
  11
 160.000
  21
 440.219
  31
0.0
   0
TEXT
   8
LEVEL003
  62
7
  10
 276.691
  20
 20.2200
  30
0.0
  40
 10.0000
   1
ＯＳＡＫＡ ＪＡＣＫ
   7
STANDARD
   0
CIRCLE
   8
LEVEL003
   6
CONTINUOUS
  62
7
  10
 264.718
  20
 27.2707
  30
0.0
  40
 3.00000
   0
LINE
   8
LEVEL003
   6
CONTINUOUS
  62
7
  10
 270.606
  20
 30.2707
  30
0.0
  11
 266.797
  21
 23.6707
  31
0.0
   0
LINE
   8
LEVEL003
   6
CONTINUOUS
  62
7
  10
 266.797
  20
 23.6707
  30
0.0
  11
 259.176
  21
 23.6707
  31
0.0
   0
LINE
   8
LEVEL003
   6
CONTINUOUS
  62
7
  10
 258.309
  20
 22.1707
  30
0.0
  11
 271.930
  21
 22.1707
  31
0.0
   0
LINE
   8
LEVEL003
   6
CONTINUOUS
  62
7
  10
 271.930
  20
 22.1707
  30
0.0
  11
 276.606
  21
 30.2707
  31
0.0
   0
LINE
   8
LEVEL003
   6
CONTINUOUS
  62
7
  10
 276.606
  20
 30.2707
  30
0.0
  11
 270.606
  21
 30.2707
  31
0.0
   0
LINE
   8
LEVEL003
   6
CONTINUOUS
  62
7
  10
 259.176
  20
 23.6707
  30
0.0
  11
 258.309
  21
 22.1707
  31
0.0
   0
TEXT
   8
LEVEL003
  62
7
  10
 279.602
  20
 37.1134
  30
0.0
  40
 6.00000
   1
Model : Ｅ５０Ｓ１６
   7
STANDARD
   0
TEXT
   8
LEVEL003
  62
3
  10
 9.87500
  20
 165.000
  30
0.0
  40
 6.00000
   1
４－Ｍ１２×１６Ｌ
   7
STANDARD
   0
LINE
   8
LEVEL003
   6
CONTINUOUS
  62
3
  10
 75.0000
  20
 165.000
  30
0.0
  11
 9.90649
  21
 165.000
  31
0.0
   0
LINE
   8
LEVEL003
   6
CONTINUOUS
  62
3
  10
 217.500
  20
 172.500
  30
0.0
  11
 262.775
  21
 172.500
  31
0.0
   0
LINE
   8
LEVEL003
   6
CONTINUOUS
  62
3
  10
 210.000
  20
 427.500
  30
0.0
  11
 252.400
  21
 427.500
  31
0.0
   0
LINE
   8
LEVEL003
   6
CONTINUOUS
  62
3
  10
 195.500
  20
 467.500
  30
0.0
  11
 276.496
  21
 467.500
  31
0.0
   0
LINE
   8
LEVEL003
   6
CONTINUOUS
  62
3
  10
 201.500
  20
 417.500
  30
0.0
  11
 276.496
  21
 417.500
  31
0.0
   0
LINE
   8
LEVEL003
   6
CONTINUOUS
  62
3
  10
 274.496
  20
 467.500
  30
0.0
  11
 274.496
  21
 417.500
  31
0.0
   0
LINE
   8
LEVEL003
   6
CONTINUOUS
  62
3
  10
 274.496
  20
 467.500
  30
0.0
  11
 273.967
  21
 464.500
  31
0.0
   0
LINE
   8
LEVEL003
   6
CONTINUOUS
  62
3
  10
 274.496
  20
 467.500
  30
0.0
  11
 275.025
  21
 464.500
  31
0.0
   0
LINE
   8
LEVEL003
   6
CONTINUOUS
  62
3
  10
 274.496
  20
 417.500
  30
0.0
  11
 275.025
  21
 420.500
  31
0.0
   0
LINE
   8
LEVEL003
   6
CONTINUOUS
  62
3
  10
 274.496
  20
 417.500
  30
0.0
  11
 273.967
  21
 420.500
  31
0.0
   0
TEXT
   8
LEVEL003
  62
3
  10
 273.696
  20
 438.500
  30
0.0
  40
 4.00000
   1
50
  50
 90.0000
   7
STANDARD
  72
1
  11
 273.696
  21
 442.500
  31
0.0
   0
LINE
   8
LEVEL003
   6
CONTINUOUS
  62
3
  10
 195.500
  20
 467.500
  30
0.0
  11
 254.882
  21
 467.500
  31
0.0
   0
LINE
   8
LEVEL003
   6
CONTINUOUS
  62
3
  10
 201.500
  20
 462.500
  30
0.0
  11
 254.882
  21
 462.500
  31
0.0
   0
LINE
   8
LEVEL003
   6
CONTINUOUS
  62
3
  10
 252.882
  20
 467.500
  30
0.0
  11
 252.882
  21
 462.500
  31
0.0
   0
LINE
   8
LEVEL003
   6
CONTINUOUS
  62
3
  10
 252.882
  20
 462.500
  30
0.0
  11
 252.882
  21
 454.167
  31
0.0
   0
LINE
   8
LEVEL003
   6
CONTINUOUS
  62
3
  10
 252.882
  20
 467.500
  30
0.0
  11
 253.411
  21
 470.500
  31
0.0
   0
LINE
   8
LEVEL003
   6
CONTINUOUS
  62
3
  10
 252.882
  20
 467.500
  30
0.0
  11
 252.353
  21
 470.500
  31
0.0
   0
LINE
   8
LEVEL003
   6
CONTINUOUS
  62
3
  10
 252.882
  20
 462.500
  30
0.0
  11
 252.353
  21
 459.500
  31
0.0
   0
LINE
   8
LEVEL003
   6
CONTINUOUS
  62
3
  10
 252.882
  20
 462.500
  30
0.0
  11
 253.411
  21
 459.500
  31
0.0
   0
LINE
   8
LEVEL003
   6
CONTINUOUS
  62
3
  10
 252.882
  20
 467.500
  30
0.0
  11
 252.882
  21
 471.250
  31
0.0
   0
LINE
   8
LEVEL003
   6
CONTINUOUS
  62
3
  10
 252.882
  20
 462.500
  30
0.0
  11
 252.882
  21
 454.167
  31
0.0
   0
TEXT
   8
LEVEL003
  62
3
  10
 252.082
  20
 454.167
  30
0.0
  40
 4.00000
   1
5
  50
 90.0000
   7
STANDARD
  72
1
  11
 252.082
  21
 456.167
  31
0.0
   0
LINE
   8
LEVEL003
   6
CONTINUOUS
  62
3
  10
 169.000
  20
 472.500
  30
0.0
  11
 254.882
  21
 472.500
  31
0.0
   0
LINE
   8
LEVEL003
   6
CONTINUOUS
  62
3
  10
 195.500
  20
 467.500
  30
0.0
  11
 254.882
  21
 467.500
  31
0.0
   0
LINE
   8
LEVEL003
   6
CONTINUOUS
  62
3
  10
 252.882
  20
 472.500
  30
0.0
  11
 252.882
  21
 467.500
  31
0.0
   0
LINE
   8
LEVEL003
   6
CONTINUOUS
  62
3
  10
 252.882
  20
 472.500
  30
0.0
  11
 252.882
  21
 481.500
  31
0.0
   0
LINE
   8
LEVEL003
   6
CONTINUOUS
  62
3
  10
 252.882
  20
 472.500
  30
0.0
  11
 253.411
  21
 475.500
  31
0.0
   0
LINE
   8
LEVEL003
   6
CONTINUOUS
  62
3
  10
 252.882
  20
 472.500
  30
0.0
  11
 252.353
  21
 475.500
  31
0.0
   0
LINE
   8
LEVEL003
   6
CONTINUOUS
  62
3
  10
 252.882
  20
 467.500
  30
0.0
  11
 252.353
  21
 464.500
  31
0.0
   0
LINE
   8
LEVEL003
   6
CONTINUOUS
  62
3
  10
 252.882
  20
 467.500
  30
0.0
  11
 253.411
  21
 464.500
  31
0.0
   0
LINE
   8
LEVEL003
   6
CONTINUOUS
  62
3
  10
 252.882
  20
 472.500
  30
0.0
  11
 252.882
  21
 481.500
  31
0.0
   0
LINE
   8
LEVEL003
   6
CONTINUOUS
  62
3
  10
 252.882
  20
 467.500
  30
0.0
  11
 252.882
  21
 463.750
  31
0.0
   0
TEXT
   8
LEVEL003
  62
3
  10
 252.082
  20
 477.500
  30
0.0
  40
 4.00000
   1
5
  50
 90.0000
   7
STANDARD
  72
1
  11
 252.082
  21
 479.500
  31
0.0
   0
ENDSEC
   0
EOF
