   0
SECTION
   2
HEADER
   9
$LIMMIN
  10
0.0
  20
0.0
   9
$LIMMAX
  10
 630.000
  20
 730.000
   9
$EXTMIN
  10
0.0
  20
0.0
   9
$EXTMAX
  10
 630.000
  20
 730.000
   9
$LTSCALE
  40
 14.6000
   0
ENDSEC
   0
SECTION
   2
TABLES
  0
TABLE
  2
LTYPE
 70
    25
  0
LTYPE
  2
CONTINUOUS
 70
    64
  3
Solid line
 72
    65
 73
     0
 40
0.0
  0
LTYPE
  2
BORDER
 70
    64
  3
__ __ . __ __ . __ __ . __ __ . __ __ . __ __ .
 72
    65
 73
     6
 40
1.75
 49
0.5
 49
-0.25
 49
0.5
 49
-0.25
 49
0.0
 49
-0.25
  0
LTYPE
  2
BORDER2
 70
    64
  3
__.__.__.__.__.__.__.__.__.__.__.__.__.__.__.__
 72
    65
 73
     6
 40
0.875
 49
0.25
 49
-0.125
 49
0.25
 49
-0.125
 49
0.0
 49
-0.125
  0
LTYPE
  2
BORDERX2
 70
    64
  3
____  ____  .  ____  ____  .  ____  ____  .  __
 72
    65
 73
     6
 40
3.5
 49
1.0
 49
-0.5
 49
1.0
 49
-0.5
 49
0.0
 49
-0.5
  0
LTYPE
  2
CENTER
 70
    64
  3
____ _ ____ _ ____ _ ____ _ ____ _ ____ _ ____ 
 72
    65
 73
     4
 40
2.0
 49
1.25
 49
-0.25
 49
0.25
 49
-0.25
  0
LTYPE
  2
CENTER2
 70
    64
  3
___ _ ___ _ ___ _ ___ _ ___ _ ___ _ ___ _ ___ _
 72
    65
 73
     4
 40
1.125
 49
0.75
 49
-0.125
 49
0.125
 49
-0.125
  0
LTYPE
  2
CENTERX2
 70
    64
  3
________  __  ________  __  ________  __  _____
 72
    65
 73
     4
 40
4.0
 49
2.5
 49
-0.5
 49
0.5
 49
-0.5
  0
LTYPE
  2
DASHDOT
 70
    64
  3
__ . __ . __ . __ . __ . __ . __ . __ . __ . __
 72
    65
 73
     4
 40
1.0
 49
0.5
 49
-0.25
 49
0.0
 49
-0.25
  0
LTYPE
  2
DASHDOT2
 70
    64
  3
_._._._._._._._._._._._._._._._._._._._._._._._
 72
    65
 73
     4
 40
0.5
 49
0.25
 49
-0.125
 49
0.0
 49
-0.125
  0
LTYPE
  2
DASHDOTX2
 70
    64
  3
____  .  ____  .  ____  .  ____  .  ____  .  __
 72
    65
 73
     4
 40
2.0
 49
1.0
 49
-0.5
 49
0.0
 49
-0.5
  0
LTYPE
  2
DASHED
 70
    64
  3
__ __ __ __ __ __ __ __ __ __ __ __ __ __ __ __
 72
    65
 73
     2
 40
0.75
 49
0.5
 49
-0.25
  0
LTYPE
  2
DASHED2
 70
    64
  3
_ _ _ _ _ _ _ _ _ _ _ _ _ _ _ _ _ _ _ _ _ _ _ _
 72
    65
 73
     2
 40
0.375
 49
0.25
 49
-0.125
  0
LTYPE
  2
DASHEDX2
 70
    64
  3
____  ____  ____  ____  ____  ____  ____  ____ 
 72
    65
 73
     2
 40
1.5
 49
1.0
 49
-0.5
  0
LTYPE
  2
DIVIDE
 70
    64
  3
____ . . ____ . . ____ . . ____ . . ____ . . __
 72
    65
 73
     6
 40
1.25
 49
0.5
 49
-0.25
 49
0.0
 49
-0.25
 49
0.0
 49
-0.25
  0
LTYPE
  2
DIVIDE2
 70
    64
  3
__..__..__..__..__..__..__..__..__..__..__..__.
 72
    65
 73
     6
 40
0.625
 49
0.25
 49
-0.125
 49
0.0
 49
-0.125
 49
0.0
 49
-0.125
  0
LTYPE
  2
DIVIDEX2
 70
    64
  3
________  .  .  ________  .  .  ________  .  . 
 72
    65
 73
     6
 40
2.5
 49
1.0
 49
-0.5
 49
0.0
 49
-0.5
 49
0.0
 49
-0.5
  0
LTYPE
  2
DOT
 70
    64
  3
. . . . . . . . . . . . . . . . . . . . . . . .
 72
    65
 73
     2
 40
0.25
 49
0.0
 49
-0.25
  0
LTYPE
  2
DOT2
 70
    64
  3
...............................................
 72
    65
 73
     2
 40
0.125
 49
0.0
 49
-0.125
  0
LTYPE
  2
DOTX2
 70
    64
  3
.  .  .  .  .  .  .  .  .  .  .  .  .  .  .  . 
 72
    65
 73
     2
 40
0.5
 49
0.0
 49
-0.5
  0
LTYPE
  2
HIDDEN
 70
    64
  3
__ __ __ __ __ __ __ __ __ __ __ __ __ __ __ __
 72
    65
 73
     2
 40
0.375
 49
0.25
 49
-0.125
  0
LTYPE
  2
HIDDEN2
 70
    64
  3
_ _ _ _ _ _ _ _ _ _ _ _ _ _ _ _ _ _ _ _ _ _ _ _
 72
    65
 73
     2
 40
0.1875
 49
0.125
 49
-0.0625
  0
LTYPE
  2
HIDDENX2
 70
    64
  3
____ ____ ____ ____ ____ ____ ____ ____ ____ __
 72
    65
 73
     2
 40
0.75
 49
0.5
 49
-0.25
  0
LTYPE
  2
PHANTOM
 70
    64
  3
______  __  __  ______  __  __  ______  __  __ 
 72
    65
 73
     6
 40
2.5
 49
1.25
 49
-0.25
 49
0.25
 49
-0.25
 49
0.25
 49
-0.25
  0
LTYPE
  2
PHANTOM2
 70
    64
  3
___ _ _ ___ _ _ ___ _ _ ___ _ _ ___ _ _ ___ _ _
 72
    65
 73
     6
 40
1.25
 49
0.625
 49
-0.125
 49
0.125
 49
-0.125
 49
0.125
 49
-0.125
  0
LTYPE
  2
PHANTOMX2
 70
    64
  3
____________    ____    ____    ____________   
 72
    65
 73
     6
 40
5.0
 49
2.5
 49
-0.5
 49
0.5
 49
-0.5
 49
0.5
 49
-0.5
  0
ENDTAB
  0
TABLE
  2
STYLE
 70
     2
  0
STYLE
  2
STANDARD
 70
0
 40
0.0
 41
1.0
 50
0.0
 71
0
 42
0.2
  3
TXT
  4
BIGFONT
  0
STYLE
  2
STANDARD1
 70
     4
 40
0.0
 41
1.0
 50
0.0
 71
     0
 42
0.2
  3
TXT
  4
BIGFONT
  0
ENDTAB
   0
TABLE
   2
LAYER
  70
4
   0
LAYER
   2
0
  70
0
  62
7
   6
CONTINUOUS
   0
LAYER
   2
LEVEL001
  70
0
  62
7
   6
CONTINUOUS
   0
LAYER
   2
LEVEL003
  70
0
  62
7
   6
CONTINUOUS
   0
LAYER
   2
LEVEL004
  70
0
  62
7
   6
CONTINUOUS
   0
ENDTAB
   0
ENDSEC
   0
SECTION
   2
ENTITIES
   0
LINE
   8
LEVEL001
   6
CONTINUOUS
  62
3
  10
 222.500
  20
 270.144
  30
0.0
  11
 218.884
  21
 269.175
  31
0.0
   0
LINE
   8
LEVEL001
   6
CONTINUOUS
  62
3
  10
 222.500
  20
 252.856
  30
0.0
  11
 218.884
  21
 253.826
  31
0.0
   0
TEXT
   8
LEVEL003
  62
3
  10
 232.500
  20
 217.500
  30
0.0
  40
 6.00000
   1
ＮＰＴ３／８
   7
STANDARD
   0
LINE
   8
LEVEL003
   6
CONTINUOUS
  62
3
  10
 215.806
  20
 253.066
  30
0.0
  11
 232.500
  21
 217.500
  31
0.0
   0
LINE
   8
LEVEL003
   6
CONTINUOUS
  62
3
  10
 215.806
  20
 253.066
  30
0.0
  11
 217.000
  21
 248.655
  31
0.0
   0
LINE
   8
LEVEL003
   6
CONTINUOUS
  62
3
  10
 215.806
  20
 253.066
  30
0.0
  11
 218.436
  21
 249.329
  31
0.0
   0
LINE
   8
LEVEL003
   6
CONTINUOUS
  62
3
  10
 102.500
  20
 228.000
  30
0.0
  11
 102.500
  21
 207.000
  31
0.0
   0
LINE
   8
LEVEL003
   6
CONTINUOUS
  62
3
  10
 197.500
  20
 228.000
  30
0.0
  11
 197.500
  21
 207.000
  31
0.0
   0
LINE
   8
LEVEL003
   6
CONTINUOUS
  62
3
  10
 102.500
  20
 210.000
  30
0.0
  11
 197.500
  21
 210.000
  31
0.0
   0
LINE
   8
LEVEL003
   6
CONTINUOUS
  62
3
  10
 102.500
  20
 210.000
  30
0.0
  11
 107.000
  21
 209.207
  31
0.0
   0
LINE
   8
LEVEL003
   6
CONTINUOUS
  62
3
  10
 102.500
  20
 210.000
  30
0.0
  11
 107.000
  21
 210.793
  31
0.0
   0
LINE
   8
LEVEL003
   6
CONTINUOUS
  62
3
  10
 197.500
  20
 210.000
  30
0.0
  11
 193.000
  21
 210.793
  31
0.0
   0
LINE
   8
LEVEL003
   6
CONTINUOUS
  62
3
  10
 197.500
  20
 210.000
  30
0.0
  11
 193.000
  21
 209.207
  31
0.0
   0
TEXT
   8
LEVEL003
  62
3
  10
 144.000
  20
 211.200
  30
0.0
  40
 6.00000
   1
%%c95
   7
STANDARD
  72
1
  11
 150.000
  21
 211.200
  31
0.0
   0
LINE
   8
LEVEL001
   6
CONTINUOUS
  62
7
  10
 218.500
  20
 257.461
  30
0.0
  11
 218.500
  21
 265.539
  31
0.0
   0
LINE
   8
LEVEL001
   6
CONTINUOUS
  62
7
  10
 218.500
  20
 265.539
  30
0.0
  11
 222.500
  21
 265.797
  31
0.0
   0
LINE
   8
LEVEL001
   6
CONTINUOUS
  62
7
  10
 222.500
  20
 265.797
  30
0.0
  11
 223.984
  21
 267.331
  31
0.0
   0
LINE
   8
LEVEL001
   6
CONTINUOUS
  62
7
  10
 223.984
  20
 267.331
  30
0.0
  11
 232.500
  21
 267.331
  31
0.0
   0
LINE
   8
LEVEL001
   6
CONTINUOUS
  62
7
  10
 232.500
  20
 267.331
  30
0.0
  11
 232.500
  21
 255.669
  31
0.0
   0
LINE
   8
LEVEL001
   6
CONTINUOUS
  62
7
  10
 232.500
  20
 255.669
  30
0.0
  11
 223.984
  21
 255.669
  31
0.0
   0
LINE
   8
LEVEL001
   6
CONTINUOUS
  62
7
  10
 223.984
  20
 255.669
  30
0.0
  11
 222.500
  21
 257.203
  31
0.0
   0
LINE
   8
LEVEL001
   6
CONTINUOUS
  62
7
  10
 222.500
  20
 257.203
  30
0.0
  11
 218.500
  21
 257.461
  31
0.0
   0
LINE
   8
LEVEL001
   6
CONTINUOUS
  62
7
  10
 218.500
  20
 265.539
  30
0.0
  11
 232.500
  21
 255.669
  31
0.0
   0
LINE
   8
LEVEL001
   6
CONTINUOUS
  62
7
  10
 218.500
  20
 257.461
  30
0.0
  11
 232.500
  21
 267.331
  31
0.0
   0
LINE
   8
LEVEL001
   6
CONTINUOUS
  62
7
  10
 222.500
  20
 270.144
  30
0.0
  11
 222.500
  21
 265.797
  31
0.0
   0
LINE
   8
LEVEL001
   6
CONTINUOUS
  62
7
  10
 223.984
  20
 267.331
  30
0.0
  11
 223.984
  21
 271.000
  31
0.0
   0
LINE
   8
LEVEL001
   6
CONTINUOUS
  62
7
  10
 222.500
  20
 270.144
  30
0.0
  11
 223.984
  21
 271.000
  31
0.0
   0
LINE
   8
LEVEL001
   6
CONTINUOUS
  62
7
  10
 222.500
  20
 252.856
  30
0.0
  11
 223.984
  21
 252.000
  31
0.0
   0
LINE
   8
LEVEL001
   6
CONTINUOUS
  62
7
  10
 222.500
  20
 257.203
  30
0.0
  11
 222.500
  21
 252.856
  31
0.0
   0
LINE
   8
LEVEL001
   6
CONTINUOUS
  62
7
  10
 223.984
  20
 252.000
  30
0.0
  11
 223.984
  21
 255.669
  31
0.0
   0
LINE
   8
LEVEL001
   6
CONTINUOUS
  62
7
  10
 239.500
  20
 252.000
  30
0.0
  11
 223.984
  21
 252.000
  31
0.0
   0
LINE
   8
LEVEL001
   6
CONTINUOUS
  62
7
  10
 239.500
  20
 271.000
  30
0.0
  11
 223.984
  21
 271.000
  31
0.0
   0
ARC
   8
LEVEL001
   6
CONTINUOUS
  62
7
  10
 241.000
  20
 274.500
  30
0.0
  40
 1.50000
  50
 90.0000
  51
 180.000
   0
LINE
   8
LEVEL001
   6
CONTINUOUS
  62
7
  10
 241.000
  20
 276.000
  30
0.0
  11
 246.000
  21
 276.000
  31
0.0
   0
ARC
   8
LEVEL001
   6
CONTINUOUS
  62
7
  10
 241.000
  20
 248.500
  30
0.0
  40
 1.50000
  50
 180.000
  51
 270.000
   0
LINE
   8
LEVEL001
   6
CONTINUOUS
  62
7
  10
 239.500
  20
 248.500
  30
0.0
  11
 239.500
  21
 274.500
  31
0.0
   0
LINE
   8
LEVEL001
   6
CONTINUOUS
  62
7
  10
 241.000
  20
 247.000
  30
0.0
  11
 246.000
  21
 247.000
  31
0.0
   0
ARC
   8
LEVEL001
   6
CONTINUOUS
  62
7
  10
 262.000
  20
 274.500
  30
0.0
  40
 1.50000
  50
0.0
  51
 90.0000
   0
LINE
   8
LEVEL001
   6
CONTINUOUS
  62
7
  10
 257.000
  20
 276.000
  30
0.0
  11
 262.000
  21
 276.000
  31
0.0
   0
ARC
   8
LEVEL001
   6
CONTINUOUS
  62
7
  10
 262.000
  20
 248.500
  30
0.0
  40
 1.50000
  50
 270.000
  51
0.0
   0
LINE
   8
LEVEL001
   6
CONTINUOUS
  62
7
  10
 257.000
  20
 247.000
  30
0.0
  11
 262.000
  21
 247.000
  31
0.0
   0
LINE
   8
LEVEL001
   6
CONTINUOUS
  62
7
  10
 263.500
  20
 274.500
  30
0.0
  11
 263.500
  21
 248.500
  31
0.0
   0
LINE
   8
LEVEL001
   6
CONTINUOUS
  62
7
  10
 246.000
  20
 246.500
  30
0.0
  11
 246.000
  21
 276.500
  31
0.0
   0
LINE
   8
LEVEL001
   6
CONTINUOUS
  62
7
  10
 246.000
  20
 276.500
  30
0.0
  11
 257.000
  21
 276.500
  31
0.0
   0
LINE
   8
LEVEL001
   6
CONTINUOUS
  62
7
  10
 257.000
  20
 276.500
  30
0.0
  11
 257.000
  21
 246.500
  31
0.0
   0
LINE
   8
LEVEL001
   6
CONTINUOUS
  62
7
  10
 257.000
  20
 246.500
  30
0.0
  11
 246.000
  21
 246.500
  31
0.0
   0
ARC
   8
LEVEL001
   6
DASHDOT
  62
1
  10
 272.500
  20
 274.500
  30
0.0
  40
 1.00000
  50
 0.875970E-3
  51
 90.0004
   0
LINE
   8
LEVEL001
   6
DASHDOT
  62
1
  10
 264.500
  20
 275.500
  30
0.0
  11
 272.500
  21
 275.500
  31
0.0
   0
LINE
   8
LEVEL001
   6
DASHDOT
  62
1
  10
 273.500
  20
 274.500
  30
0.0
  11
 273.500
  21
 248.500
  31
0.0
   0
CIRCLE
   8
LEVEL001
   6
DASHDOT
  62
1
  10
 276.500
  20
 261.500
  30
0.0
  40
 1.50000
   0
ARC
   8
LEVEL001
   6
DASHDOT
  62
1
  10
 275.500
  20
 267.000
  30
0.0
  40
 2.00000
  50
 180.000
  51
 270.000
   0
LINE
   8
LEVEL001
   6
DASHDOT
  62
1
  10
 275.500
  20
 265.000
  30
0.0
  11
 276.000
  21
 265.000
  31
0.0
   0
ARC
   8
LEVEL001
   6
DASHDOT
  62
1
  10
 275.994
  20
 261.500
  30
0.0
  40
 3.50000
  50
 270.097
  51
 89.9031
   0
ARC
   8
LEVEL001
   6
DASHDOT
  62
1
  10
 264.500
  20
 274.500
  30
0.0
  40
 1.00000
  50
 89.9996
  51
 179.999
   0
ARC
   8
LEVEL001
   6
DASHDOT
  62
1
  10
 275.500
  20
 256.000
  30
0.0
  40
 2.00000
  50
 90.0002
  51
 180.000
   0
LINE
   8
LEVEL001
   6
DASHDOT
  62
1
  10
 275.500
  20
 258.000
  30
0.0
  11
 276.000
  21
 258.000
  31
0.0
   0
ARC
   8
LEVEL001
   6
DASHDOT
  62
1
  10
 272.500
  20
 248.500
  30
0.0
  40
 1.00000
  50
 270.000
  51
0.0
   0
LINE
   8
LEVEL001
   6
DASHDOT
  62
1
  10
 264.500
  20
 247.500
  30
0.0
  11
 272.500
  21
 247.500
  31
0.0
   0
ARC
   8
LEVEL001
   6
DASHDOT
  62
1
  10
 264.500
  20
 248.500
  30
0.0
  40
 1.00000
  50
 180.000
  51
 270.000
   0
LINE
   8
LEVEL001
   6
CONTINUOUS
  62
3
  10
 246.000
  20
 248.500
  30
0.0
  11
 257.000
  21
 248.500
  31
0.0
   0
LINE
   8
LEVEL001
   6
CONTINUOUS
  62
3
  10
 246.000
  20
 250.500
  30
0.0
  11
 257.000
  21
 250.500
  31
0.0
   0
LINE
   8
LEVEL001
   6
CONTINUOUS
  62
3
  10
 246.000
  20
 252.500
  30
0.0
  11
 257.000
  21
 252.500
  31
0.0
   0
LINE
   8
LEVEL001
   6
CONTINUOUS
  62
3
  10
 246.000
  20
 254.500
  30
0.0
  11
 257.000
  21
 254.500
  31
0.0
   0
LINE
   8
LEVEL001
   6
CONTINUOUS
  62
3
  10
 246.000
  20
 256.500
  30
0.0
  11
 257.000
  21
 256.500
  31
0.0
   0
LINE
   8
LEVEL001
   6
CONTINUOUS
  62
3
  10
 246.000
  20
 258.500
  30
0.0
  11
 257.000
  21
 258.500
  31
0.0
   0
LINE
   8
LEVEL001
   6
CONTINUOUS
  62
3
  10
 246.000
  20
 260.500
  30
0.0
  11
 257.000
  21
 260.500
  31
0.0
   0
LINE
   8
LEVEL001
   6
CONTINUOUS
  62
3
  10
 246.000
  20
 262.500
  30
0.0
  11
 257.000
  21
 262.500
  31
0.0
   0
LINE
   8
LEVEL001
   6
CONTINUOUS
  62
3
  10
 246.000
  20
 264.500
  30
0.0
  11
 257.000
  21
 264.500
  31
0.0
   0
LINE
   8
LEVEL001
   6
CONTINUOUS
  62
3
  10
 246.000
  20
 266.500
  30
0.0
  11
 257.000
  21
 266.500
  31
0.0
   0
LINE
   8
LEVEL001
   6
CONTINUOUS
  62
3
  10
 246.000
  20
 268.500
  30
0.0
  11
 257.000
  21
 268.500
  31
0.0
   0
LINE
   8
LEVEL001
   6
CONTINUOUS
  62
3
  10
 246.000
  20
 270.500
  30
0.0
  11
 257.000
  21
 270.500
  31
0.0
   0
LINE
   8
LEVEL001
   6
CONTINUOUS
  62
3
  10
 246.000
  20
 272.500
  30
0.0
  11
 257.000
  21
 272.500
  31
0.0
   0
LINE
   8
LEVEL001
   6
CONTINUOUS
  62
3
  10
 246.000
  20
 274.500
  30
0.0
  11
 257.000
  21
 274.500
  31
0.0
   0
LINE
   8
LEVEL001
   6
CONTINUOUS
  62
3
  10
 218.884
  20
 269.174
  30
0.0
  11
 218.884
  21
 265.539
  31
0.0
   0
LINE
   8
LEVEL001
   6
CONTINUOUS
  62
3
  10
 218.884
  20
 257.461
  30
0.0
  11
 218.884
  21
 253.825
  31
0.0
   0
LINE
   8
LEVEL001
   6
CONTINUOUS
  62
7
  10
 89.5000
  20
 232.500
  30
0.0
  11
 210.500
  21
 232.500
  31
0.0
   0
LINE
   8
LEVEL001
   6
CONTINUOUS
  62
7
  10
 87.5000
  20
 234.500
  30
0.0
  11
 89.5000
  21
 232.500
  31
0.0
   0
LINE
   8
LEVEL001
   6
CONTINUOUS
  62
7
  10
 212.500
  20
 234.500
  30
0.0
  11
 210.500
  21
 232.500
  31
0.0
   0
LINE
   8
LEVEL003
   6
CONTINUOUS
  62
3
  10
 212.000
  20
 232.500
  30
0.0
  11
 303.000
  21
 232.500
  31
0.0
   0
LINE
   8
LEVEL003
   6
CONTINUOUS
  62
3
  10
 286.500
  20
 261.500
  30
0.0
  11
 303.000
  21
 261.500
  31
0.0
   0
LINE
   8
LEVEL003
   6
CONTINUOUS
  62
3
  10
 300.000
  20
 232.500
  30
0.0
  11
 300.000
  21
 261.500
  31
0.0
   0
LINE
   8
LEVEL003
   6
CONTINUOUS
  62
3
  10
 300.000
  20
 232.500
  30
0.0
  11
 300.793
  21
 237.000
  31
0.0
   0
LINE
   8
LEVEL003
   6
CONTINUOUS
  62
3
  10
 300.000
  20
 232.500
  30
0.0
  11
 299.207
  21
 237.000
  31
0.0
   0
LINE
   8
LEVEL003
   6
CONTINUOUS
  62
3
  10
 300.000
  20
 261.500
  30
0.0
  11
 299.207
  21
 257.000
  31
0.0
   0
LINE
   8
LEVEL003
   6
CONTINUOUS
  62
3
  10
 300.000
  20
 261.500
  30
0.0
  11
 300.793
  21
 257.000
  31
0.0
   0
TEXT
   8
LEVEL003
  62
3
  10
 298.800
  20
 244.000
  30
0.0
  40
 6.00000
   1
29
  50
 90.0000
  41
 0.500000
   7
STANDARD
  72
1
  11
 298.800
  21
 247.000
  31
0.0
   0
CIRCLE
   8
LEVEL001
   6
CONTINUOUS
  62
7
  10
 150.000
  20
 105.000
  30
0.0
  40
 62.5000
   0
CIRCLE
   8
LEVEL001
   6
CONTINUOUS
  62
7
  10
 150.000
  20
 105.000
  30
0.0
  40
 60.5000
   0
CIRCLE
   8
LEVEL001
   6
DASHDOT
  62
1
  10
 150.000
  20
 105.000
  30
0.0
  40
 47.5000
   0
CIRCLE
   8
LEVEL001
   6
CONTINUOUS
  62
7
  10
 183.588
  20
 138.588
  30
0.0
  40
 5.12500
   0
CIRCLE
   8
LEVEL001
   6
CONTINUOUS
  62
3
  10
 183.588
  20
 138.588
  30
0.0
  40
 6.00000
   0
LINE
   8
LEVEL001
   6
DASHDOT
  62
1
  10
 189.952
  20
 144.952
  30
0.0
  11
 177.224
  21
 132.224
  31
0.0
   0
CIRCLE
   8
LEVEL001
   6
CONTINUOUS
  62
7
  10
 183.588
  20
 71.4124
  30
0.0
  40
 5.12500
   0
CIRCLE
   8
LEVEL001
   6
CONTINUOUS
  62
3
  10
 183.588
  20
 71.4124
  30
0.0
  40
 6.00000
   0
LINE
   8
LEVEL001
   6
DASHDOT
  62
1
  10
 189.952
  20
 65.0484
  30
0.0
  11
 177.224
  21
 77.7764
  31
0.0
   0
LINE
   8
LEVEL001
   6
CONTINUOUS
  62
3
  10
 218.884
  20
 112.500
  30
0.0
  11
 218.883
  21
 97.5000
  31
0.0
   0
LINE
   8
LEVEL001
   6
CONTINUOUS
  62
7
  10
 222.500
  20
 112.500
  30
0.0
  11
 222.500
  21
 97.5000
  31
0.0
   0
LINE
   8
LEVEL001
   6
CONTINUOUS
  62
7
  10
 223.983
  20
 97.5000
  30
0.0
  11
 223.983
  21
 112.500
  31
0.0
   0
LINE
   8
LEVEL001
   6
CONTINUOUS
  62
3
  10
 218.500
  20
 112.663
  30
0.0
  11
 212.500
  21
 112.475
  31
0.0
   0
LINE
   8
LEVEL001
   6
CONTINUOUS
  62
3
  10
 218.495
  20
 97.3377
  30
0.0
  11
 212.500
  21
 97.5250
  31
0.0
   0
CIRCLE
   8
LEVEL001
   6
CONTINUOUS
  62
3
  10
 150.000
  20
 105.000
  30
0.0
  40
 7.47500
   0
LINE
   8
LEVEL001
   6
CONTINUOUS
  62
7
  10
 150.000
  20
 100.381
  30
0.0
  11
 146.000
  21
 102.691
  31
0.0
   0
LINE
   8
LEVEL001
   6
CONTINUOUS
  62
7
  10
 146.000
  20
 102.691
  30
0.0
  11
 146.000
  21
 107.309
  31
0.0
   0
LINE
   8
LEVEL001
   6
CONTINUOUS
  62
7
  10
 146.000
  20
 107.309
  30
0.0
  11
 150.000
  21
 109.619
  31
0.0
   0
LINE
   8
LEVEL001
   6
CONTINUOUS
  62
7
  10
 150.000
  20
 109.619
  30
0.0
  11
 154.000
  21
 107.309
  31
0.0
   0
LINE
   8
LEVEL001
   6
CONTINUOUS
  62
7
  10
 154.000
  20
 107.309
  30
0.0
  11
 154.000
  21
 102.691
  31
0.0
   0
LINE
   8
LEVEL001
   6
CONTINUOUS
  62
7
  10
 154.000
  20
 102.691
  30
0.0
  11
 150.000
  21
 100.381
  31
0.0
   0
CIRCLE
   8
LEVEL001
   6
CONTINUOUS
  62
7
  10
 150.000
  20
 105.000
  30
0.0
  40
 8.33100
   0
CIRCLE
   8
LEVEL001
   6
CONTINUOUS
  62
7
  10
 150.000
  20
 105.000
  30
0.0
  40
 9.83102
   0
CIRCLE
   8
LEVEL001
   6
CONTINUOUS
  62
7
  10
 116.412
  20
 138.588
  30
0.0
  40
 5.12500
   0
CIRCLE
   8
LEVEL001
   6
CONTINUOUS
  62
3
  10
 116.412
  20
 138.588
  30
0.0
  40
 6.00000
   0
LINE
   8
LEVEL001
   6
DASHDOT
  62
1
  10
 110.048
  20
 144.952
  30
0.0
  11
 122.776
  21
 132.224
  31
0.0
   0
CIRCLE
   8
LEVEL001
   6
CONTINUOUS
  62
7
  10
 116.412
  20
 71.4124
  30
0.0
  40
 5.12500
   0
CIRCLE
   8
LEVEL001
   6
CONTINUOUS
  62
3
  10
 116.412
  20
 71.4124
  30
0.0
  40
 6.00000
   0
LINE
   8
LEVEL001
   6
DASHDOT
  62
1
  10
 110.048
  20
 65.0485
  30
0.0
  11
 122.776
  21
 77.7764
  31
0.0
   0
LINE
   8
LEVEL001
   6
CONTINUOUS
  62
7
  10
 137.500
  20
 40.5000
  30
0.0
  11
 162.500
  21
 40.5000
  31
0.0
   0
LINE
   8
LEVEL001
   6
CONTINUOUS
  62
7
  10
 137.500
  20
 17.5000
  30
0.0
  11
 162.500
  21
 17.5000
  31
0.0
   0
LINE
   8
LEVEL001
   6
CONTINUOUS
  62
7
  10
 118.000
  20
 33.0000
  30
0.0
  11
 137.500
  21
 33.0000
  31
0.0
   0
LINE
   8
LEVEL001
   6
CONTINUOUS
  62
7
  10
 162.500
  20
 33.0000
  30
0.0
  11
 182.000
  21
 33.0000
  31
0.0
   0
LINE
   8
LEVEL001
   6
CONTINUOUS
  62
7
  10
 182.000
  20
 24.0000
  30
0.0
  11
 162.500
  21
 24.0000
  31
0.0
   0
LINE
   8
LEVEL001
   6
CONTINUOUS
  62
7
  10
 137.500
  20
 24.0000
  30
0.0
  11
 118.000
  21
 24.0000
  31
0.0
   0
ARC
   8
LEVEL001
   6
CONTINUOUS
  62
7
  10
 118.000
  20
 28.5000
  30
0.0
  40
 4.50000
  50
 90.0000
  51
 270.000
   0
ARC
   8
LEVEL001
   6
CONTINUOUS
  62
7
  10
 182.000
  20
 28.5000
  30
0.0
  40
 4.50000
  50
 270.000
  51
 90.0000
   0
LINE
   8
LEVEL001
   6
DASHDOT
  62
1
  10
 110.000
  20
 28.5000
  30
0.0
  11
 190.000
  21
 28.5000
  31
0.0
   0
LINE
   8
LEVEL001
   6
CONTINUOUS
  62
7
  10
 161.500
  20
 16.5000
  30
0.0
  11
 138.500
  21
 16.5000
  31
0.0
   0
LINE
   8
LEVEL001
   6
CONTINUOUS
  62
7
  10
 138.500
  20
 16.5000
  30
0.0
  11
 137.500
  21
 17.5000
  31
0.0
   0
LINE
   8
LEVEL001
   6
CONTINUOUS
  62
7
  10
 137.500
  20
 17.5000
  30
0.0
  11
 137.500
  21
 40.5000
  31
0.0
   0
LINE
   8
LEVEL001
   6
CONTINUOUS
  62
7
  10
 137.500
  20
 40.5000
  30
0.0
  11
 142.500
  21
 42.5000
  31
0.0
   0
LINE
   8
LEVEL001
   6
CONTINUOUS
  62
7
  10
 142.500
  20
 42.5000
  30
0.0
  11
 157.500
  21
 42.5000
  31
0.0
   0
LINE
   8
LEVEL001
   6
CONTINUOUS
  62
7
  10
 157.500
  20
 42.5000
  30
0.0
  11
 162.500
  21
 40.5000
  31
0.0
   0
LINE
   8
LEVEL001
   6
CONTINUOUS
  62
7
  10
 162.500
  20
 40.5000
  30
0.0
  11
 162.500
  21
 17.5000
  31
0.0
   0
LINE
   8
LEVEL001
   6
CONTINUOUS
  62
7
  10
 162.500
  20
 17.5000
  30
0.0
  11
 161.500
  21
 16.5000
  31
0.0
   0
LINE
   8
LEVEL001
   6
CONTINUOUS
  62
7
  10
 137.500
  20
 169.500
  30
0.0
  11
 162.500
  21
 169.500
  31
0.0
   0
LINE
   8
LEVEL001
   6
CONTINUOUS
  62
7
  10
 137.500
  20
 192.500
  30
0.0
  11
 162.500
  21
 192.500
  31
0.0
   0
LINE
   8
LEVEL001
   6
CONTINUOUS
  62
7
  10
 118.000
  20
 177.000
  30
0.0
  11
 137.500
  21
 177.000
  31
0.0
   0
LINE
   8
LEVEL001
   6
CONTINUOUS
  62
7
  10
 137.500
  20
 186.000
  30
0.0
  11
 118.000
  21
 186.000
  31
0.0
   0
ARC
   8
LEVEL001
   6
CONTINUOUS
  62
7
  10
 118.000
  20
 181.500
  30
0.0
  40
 4.50000
  50
 90.0000
  51
 270.000
   0
LINE
   8
LEVEL001
   6
DASHDOT
  62
1
  10
 110.000
  20
 181.500
  30
0.0
  11
 190.000
  21
 181.500
  31
0.0
   0
LINE
   8
LEVEL001
   6
CONTINUOUS
  62
7
  10
 161.500
  20
 193.500
  30
0.0
  11
 138.500
  21
 193.500
  31
0.0
   0
LINE
   8
LEVEL001
   6
CONTINUOUS
  62
7
  10
 138.500
  20
 193.500
  30
0.0
  11
 137.500
  21
 192.500
  31
0.0
   0
LINE
   8
LEVEL001
   6
CONTINUOUS
  62
7
  10
 137.500
  20
 192.500
  30
0.0
  11
 137.500
  21
 169.500
  31
0.0
   0
LINE
   8
LEVEL001
   6
CONTINUOUS
  62
7
  10
 137.500
  20
 169.500
  30
0.0
  11
 142.500
  21
 167.500
  31
0.0
   0
LINE
   8
LEVEL001
   6
CONTINUOUS
  62
7
  10
 142.500
  20
 167.500
  30
0.0
  11
 157.500
  21
 167.500
  31
0.0
   0
LINE
   8
LEVEL001
   6
CONTINUOUS
  62
7
  10
 157.500
  20
 167.500
  30
0.0
  11
 162.500
  21
 169.500
  31
0.0
   0
LINE
   8
LEVEL001
   6
CONTINUOUS
  62
7
  10
 162.500
  20
 169.500
  30
0.0
  11
 162.500
  21
 192.500
  31
0.0
   0
LINE
   8
LEVEL001
   6
CONTINUOUS
  62
7
  10
 162.500
  20
 192.500
  30
0.0
  11
 161.500
  21
 193.500
  31
0.0
   0
LINE
   8
LEVEL001
   6
CONTINUOUS
  62
7
  10
 162.500
  20
 177.000
  30
0.0
  11
 182.000
  21
 177.000
  31
0.0
   0
LINE
   8
LEVEL001
   6
CONTINUOUS
  62
7
  10
 182.000
  20
 186.000
  30
0.0
  11
 162.500
  21
 186.000
  31
0.0
   0
ARC
   8
LEVEL001
   6
CONTINUOUS
  62
7
  10
 182.000
  20
 181.500
  30
0.0
  40
 4.50000
  50
 270.000
  51
 90.0000
   0
LINE
   8
LEVEL001
   6
DASHDOT
  62
1
  10
 150.000
  20
 204.000
  30
0.0
  11
 150.000
  21
 5.99999
  31
0.0
   0
LINE
   8
LEVEL001
   6
CONTINUOUS
  62
7
  10
 211.945
  20
 113.314
  30
0.0
  11
 218.500
  21
 113.519
  31
0.0
   0
LINE
   8
LEVEL001
   6
CONTINUOUS
  62
7
  10
 211.945
  20
 96.6863
  30
0.0
  11
 218.500
  21
 96.4815
  31
0.0
   0
ARC
   8
LEVEL001
   6
CONTINUOUS
  62
7
  10
 241.000
  20
 118.000
  30
0.0
  40
 1.50000
  50
 90.0000
  51
 180.000
   0
LINE
   8
LEVEL001
   6
CONTINUOUS
  62
7
  10
 241.000
  20
 119.500
  30
0.0
  11
 246.000
  21
 119.500
  31
0.0
   0
ARC
   8
LEVEL001
   6
CONTINUOUS
  62
7
  10
 241.000
  20
 92.0000
  30
0.0
  40
 1.50000
  50
 180.000
  51
 270.000
   0
LINE
   8
LEVEL001
   6
CONTINUOUS
  62
7
  10
 239.500
  20
 92.0000
  30
0.0
  11
 239.500
  21
 118.000
  31
0.0
   0
LINE
   8
LEVEL001
   6
CONTINUOUS
  62
7
  10
 241.000
  20
 90.5000
  30
0.0
  11
 246.000
  21
 90.5000
  31
0.0
   0
ARC
   8
LEVEL001
   6
CONTINUOUS
  62
7
  10
 262.000
  20
 118.000
  30
0.0
  40
 1.50000
  50
0.0
  51
 90.0000
   0
LINE
   8
LEVEL001
   6
CONTINUOUS
  62
7
  10
 257.000
  20
 119.500
  30
0.0
  11
 262.000
  21
 119.500
  31
0.0
   0
ARC
   8
LEVEL001
   6
CONTINUOUS
  62
7
  10
 262.000
  20
 92.0000
  30
0.0
  40
 1.50000
  50
 270.000
  51
0.0
   0
LINE
   8
LEVEL001
   6
CONTINUOUS
  62
7
  10
 257.000
  20
 90.5000
  30
0.0
  11
 262.000
  21
 90.5000
  31
0.0
   0
LINE
   8
LEVEL001
   6
CONTINUOUS
  62
7
  10
 263.500
  20
 118.000
  30
0.0
  11
 263.500
  21
 92.0000
  31
0.0
   0
ARC
   8
LEVEL001
   6
DASHDOT
  62
1
  10
 272.500
  20
 118.000
  30
0.0
  40
 1.00000
  50
0.0
  51
 90.0000
   0
LINE
   8
LEVEL001
   6
DASHDOT
  62
1
  10
 264.500
  20
 119.000
  30
0.0
  11
 272.500
  21
 119.000
  31
0.0
   0
ARC
   8
LEVEL001
   6
DASHDOT
  62
1
  10
 272.500
  20
 92.0000
  30
0.0
  40
 1.00000
  50
 270.000
  51
0.0
   0
LINE
   8
LEVEL001
   6
DASHDOT
  62
1
  10
 264.500
  20
 91.0000
  30
0.0
  11
 272.500
  21
 91.0000
  31
0.0
   0
LINE
   8
LEVEL001
   6
DASHDOT
  62
1
  10
 273.500
  20
 118.000
  30
0.0
  11
 273.500
  21
 92.0000
  31
0.0
   0
ARC
   8
LEVEL001
   6
DASHDOT
  62
1
  10
 264.500
  20
 92.0000
  30
0.0
  40
 1.00000
  50
 180.000
  51
 270.000
   0
ARC
   8
LEVEL001
   6
DASHDOT
  62
1
  10
 264.500
  20
 118.000
  30
0.0
  40
 1.00000
  50
 90.0000
  51
 180.000
   0
LINE
   8
LEVEL001
   6
CONTINUOUS
  62
3
  10
 246.000
  20
 92.0000
  30
0.0
  11
 257.000
  21
 92.0000
  31
0.0
   0
LINE
   8
LEVEL001
   6
CONTINUOUS
  62
3
  10
 246.000
  20
 94.0000
  30
0.0
  11
 257.000
  21
 94.0000
  31
0.0
   0
LINE
   8
LEVEL001
   6
CONTINUOUS
  62
3
  10
 246.000
  20
 96.0000
  30
0.0
  11
 257.000
  21
 96.0000
  31
0.0
   0
LINE
   8
LEVEL001
   6
CONTINUOUS
  62
3
  10
 246.000
  20
 98.0000
  30
0.0
  11
 257.000
  21
 98.0000
  31
0.0
   0
LINE
   8
LEVEL001
   6
CONTINUOUS
  62
3
  10
 246.000
  20
 100.000
  30
0.0
  11
 257.000
  21
 100.000
  31
0.0
   0
LINE
   8
LEVEL001
   6
CONTINUOUS
  62
3
  10
 246.000
  20
 102.000
  30
0.0
  11
 257.000
  21
 102.000
  31
0.0
   0
LINE
   8
LEVEL001
   6
CONTINUOUS
  62
3
  10
 246.000
  20
 104.000
  30
0.0
  11
 257.000
  21
 104.000
  31
0.0
   0
LINE
   8
LEVEL001
   6
CONTINUOUS
  62
3
  10
 246.000
  20
 106.000
  30
0.0
  11
 257.000
  21
 106.000
  31
0.0
   0
LINE
   8
LEVEL001
   6
CONTINUOUS
  62
3
  10
 246.000
  20
 108.000
  30
0.0
  11
 257.000
  21
 108.000
  31
0.0
   0
LINE
   8
LEVEL001
   6
CONTINUOUS
  62
3
  10
 246.000
  20
 110.000
  30
0.0
  11
 257.000
  21
 110.000
  31
0.0
   0
LINE
   8
LEVEL001
   6
CONTINUOUS
  62
3
  10
 246.000
  20
 112.000
  30
0.0
  11
 257.000
  21
 112.000
  31
0.0
   0
LINE
   8
LEVEL001
   6
CONTINUOUS
  62
3
  10
 246.000
  20
 114.000
  30
0.0
  11
 257.000
  21
 114.000
  31
0.0
   0
LINE
   8
LEVEL001
   6
CONTINUOUS
  62
3
  10
 246.000
  20
 116.000
  30
0.0
  11
 257.000
  21
 116.000
  31
0.0
   0
LINE
   8
LEVEL001
   6
CONTINUOUS
  62
3
  10
 246.000
  20
 118.000
  30
0.0
  11
 257.000
  21
 118.000
  31
0.0
   0
LINE
   8
LEVEL001
   6
DASHDOT
  62
1
  10
 273.500
  20
 107.000
  30
0.0
  11
 279.500
  21
 107.000
  31
0.0
   0
LINE
   8
LEVEL001
   6
DASHDOT
  62
1
  10
 279.500
  20
 107.000
  30
0.0
  11
 279.500
  21
 103.000
  31
0.0
   0
LINE
   8
LEVEL001
   6
DASHDOT
  62
1
  10
 279.500
  20
 103.000
  30
0.0
  11
 273.500
  21
 103.000
  31
0.0
   0
LINE
   8
LEVEL001
   6
CONTINUOUS
  62
7
  10
 218.500
  20
 113.519
  30
0.0
  11
 218.500
  21
 112.500
  31
0.0
   0
LINE
   8
LEVEL001
   6
CONTINUOUS
  62
7
  10
 218.500
  20
 112.500
  30
0.0
  11
 232.500
  21
 112.500
  31
0.0
   0
LINE
   8
LEVEL001
   6
CONTINUOUS
  62
7
  10
 232.500
  20
 112.500
  30
0.0
  11
 232.500
  21
 114.500
  31
0.0
   0
LINE
   8
LEVEL001
   6
CONTINUOUS
  62
7
  10
 232.500
  20
 114.500
  30
0.0
  11
 239.500
  21
 114.500
  31
0.0
   0
LINE
   8
LEVEL001
   6
CONTINUOUS
  62
7
  10
 218.500
  20
 96.4815
  30
0.0
  11
 218.500
  21
 97.5000
  31
0.0
   0
LINE
   8
LEVEL001
   6
CONTINUOUS
  62
7
  10
 218.500
  20
 97.5000
  30
0.0
  11
 232.500
  21
 97.5000
  31
0.0
   0
LINE
   8
LEVEL001
   6
CONTINUOUS
  62
7
  10
 232.500
  20
 97.5000
  30
0.0
  11
 232.500
  21
 95.5000
  31
0.0
   0
LINE
   8
LEVEL001
   6
CONTINUOUS
  62
7
  10
 232.500
  20
 95.5000
  30
0.0
  11
 239.500
  21
 95.5000
  31
0.0
   0
LINE
   8
LEVEL001
   6
CONTINUOUS
  62
7
  10
 246.000
  20
 90.0000
  30
0.0
  11
 246.000
  21
 120.000
  31
0.0
   0
LINE
   8
LEVEL001
   6
CONTINUOUS
  62
7
  10
 246.000
  20
 120.000
  30
0.0
  11
 257.000
  21
 120.000
  31
0.0
   0
LINE
   8
LEVEL001
   6
CONTINUOUS
  62
7
  10
 257.000
  20
 120.000
  30
0.0
  11
 257.000
  21
 90.0000
  31
0.0
   0
LINE
   8
LEVEL001
   6
CONTINUOUS
  62
7
  10
 257.000
  20
 90.0000
  30
0.0
  11
 246.000
  21
 90.0000
  31
0.0
   0
LINE
   8
LEVEL001
   6
DASHDOT
  62
1
  10
 282.500
  20
 105.000
  30
0.0
  11
 80.2500
  21
 105.000
  31
0.0
   0
LINE
   8
LEVEL001
   6
CONTINUOUS
  62
7
  10
 87.5000
  20
 234.500
  30
0.0
  11
 212.500
  21
 234.500
  31
0.0
   0
LINE
   8
LEVEL001
   6
CONTINUOUS
  62
7
  10
 222.500
  20
 270.144
  30
0.0
  11
 212.500
  21
 269.831
  31
0.0
   0
LINE
   8
LEVEL001
   6
CONTINUOUS
  62
7
  10
 222.500
  20
 252.856
  30
0.0
  11
 212.500
  21
 253.169
  31
0.0
   0
LINE
   8
LEVEL001
   6
CONTINUOUS
  62
3
  10
 218.884
  20
 269.175
  30
0.0
  11
 212.500
  21
 268.975
  31
0.0
   0
LINE
   8
LEVEL001
   6
CONTINUOUS
  62
3
  10
 218.884
  20
 253.826
  30
0.0
  11
 212.500
  21
 254.025
  31
0.0
   0
LINE
   8
LEVEL001
   6
DASHDOT
  62
1
  10
 285.000
  20
 261.500
  30
0.0
  11
 202.500
  21
 261.500
  31
0.0
   0
TEXT
   8
LEVEL003
  62
3
  10
 225.000
  20
 647.500
  30
0.0
  40
 6.00000
   1
Ｍ１２５×２
   7
STANDARD
   0
LINE
   8
LEVEL003
   6
CONTINUOUS
  62
3
  10
 212.500
  20
 655.000
  30
0.0
  11
 225.000
  21
 647.500
  31
0.0
   0
LINE
   8
LEVEL003
   6
CONTINUOUS
  62
3
  10
 212.500
  20
 655.000
  30
0.0
  11
 215.950
  21
 652.004
  31
0.0
   0
LINE
   8
LEVEL003
   6
CONTINUOUS
  62
3
  10
 212.500
  20
 655.000
  30
0.0
  11
 216.767
  21
 653.365
  31
0.0
   0
LINE
   8
LEVEL003
   6
CONTINUOUS
  62
3
  10
 115.000
  20
 692.000
  30
0.0
  11
 115.000
  21
 725.500
  31
0.0
   0
LINE
   8
LEVEL003
   6
CONTINUOUS
  62
3
  10
 185.000
  20
 692.000
  30
0.0
  11
 185.000
  21
 725.500
  31
0.0
   0
LINE
   8
LEVEL003
   6
CONTINUOUS
  62
3
  10
 115.000
  20
 722.500
  30
0.0
  11
 185.000
  21
 722.500
  31
0.0
   0
LINE
   8
LEVEL003
   6
CONTINUOUS
  62
3
  10
 115.000
  20
 722.500
  30
0.0
  11
 119.500
  21
 721.707
  31
0.0
   0
LINE
   8
LEVEL003
   6
CONTINUOUS
  62
3
  10
 115.000
  20
 722.500
  30
0.0
  11
 119.500
  21
 723.293
  31
0.0
   0
LINE
   8
LEVEL003
   6
CONTINUOUS
  62
3
  10
 185.000
  20
 722.500
  30
0.0
  11
 180.500
  21
 723.293
  31
0.0
   0
LINE
   8
LEVEL003
   6
CONTINUOUS
  62
3
  10
 185.000
  20
 722.500
  30
0.0
  11
 180.500
  21
 721.707
  31
0.0
   0
TEXT
   8
LEVEL003
  62
3
  10
 144.000
  20
 723.700
  30
0.0
  40
 6.00000
   1
%%c70
   7
STANDARD
  72
1
  11
 150.000
  21
 723.700
  31
0.0
   0
LINE
   8
LEVEL003
   6
CONTINUOUS
  62
3
  10
 107.500
  20
 587.500
  30
0.0
  11
 192.500
  21
 587.500
  31
0.0
   0
LINE
   8
LEVEL003
   6
CONTINUOUS
  62
3
  10
 107.500
  20
 587.500
  30
0.0
  11
 112.000
  21
 586.707
  31
0.0
   0
LINE
   8
LEVEL003
   6
CONTINUOUS
  62
3
  10
 107.500
  20
 587.500
  30
0.0
  11
 112.000
  21
 588.293
  31
0.0
   0
LINE
   8
LEVEL003
   6
CONTINUOUS
  62
3
  10
 192.500
  20
 587.500
  30
0.0
  11
 188.000
  21
 588.293
  31
0.0
   0
LINE
   8
LEVEL003
   6
CONTINUOUS
  62
3
  10
 192.500
  20
 587.500
  30
0.0
  11
 188.000
  21
 586.707
  31
0.0
   0
TEXT
   8
LEVEL003
  62
3
  10
 144.000
  20
 588.700
  30
0.0
  40
 6.00000
   1
%%c85
   7
STANDARD
  72
1
  11
 150.000
  21
 588.700
  31
0.0
   0
LINE
   8
LEVEL003
   6
CONTINUOUS
  62
3
  10
 102.500
  20
 572.500
  30
0.0
  11
 197.500
  21
 572.500
  31
0.0
   0
LINE
   8
LEVEL003
   6
CONTINUOUS
  62
3
  10
 102.500
  20
 572.500
  30
0.0
  11
 107.000
  21
 571.707
  31
0.0
   0
LINE
   8
LEVEL003
   6
CONTINUOUS
  62
3
  10
 102.500
  20
 572.500
  30
0.0
  11
 107.000
  21
 573.293
  31
0.0
   0
LINE
   8
LEVEL003
   6
CONTINUOUS
  62
3
  10
 197.500
  20
 572.500
  30
0.0
  11
 193.000
  21
 573.293
  31
0.0
   0
LINE
   8
LEVEL003
   6
CONTINUOUS
  62
3
  10
 197.500
  20
 572.500
  30
0.0
  11
 193.000
  21
 571.707
  31
0.0
   0
TEXT
   8
LEVEL003
  62
3
  10
 144.000
  20
 573.700
  30
0.0
  40
 6.00000
   1
%%c95
   7
STANDARD
  72
1
  11
 150.000
  21
 573.700
  31
0.0
   0
LINE
   8
LEVEL003
   6
CONTINUOUS
  62
3
  10
 87.5000
  20
 557.500
  30
0.0
  11
 212.500
  21
 557.500
  31
0.0
   0
LINE
   8
LEVEL003
   6
CONTINUOUS
  62
3
  10
 87.5000
  20
 557.500
  30
0.0
  11
 92.0000
  21
 556.707
  31
0.0
   0
LINE
   8
LEVEL003
   6
CONTINUOUS
  62
3
  10
 87.5000
  20
 557.500
  30
0.0
  11
 92.0000
  21
 558.293
  31
0.0
   0
LINE
   8
LEVEL003
   6
CONTINUOUS
  62
3
  10
 212.500
  20
 557.500
  30
0.0
  11
 208.000
  21
 558.293
  31
0.0
   0
LINE
   8
LEVEL003
   6
CONTINUOUS
  62
3
  10
 212.500
  20
 557.500
  30
0.0
  11
 208.000
  21
 556.707
  31
0.0
   0
TEXT
   8
LEVEL003
  62
3
  10
 142.500
  20
 558.700
  30
0.0
  40
 6.00000
   1
%%c125
   7
STANDARD
  72
1
  11
 150.000
  21
 558.700
  31
0.0
   0
LINE
   8
LEVEL001
   6
CONTINUOUS
  62
7
  10
 210.500
  20
 686.500
  30
0.0
  11
 209.500
  21
 687.500
  31
0.0
   0
LINE
   8
LEVEL001
   6
CONTINUOUS
  62
7
  10
 210.500
  20
 682.500
  30
0.0
  11
 210.500
  21
 686.500
  31
0.0
   0
LINE
   8
LEVEL001
   6
CONTINUOUS
  62
7
  10
 211.500
  20
 682.500
  30
0.0
  11
 212.500
  21
 681.500
  31
0.0
   0
LINE
   8
LEVEL001
   6
CONTINUOUS
  62
7
  10
 212.500
  20
 681.500
  30
0.0
  11
 212.500
  21
 633.768
  31
0.0
   0
LINE
   8
LEVEL001
   6
CONTINUOUS
  62
7
  10
 185.000
  20
 690.500
  30
0.0
  11
 183.000
  21
 692.500
  31
0.0
   0
LINE
   8
LEVEL001
   6
CONTINUOUS
  62
7
  10
 89.5000
  20
 686.500
  30
0.0
  11
 90.5000
  21
 687.500
  31
0.0
   0
LINE
   8
LEVEL001
   6
CONTINUOUS
  62
7
  10
 89.5000
  20
 682.500
  30
0.0
  11
 89.5000
  21
 686.500
  31
0.0
   0
LINE
   8
LEVEL001
   6
CONTINUOUS
  62
7
  10
 88.5000
  20
 682.500
  30
0.0
  11
 87.5000
  21
 681.500
  31
0.0
   0
LINE
   8
LEVEL001
   6
CONTINUOUS
  62
7
  10
 87.5000
  20
 681.500
  30
0.0
  11
 87.5000
  21
 633.768
  31
0.0
   0
LINE
   8
LEVEL001
   6
CONTINUOUS
  62
7
  10
 115.000
  20
 690.500
  30
0.0
  11
 117.000
  21
 692.500
  31
0.0
   0
LINE
   8
LEVEL001
   6
CONTINUOUS
  62
7
  10
 183.000
  20
 692.500
  30
0.0
  11
 117.000
  21
 692.500
  31
0.0
   0
LINE
   8
LEVEL001
   6
DASHDOT
  62
1
  10
 215.500
  20
 682.500
  30
0.0
  11
 215.500
  21
 637.500
  31
0.0
   0
LINE
   8
LEVEL001
   6
DASHDOT
  62
1
  10
 211.500
  20
 682.500
  30
0.0
  11
 215.500
  21
 682.500
  31
0.0
   0
LINE
   8
LEVEL001
   6
DASHDOT
  62
1
  10
 84.5000
  20
 682.500
  30
0.0
  11
 84.5000
  21
 637.500
  31
0.0
   0
LINE
   8
LEVEL001
   6
DASHDOT
  62
1
  10
 88.5000
  20
 682.500
  30
0.0
  11
 84.5000
  21
 682.500
  31
0.0
   0
LINE
   8
LEVEL001
   6
CONTINUOUS
  62
3
  10
 211.500
  20
 637.500
  30
0.0
  11
 212.500
  21
 633.768
  31
0.0
   0
LINE
   8
LEVEL001
   6
DASHDOT
  62
1
  10
 212.500
  20
 637.500
  30
0.0
  11
 215.500
  21
 637.500
  31
0.0
   0
LINE
   8
LEVEL001
   6
CONTINUOUS
  62
3
  10
 88.5000
  20
 637.500
  30
0.0
  11
 87.5000
  21
 633.768
  31
0.0
   0
LINE
   8
LEVEL001
   6
DASHDOT
  62
1
  10
 87.5000
  20
 637.500
  30
0.0
  11
 84.5000
  21
 637.500
  31
0.0
   0
LINE
   8
LEVEL001
   6
DASHDOT
  62
1
  10
 150.000
  20
 700.000
  30
0.0
  11
 150.000
  21
 595.000
  31
0.0
   0
LINE
   8
LEVEL001
   6
DASHDOT
  62
1
  10
 150.000
  20
 587.500
  30
0.0
  11
 150.000
  21
 580.000
  31
0.0
   0
LINE
   8
LEVEL001
   6
DASHDOT
  62
1
  10
 150.000
  20
 572.500
  30
0.0
  11
 150.000
  21
 225.000
  31
0.0
   0
LINE
   8
LEVEL001
   6
CONTINUOUS
  62
7
  10
 212.500
  20
 234.500
  30
0.0
  11
 212.500
  21
 633.768
  31
0.0
   0
LINE
   8
LEVEL001
   6
CONTINUOUS
  62
7
  10
 87.5000
  20
 234.500
  30
0.0
  11
 87.5000
  21
 633.768
  31
0.0
   0
LINE
   8
LEVEL001
   6
CONTINUOUS
  62
7
  10
 108.250
  20
 689.500
  30
0.0
  11
 191.750
  21
 689.500
  31
0.0
   0
LINE
   8
LEVEL001
   6
CONTINUOUS
  62
7
  10
 185.000
  20
 690.500
  30
0.0
  11
 185.000
  21
 689.500
  31
0.0
   0
LINE
   8
LEVEL001
   6
CONTINUOUS
  62
7
  10
 115.000
  20
 690.500
  30
0.0
  11
 115.000
  21
 689.500
  31
0.0
   0
LINE
   8
LEVEL001
   6
CONTINUOUS
  62
7
  10
 90.5000
  20
 687.500
  30
0.0
  11
 209.500
  21
 687.500
  31
0.0
   0
LINE
   8
LEVEL001
   6
CONTINUOUS
  62
7
  10
 108.250
  20
 689.500
  30
0.0
  11
 107.750
  21
 687.500
  31
0.0
   0
LINE
   8
LEVEL001
   6
CONTINUOUS
  62
7
  10
 191.750
  20
 689.500
  30
0.0
  11
 192.250
  21
 687.500
  31
0.0
   0
LINE
   8
LEVEL001
   6
CONTINUOUS
  62
7
  10
 115.000
  20
 690.500
  30
0.0
  11
 185.000
  21
 690.500
  31
0.0
   0
LINE
   8
LEVEL001
   6
CONTINUOUS
  62
7
  10
 210.500
  20
 686.500
  30
0.0
  11
 89.5000
  21
 686.500
  31
0.0
   0
LINE
   8
LEVEL001
   6
CONTINUOUS
  62
7
  10
 88.5000
  20
 682.500
  30
0.0
  11
 211.500
  21
 682.500
  31
0.0
   0
LINE
   8
LEVEL001
   6
CONTINUOUS
  62
7
  10
 212.500
  20
 681.500
  30
0.0
  11
 87.5000
  21
 681.500
  31
0.0
   0
LINE
   8
LEVEL001
   6
CONTINUOUS
  62
3
  10
 88.5000
  20
 682.500
  30
0.0
  11
 88.5000
  21
 637.500
  31
0.0
   0
LINE
   8
LEVEL001
   6
CONTINUOUS
  62
3
  10
 211.500
  20
 682.500
  30
0.0
  11
 211.500
  21
 637.500
  31
0.0
   0
LINE
   8
LEVEL001
   6
CONTINUOUS
  62
7
  10
 87.5000
  20
 633.768
  30
0.0
  11
 212.500
  21
 633.768
  31
0.0
   0
LINE
   8
LEVEL001
   6
CONTINUOUS
  62
3
  10
 212.500
  20
 637.500
  30
0.0
  11
 87.5000
  21
 637.500
  31
0.0
   0
LINE
   8
LEVEL003
   6
CONTINUOUS
  62
3
  10
 151.500
  20
 532.500
  30
0.0
  11
 325.500
  21
 532.500
  31
0.0
   0
LINE
   8
LEVEL003
   6
CONTINUOUS
  62
3
  10
 212.000
  20
 232.500
  30
0.0
  11
 325.500
  21
 232.500
  31
0.0
   0
LINE
   8
LEVEL003
   6
CONTINUOUS
  62
3
  10
 322.500
  20
 532.500
  30
0.0
  11
 322.500
  21
 232.500
  31
0.0
   0
LINE
   8
LEVEL003
   6
CONTINUOUS
  62
3
  10
 322.500
  20
 532.500
  30
0.0
  11
 321.707
  21
 528.000
  31
0.0
   0
LINE
   8
LEVEL003
   6
CONTINUOUS
  62
3
  10
 322.500
  20
 532.500
  30
0.0
  11
 323.293
  21
 528.000
  31
0.0
   0
LINE
   8
LEVEL003
   6
CONTINUOUS
  62
3
  10
 322.500
  20
 232.500
  30
0.0
  11
 323.293
  21
 237.000
  31
0.0
   0
LINE
   8
LEVEL003
   6
CONTINUOUS
  62
3
  10
 322.500
  20
 232.500
  30
0.0
  11
 321.707
  21
 237.000
  31
0.0
   0
TEXT
   8
LEVEL003
  62
3
  10
 321.300
  20
 378.000
  30
0.0
  40
 6.00000
   1
300
  50
 90.0000
  41
 0.500000
   7
STANDARD
  72
1
  11
 321.300
  21
 382.500
  31
0.0
   0
LINE
   8
LEVEL003
   6
CONTINUOUS
  62
3
  10
 212.000
  20
 232.500
  30
0.0
  11
 348.000
  21
 232.500
  31
0.0
   0
LINE
   8
LEVEL003
   6
CONTINUOUS
  62
3
  10
 184.500
  20
 692.500
  30
0.0
  11
 348.000
  21
 692.500
  31
0.0
   0
LINE
   8
LEVEL003
   6
CONTINUOUS
  62
3
  10
 345.000
  20
 232.500
  30
0.0
  11
 345.000
  21
 692.500
  31
0.0
   0
LINE
   8
LEVEL003
   6
CONTINUOUS
  62
3
  10
 345.000
  20
 232.500
  30
0.0
  11
 345.793
  21
 237.000
  31
0.0
   0
LINE
   8
LEVEL003
   6
CONTINUOUS
  62
3
  10
 345.000
  20
 232.500
  30
0.0
  11
 344.207
  21
 237.000
  31
0.0
   0
LINE
   8
LEVEL003
   6
CONTINUOUS
  62
3
  10
 345.000
  20
 692.500
  30
0.0
  11
 344.207
  21
 688.000
  31
0.0
   0
LINE
   8
LEVEL003
   6
CONTINUOUS
  62
3
  10
 345.000
  20
 692.500
  30
0.0
  11
 345.793
  21
 688.000
  31
0.0
   0
TEXT
   8
LEVEL003
  62
3
  10
 343.800
  20
 458.000
  30
0.0
  40
 6.00000
   1
460
  50
 90.0000
  41
 0.500000
   7
STANDARD
  72
1
  11
 343.800
  21
 462.500
  31
0.0
   0
LINE
   8
LEVEL003
   6
CONTINUOUS
  62
3
  10
 102.500
  20
 232.500
  30
0.0
  11
 93.7500
  21
 210.000
  31
0.0
   0
LINE
   8
LEVEL003
   6
CONTINUOUS
  62
3
  10
 93.7500
  20
 210.000
  30
0.0
  11
 30.0000
  21
 210.000
  31
0.0
   0
LINE
   8
LEVEL003
   6
CONTINUOUS
  62
3
  10
 102.500
  20
 232.500
  30
0.0
  11
 100.129
  21
 228.594
  31
0.0
   0
LINE
   8
LEVEL003
   6
CONTINUOUS
  62
3
  10
 102.500
  20
 232.500
  30
0.0
  11
 101.609
  21
 228.018
  31
0.0
   0
ARC
   8
LEVEL004
   6
DOT
  62
3
  10
 140.000
  20
 692.500
  30
0.0
  40
 1.00001
  50
 180.000
  51
0.0
   0
ARC
   8
LEVEL004
   6
DOT
  62
3
  10
 130.000
  20
 692.500
  30
0.0
  40
 1.00001
  50
 180.000
  51
0.0
   0
ARC
   8
LEVEL004
   6
DOT
  62
3
  10
 160.000
  20
 692.500
  30
0.0
  40
 1.00001
  50
 180.000
  51
0.0
   0
ARC
   8
LEVEL004
   6
DOT
  62
3
  10
 170.000
  20
 692.500
  30
0.0
  40
 1.00001
  50
 180.000
  51
0.0
   0
LINE
   8
LEVEL004
   6
DOT
  62
3
  10
 168.000
  20
 692.500
  30
0.0
  11
 168.000
  21
 683.000
  31
0.0
   0
LINE
   8
LEVEL004
   6
DOT
  62
3
  10
 181.500
  20
 683.000
  30
0.0
  11
 168.500
  21
 683.000
  31
0.0
   0
LINE
   8
LEVEL004
   6
DOT
  62
3
  10
 168.500
  20
 683.000
  30
0.0
  11
 168.500
  21
 690.600
  31
0.0
   0
LINE
   8
LEVEL004
   6
DOT
  62
3
  10
 168.500
  20
 690.600
  30
0.0
  11
 169.193
  21
 691.000
  31
0.0
   0
LINE
   8
LEVEL004
   6
DOT
  62
3
  10
 169.193
  20
 691.000
  30
0.0
  11
 180.807
  21
 691.000
  31
0.0
   0
LINE
   8
LEVEL004
   6
DOT
  62
3
  10
 180.807
  20
 691.000
  30
0.0
  11
 181.500
  21
 690.600
  31
0.0
   0
LINE
   8
LEVEL004
   6
DOT
  62
3
  10
 181.500
  20
 690.600
  30
0.0
  11
 181.500
  21
 683.000
  31
0.0
   0
LINE
   8
LEVEL004
   6
DOT
  62
3
  10
 181.500
  20
 690.600
  30
0.0
  11
 168.500
  21
 690.600
  31
0.0
   0
LINE
   8
LEVEL004
   6
DOT
  62
3
  10
 182.000
  20
 692.500
  30
0.0
  11
 182.000
  21
 683.000
  31
0.0
   0
LINE
   8
LEVEL004
   6
DOT
  62
3
  10
 185.500
  20
 689.500
  30
0.0
  11
 185.000
  21
 689.000
  31
0.0
   0
LINE
   8
LEVEL004
   6
DOT
  62
3
  10
 185.000
  20
 689.500
  30
0.0
  11
 185.000
  21
 680.500
  31
0.0
   0
LINE
   8
LEVEL004
   6
DOT
  62
3
  10
 183.500
  20
 679.500
  30
0.0
  11
 185.000
  21
 681.000
  31
0.0
   0
ARC
   8
LEVEL004
   6
DOT
  62
3
  10
 184.000
  20
 680.500
  30
0.0
  40
 1.00000
  50
 270.001
  51
 0.174683E-2
   0
LINE
   8
LEVEL004
   6
DOT
  62
3
  10
 184.000
  20
 679.500
  30
0.0
  11
 178.375
  21
 679.500
  31
0.0
   0
LINE
   8
LEVEL004
   6
DOT
  62
3
  10
 179.500
  20
 683.000
  30
0.0
  11
 179.500
  21
 679.500
  31
0.0
   0
LINE
   8
LEVEL004
   6
DOT
  62
3
  10
 178.375
  20
 669.000
  30
0.0
  11
 178.375
  21
 683.000
  31
0.0
   0
LINE
   8
LEVEL004
   6
DOT
  62
3
  10
 179.000
  20
 683.000
  30
0.0
  11
 179.000
  21
 669.625
  31
0.0
   0
LINE
   8
LEVEL004
   6
DOT
  62
3
  10
 179.000
  20
 669.625
  30
0.0
  11
 178.375
  21
 669.000
  31
0.0
   0
LINE
   8
LEVEL004
   6
DOT
  62
3
  10
 178.375
  20
 669.000
  30
0.0
  11
 171.625
  21
 669.000
  31
0.0
   0
LINE
   8
LEVEL004
   6
DOT
  62
3
  10
 171.625
  20
 669.000
  30
0.0
  11
 171.000
  21
 669.625
  31
0.0
   0
LINE
   8
LEVEL004
   6
DOT
  62
3
  10
 171.000
  20
 669.625
  30
0.0
  11
 171.000
  21
 683.000
  31
0.0
   0
LINE
   8
LEVEL004
   6
DOT
  62
3
  10
 170.500
  20
 683.000
  30
0.0
  11
 170.500
  21
 679.500
  31
0.0
   0
LINE
   8
LEVEL004
   6
DOT
  62
3
  10
 171.625
  20
 669.000
  30
0.0
  11
 171.625
  21
 683.000
  31
0.0
   0
LINE
   8
LEVEL004
   6
DOT
  62
3
  10
 171.625
  20
 679.500
  30
0.0
  11
 116.000
  21
 679.500
  31
0.0
   0
LINE
   8
LEVEL004
   6
DOT
  62
3
  10
 168.000
  20
 683.000
  30
0.0
  11
 168.500
  21
 683.000
  31
0.0
   0
LINE
   8
LEVEL004
   6
DOT
  62
3
  10
 181.500
  20
 683.000
  30
0.0
  11
 182.000
  21
 683.000
  31
0.0
   0
LINE
   8
LEVEL004
   6
DOT
  62
3
  10
 179.000
  20
 669.625
  30
0.0
  11
 179.000
  21
 667.500
  31
0.0
   0
LINE
   8
LEVEL004
   6
DOT
  62
3
  10
 179.000
  20
 667.500
  30
0.0
  11
 178.375
  21
 665.168
  31
0.0
   0
LINE
   8
LEVEL004
   6
DOT
  62
3
  10
 179.000
  20
 669.625
  30
0.0
  11
 171.000
  21
 669.625
  31
0.0
   0
LINE
   8
LEVEL004
   6
DOT
  62
3
  10
 178.375
  20
 669.000
  30
0.0
  11
 178.375
  21
 665.168
  31
0.0
   0
LINE
   8
LEVEL004
   6
DOT
  62
3
  10
 178.375
  20
 665.168
  30
0.0
  11
 175.000
  21
 663.219
  31
0.0
   0
LINE
   8
LEVEL004
   6
DOT
  62
3
  10
 175.000
  20
 663.219
  30
0.0
  11
 171.625
  21
 665.168
  31
0.0
   0
LINE
   8
LEVEL004
   6
DOT
  62
3
  10
 171.625
  20
 665.168
  30
0.0
  11
 171.625
  21
 669.000
  31
0.0
   0
LINE
   8
LEVEL004
   6
DOT
  62
3
  10
 178.375
  20
 665.168
  30
0.0
  11
 171.625
  21
 665.168
  31
0.0
   0
LINE
   8
LEVEL004
   6
DOT
  62
3
  10
 179.000
  20
 667.500
  30
0.0
  11
 171.000
  21
 667.500
  31
0.0
   0
LINE
   8
LEVEL004
   6
DOT
  62
3
  10
 171.000
  20
 669.625
  30
0.0
  11
 171.000
  21
 667.500
  31
0.0
   0
LINE
   8
LEVEL004
   6
DOT
  62
3
  10
 171.000
  20
 667.500
  30
0.0
  11
 171.625
  21
 665.168
  31
0.0
   0
LINE
   8
LEVEL004
   6
DASHDOT
  62
1
  10
 175.000
  20
 694.000
  30
0.0
  11
 175.000
  21
 660.219
  31
0.0
   0
LINE
   8
LEVEL004
   6
DOT
  62
3
  10
 114.500
  20
 689.500
  30
0.0
  11
 115.000
  21
 689.000
  31
0.0
   0
LINE
   8
LEVEL004
   6
DOT
  62
3
  10
 115.000
  20
 689.500
  30
0.0
  11
 115.000
  21
 680.500
  31
0.0
   0
LINE
   8
LEVEL004
   6
DOT
  62
3
  10
 116.500
  20
 679.500
  30
0.0
  11
 115.000
  21
 681.000
  31
0.0
   0
ARC
   8
LEVEL004
   6
DOT
  62
3
  10
 116.000
  20
 680.500
  30
0.0
  40
 1.00000
  50
 179.998
  51
 269.999
   0
LINE
   8
LEVEL004
   6
DOT
  62
3
  10
 107.500
  20
 451.000
  30
0.0
  11
 107.500
  21
 686.500
  31
0.0
   0
LINE
   8
LEVEL004
   6
DOT
  62
3
  10
 102.500
  20
 640.500
  30
0.0
  11
 102.500
  21
 457.741
  31
0.0
   0
LINE
   8
LEVEL004
   6
DOT
  62
3
  10
 197.500
  20
 640.500
  30
0.0
  11
 197.500
  21
 468.296
  31
0.0
   0
LINE
   8
LEVEL004
   6
DOT
  62
3
  10
 192.500
  20
 451.000
  30
0.0
  11
 192.500
  21
 686.500
  31
0.0
   0
CIRCLE
   8
LEVEL004
   6
DOT
  62
3
  10
 150.000
  20
 532.500
  30
0.0
  40
 12.5000
   0
CIRCLE
   8
LEVEL004
   6
DOT
  62
3
  10
 150.000
  20
 532.500
  30
0.0
  40
 11.5000
   0
ARC
   8
LEVEL004
   6
DOT
  62
3
  10
 150.000
  20
 500.500
  30
0.0
  40
 36.5000
  50
 109.647
  51
 70.3528
   0
ARC
   8
LEVEL004
   6
DOT
  62
3
  10
 150.000
  20
 500.500
  30
0.0
  40
 27.5000
  50
 112.672
  51
 67.3281
   0
CIRCLE
   8
LEVEL004
   6
DASHDOT
  62
1
  10
 150.000
  20
 500.500
  30
0.0
  40
 32.0000
   0
LINE
   8
LEVEL004
   6
DASHDOT
  62
1
  10
 135.000
  20
 532.500
  30
0.0
  11
 165.000
  21
 532.500
  31
0.0
   0
LINE
   8
LEVEL004
   6
DASHDOT
  62
1
  10
 197.500
  20
 229.500
  30
0.0
  11
 197.500
  21
 247.500
  31
0.0
   0
LINE
   8
LEVEL004
   6
DASHDOT
  62
1
  10
 102.500
  20
 229.500
  30
0.0
  11
 102.500
  21
 257.724
  31
0.0
   0
LINE
   8
LEVEL004
   6
DOT
  62
3
  10
 96.5000
  20
 232.500
  30
0.0
  11
 97.3750
  21
 233.375
  31
0.0
   0
LINE
   8
LEVEL004
   6
DOT
  62
3
  10
 97.3750
  20
 233.375
  30
0.0
  11
 97.3750
  21
 251.766
  31
0.0
   0
LINE
   8
LEVEL004
   6
DOT
  62
3
  10
 97.3750
  20
 251.766
  30
0.0
  11
 102.500
  21
 254.724
  31
0.0
   0
LINE
   8
LEVEL004
   6
DOT
  62
3
  10
 102.500
  20
 254.724
  30
0.0
  11
 107.625
  21
 251.766
  31
0.0
   0
LINE
   8
LEVEL004
   6
DOT
  62
3
  10
 107.625
  20
 251.766
  30
0.0
  11
 107.625
  21
 233.375
  31
0.0
   0
LINE
   8
LEVEL004
   6
DOT
  62
3
  10
 107.625
  20
 233.375
  30
0.0
  11
 108.500
  21
 232.500
  31
0.0
   0
LINE
   8
LEVEL004
   6
DOT
  62
3
  10
 97.3750
  20
 251.766
  30
0.0
  11
 107.625
  21
 251.766
  31
0.0
   0
LINE
   8
LEVEL004
   6
DOT
  62
3
  10
 96.5000
  20
 232.500
  30
0.0
  11
 96.5000
  21
 248.500
  31
0.0
   0
LINE
   8
LEVEL004
   6
DOT
  62
3
  10
 96.5000
  20
 248.500
  30
0.0
  11
 97.3750
  21
 251.766
  31
0.0
   0
LINE
   8
LEVEL004
   6
DOT
  62
3
  10
 107.625
  20
 251.766
  30
0.0
  11
 108.500
  21
 248.500
  31
0.0
   0
LINE
   8
LEVEL004
   6
DOT
  62
3
  10
 108.500
  20
 248.500
  30
0.0
  11
 108.500
  21
 232.500
  31
0.0
   0
LINE
   8
LEVEL004
   6
DOT
  62
3
  10
 96.5000
  20
 248.500
  30
0.0
  11
 108.500
  21
 248.500
  31
0.0
   0
LINE
   8
LEVEL004
   6
DOT
  62
3
  10
 97.3750
  20
 233.375
  30
0.0
  11
 107.625
  21
 233.375
  31
0.0
   0
TEXT
   8
LEVEL003
  62
7
  10
 261.691
  20
 27.7200
  30
0.0
  40
 10.0000
   1
ＯＳＡＫＡ ＪＡＣＫ
   7
STANDARD
   0
CIRCLE
   8
LEVEL003
   6
CONTINUOUS
  62
7
  10
 249.718
  20
 34.7707
  30
0.0
  40
 3.00000
   0
LINE
   8
LEVEL003
   6
CONTINUOUS
  62
7
  10
 255.606
  20
 37.7707
  30
0.0
  11
 251.797
  21
 31.1707
  31
0.0
   0
LINE
   8
LEVEL003
   6
CONTINUOUS
  62
7
  10
 251.797
  20
 31.1707
  30
0.0
  11
 244.176
  21
 31.1707
  31
0.0
   0
LINE
   8
LEVEL003
   6
CONTINUOUS
  62
7
  10
 243.309
  20
 29.6707
  30
0.0
  11
 256.930
  21
 29.6707
  31
0.0
   0
LINE
   8
LEVEL003
   6
CONTINUOUS
  62
7
  10
 256.930
  20
 29.6707
  30
0.0
  11
 261.606
  21
 37.7707
  31
0.0
   0
LINE
   8
LEVEL003
   6
CONTINUOUS
  62
7
  10
 261.606
  20
 37.7707
  30
0.0
  11
 255.606
  21
 37.7707
  31
0.0
   0
LINE
   8
LEVEL003
   6
CONTINUOUS
  62
7
  10
 244.176
  20
 31.1707
  30
0.0
  11
 243.309
  21
 29.6707
  31
0.0
   0
TEXT
   8
LEVEL003
  62
7
  10
 264.602
  20
 44.6134
  30
0.0
  40
 6.00000
   1
Model : Ｅ５０Ｓ３２
   7
STANDARD
   0
TEXT
   8
LEVEL003
  62
3
  10
 29.7500
  20
 210.000
  30
0.0
  40
 6.00000
   1
４－Ｍ１２×１６Ｌ
   7
STANDARD
   0
LINE
   8
LEVEL003
   6
CONTINUOUS
  62
3
  10
 232.500
  20
 217.500
  30
0.0
  11
 274.245
  21
 217.500
  31
0.0
   0
LINE
   8
LEVEL003
   6
CONTINUOUS
  62
3
  10
 225.000
  20
 647.500
  30
0.0
  11
 266.499
  21
 647.500
  31
0.0
   0
LINE
   8
LEVEL003
   6
CONTINUOUS
  62
3
  10
 210.500
  20
 687.500
  30
0.0
  11
 293.624
  21
 687.500
  31
0.0
   0
LINE
   8
LEVEL003
   6
CONTINUOUS
  62
3
  10
 216.500
  20
 637.500
  30
0.0
  11
 293.624
  21
 637.500
  31
0.0
   0
LINE
   8
LEVEL003
   6
CONTINUOUS
  62
3
  10
 291.624
  20
 687.500
  30
0.0
  11
 291.624
  21
 637.500
  31
0.0
   0
LINE
   8
LEVEL003
   6
CONTINUOUS
  62
3
  10
 291.624
  20
 687.500
  30
0.0
  11
 291.095
  21
 684.500
  31
0.0
   0
LINE
   8
LEVEL003
   6
CONTINUOUS
  62
3
  10
 291.624
  20
 687.500
  30
0.0
  11
 292.153
  21
 684.500
  31
0.0
   0
LINE
   8
LEVEL003
   6
CONTINUOUS
  62
3
  10
 291.624
  20
 637.500
  30
0.0
  11
 292.153
  21
 640.500
  31
0.0
   0
LINE
   8
LEVEL003
   6
CONTINUOUS
  62
3
  10
 291.624
  20
 637.500
  30
0.0
  11
 291.095
  21
 640.500
  31
0.0
   0
TEXT
   8
LEVEL003
  62
3
  10
 290.824
  20
 658.500
  30
0.0
  40
 4.00000
   1
50
  50
 90.0000
   7
STANDARD
  72
1
  11
 290.824
  21
 662.500
  31
0.0
   0
LINE
   8
LEVEL003
   6
CONTINUOUS
  62
3
  10
 210.500
  20
 687.500
  30
0.0
  11
 266.810
  21
 687.500
  31
0.0
   0
LINE
   8
LEVEL003
   6
CONTINUOUS
  62
3
  10
 216.500
  20
 682.500
  30
0.0
  11
 266.810
  21
 682.500
  31
0.0
   0
LINE
   8
LEVEL003
   6
CONTINUOUS
  62
3
  10
 264.810
  20
 687.500
  30
0.0
  11
 264.810
  21
 682.500
  31
0.0
   0
LINE
   8
LEVEL003
   6
CONTINUOUS
  62
3
  10
 264.810
  20
 682.500
  30
0.0
  11
 264.810
  21
 674.167
  31
0.0
   0
LINE
   8
LEVEL003
   6
CONTINUOUS
  62
3
  10
 264.810
  20
 687.500
  30
0.0
  11
 265.339
  21
 690.500
  31
0.0
   0
LINE
   8
LEVEL003
   6
CONTINUOUS
  62
3
  10
 264.810
  20
 687.500
  30
0.0
  11
 264.281
  21
 690.500
  31
0.0
   0
LINE
   8
LEVEL003
   6
CONTINUOUS
  62
3
  10
 264.810
  20
 682.500
  30
0.0
  11
 264.281
  21
 679.500
  31
0.0
   0
LINE
   8
LEVEL003
   6
CONTINUOUS
  62
3
  10
 264.810
  20
 682.500
  30
0.0
  11
 265.339
  21
 679.500
  31
0.0
   0
LINE
   8
LEVEL003
   6
CONTINUOUS
  62
3
  10
 264.810
  20
 687.500
  30
0.0
  11
 264.810
  21
 691.250
  31
0.0
   0
LINE
   8
LEVEL003
   6
CONTINUOUS
  62
3
  10
 264.810
  20
 682.500
  30
0.0
  11
 264.810
  21
 674.167
  31
0.0
   0
TEXT
   8
LEVEL003
  62
3
  10
 264.010
  20
 674.167
  30
0.0
  40
 4.00000
   1
5
  50
 90.0000
   7
STANDARD
  72
1
  11
 264.010
  21
 676.167
  31
0.0
   0
LINE
   8
LEVEL003
   6
CONTINUOUS
  62
3
  10
 184.000
  20
 692.500
  30
0.0
  11
 266.810
  21
 692.500
  31
0.0
   0
LINE
   8
LEVEL003
   6
CONTINUOUS
  62
3
  10
 210.500
  20
 687.500
  30
0.0
  11
 266.810
  21
 687.500
  31
0.0
   0
LINE
   8
LEVEL003
   6
CONTINUOUS
  62
3
  10
 264.810
  20
 692.500
  30
0.0
  11
 264.810
  21
 687.500
  31
0.0
   0
LINE
   8
LEVEL003
   6
CONTINUOUS
  62
3
  10
 264.810
  20
 692.500
  30
0.0
  11
 264.810
  21
 701.500
  31
0.0
   0
LINE
   8
LEVEL003
   6
CONTINUOUS
  62
3
  10
 264.810
  20
 692.500
  30
0.0
  11
 265.339
  21
 695.500
  31
0.0
   0
LINE
   8
LEVEL003
   6
CONTINUOUS
  62
3
  10
 264.810
  20
 692.500
  30
0.0
  11
 264.281
  21
 695.500
  31
0.0
   0
LINE
   8
LEVEL003
   6
CONTINUOUS
  62
3
  10
 264.810
  20
 687.500
  30
0.0
  11
 264.281
  21
 684.500
  31
0.0
   0
LINE
   8
LEVEL003
   6
CONTINUOUS
  62
3
  10
 264.810
  20
 687.500
  30
0.0
  11
 265.339
  21
 684.500
  31
0.0
   0
LINE
   8
LEVEL003
   6
CONTINUOUS
  62
3
  10
 264.810
  20
 692.500
  30
0.0
  11
 264.810
  21
 701.500
  31
0.0
   0
LINE
   8
LEVEL003
   6
CONTINUOUS
  62
3
  10
 264.810
  20
 687.500
  30
0.0
  11
 264.810
  21
 683.750
  31
0.0
   0
TEXT
   8
LEVEL003
  62
3
  10
 264.010
  20
 697.500
  30
0.0
  40
 4.00000
   1
5
  50
 90.0000
   7
STANDARD
  72
1
  11
 264.010
  21
 699.500
  31
0.0
   0
ENDSEC
   0
EOF
