   0
SECTION
   2
HEADER
   9
$LIMMIN
  10
0.0
  20
0.0
   9
$LIMMAX
  10
 630.000
  20
 446.000
   9
$EXTMIN
  10
0.0
  20
0.0
   9
$EXTMAX
  10
 630.000
  20
 446.000
   9
$LTSCALE
  40
 12.6000
   0
ENDSEC
   0
SECTION
   2
TABLES
  0
TABLE
  2
LTYPE
 70
    25
  0
LTYPE
  2
CONTINUOUS
 70
    64
  3
Solid line
 72
    65
 73
     0
 40
0.0
  0
LTYPE
  2
BORDER
 70
    64
  3
__ __ . __ __ . __ __ . __ __ . __ __ . __ __ .
 72
    65
 73
     6
 40
1.75
 49
0.5
 49
-0.25
 49
0.5
 49
-0.25
 49
0.0
 49
-0.25
  0
LTYPE
  2
BORDER2
 70
    64
  3
__.__.__.__.__.__.__.__.__.__.__.__.__.__.__.__
 72
    65
 73
     6
 40
0.875
 49
0.25
 49
-0.125
 49
0.25
 49
-0.125
 49
0.0
 49
-0.125
  0
LTYPE
  2
BORDERX2
 70
    64
  3
____  ____  .  ____  ____  .  ____  ____  .  __
 72
    65
 73
     6
 40
3.5
 49
1.0
 49
-0.5
 49
1.0
 49
-0.5
 49
0.0
 49
-0.5
  0
LTYPE
  2
CENTER
 70
    64
  3
____ _ ____ _ ____ _ ____ _ ____ _ ____ _ ____ 
 72
    65
 73
     4
 40
2.0
 49
1.25
 49
-0.25
 49
0.25
 49
-0.25
  0
LTYPE
  2
CENTER2
 70
    64
  3
___ _ ___ _ ___ _ ___ _ ___ _ ___ _ ___ _ ___ _
 72
    65
 73
     4
 40
1.125
 49
0.75
 49
-0.125
 49
0.125
 49
-0.125
  0
LTYPE
  2
CENTERX2
 70
    64
  3
________  __  ________  __  ________  __  _____
 72
    65
 73
     4
 40
4.0
 49
2.5
 49
-0.5
 49
0.5
 49
-0.5
  0
LTYPE
  2
DASHDOT
 70
    64
  3
__ . __ . __ . __ . __ . __ . __ . __ . __ . __
 72
    65
 73
     4
 40
1.0
 49
0.5
 49
-0.25
 49
0.0
 49
-0.25
  0
LTYPE
  2
DASHDOT2
 70
    64
  3
_._._._._._._._._._._._._._._._._._._._._._._._
 72
    65
 73
     4
 40
0.5
 49
0.25
 49
-0.125
 49
0.0
 49
-0.125
  0
LTYPE
  2
DASHDOTX2
 70
    64
  3
____  .  ____  .  ____  .  ____  .  ____  .  __
 72
    65
 73
     4
 40
2.0
 49
1.0
 49
-0.5
 49
0.0
 49
-0.5
  0
LTYPE
  2
DASHED
 70
    64
  3
__ __ __ __ __ __ __ __ __ __ __ __ __ __ __ __
 72
    65
 73
     2
 40
0.75
 49
0.5
 49
-0.25
  0
LTYPE
  2
DASHED2
 70
    64
  3
_ _ _ _ _ _ _ _ _ _ _ _ _ _ _ _ _ _ _ _ _ _ _ _
 72
    65
 73
     2
 40
0.375
 49
0.25
 49
-0.125
  0
LTYPE
  2
DASHEDX2
 70
    64
  3
____  ____  ____  ____  ____  ____  ____  ____ 
 72
    65
 73
     2
 40
1.5
 49
1.0
 49
-0.5
  0
LTYPE
  2
DIVIDE
 70
    64
  3
____ . . ____ . . ____ . . ____ . . ____ . . __
 72
    65
 73
     6
 40
1.25
 49
0.5
 49
-0.25
 49
0.0
 49
-0.25
 49
0.0
 49
-0.25
  0
LTYPE
  2
DIVIDE2
 70
    64
  3
__..__..__..__..__..__..__..__..__..__..__..__.
 72
    65
 73
     6
 40
0.625
 49
0.25
 49
-0.125
 49
0.0
 49
-0.125
 49
0.0
 49
-0.125
  0
LTYPE
  2
DIVIDEX2
 70
    64
  3
________  .  .  ________  .  .  ________  .  . 
 72
    65
 73
     6
 40
2.5
 49
1.0
 49
-0.5
 49
0.0
 49
-0.5
 49
0.0
 49
-0.5
  0
LTYPE
  2
DOT
 70
    64
  3
. . . . . . . . . . . . . . . . . . . . . . . .
 72
    65
 73
     2
 40
0.25
 49
0.0
 49
-0.25
  0
LTYPE
  2
DOT2
 70
    64
  3
...............................................
 72
    65
 73
     2
 40
0.125
 49
0.0
 49
-0.125
  0
LTYPE
  2
DOTX2
 70
    64
  3
.  .  .  .  .  .  .  .  .  .  .  .  .  .  .  . 
 72
    65
 73
     2
 40
0.5
 49
0.0
 49
-0.5
  0
LTYPE
  2
HIDDEN
 70
    64
  3
__ __ __ __ __ __ __ __ __ __ __ __ __ __ __ __
 72
    65
 73
     2
 40
0.375
 49
0.25
 49
-0.125
  0
LTYPE
  2
HIDDEN2
 70
    64
  3
_ _ _ _ _ _ _ _ _ _ _ _ _ _ _ _ _ _ _ _ _ _ _ _
 72
    65
 73
     2
 40
0.1875
 49
0.125
 49
-0.0625
  0
LTYPE
  2
HIDDENX2
 70
    64
  3
____ ____ ____ ____ ____ ____ ____ ____ ____ __
 72
    65
 73
     2
 40
0.75
 49
0.5
 49
-0.25
  0
LTYPE
  2
PHANTOM
 70
    64
  3
______  __  __  ______  __  __  ______  __  __ 
 72
    65
 73
     6
 40
2.5
 49
1.25
 49
-0.25
 49
0.25
 49
-0.25
 49
0.25
 49
-0.25
  0
LTYPE
  2
PHANTOM2
 70
    64
  3
___ _ _ ___ _ _ ___ _ _ ___ _ _ ___ _ _ ___ _ _
 72
    65
 73
     6
 40
1.25
 49
0.625
 49
-0.125
 49
0.125
 49
-0.125
 49
0.125
 49
-0.125
  0
LTYPE
  2
PHANTOMX2
 70
    64
  3
____________    ____    ____    ____________   
 72
    65
 73
     6
 40
5.0
 49
2.5
 49
-0.5
 49
0.5
 49
-0.5
 49
0.5
 49
-0.5
  0
ENDTAB
  0
TABLE
  2
STYLE
 70
     2
  0
STYLE
  2
STANDARD
 70
0
 40
0.0
 41
1.0
 50
0.0
 71
0
 42
0.2
  3
TXT
  4
BIGFONT
  0
STYLE
  2
STANDARD1
 70
     4
 40
0.0
 41
1.0
 50
0.0
 71
     0
 42
0.2
  3
TXT
  4
BIGFONT
  0
ENDTAB
   0
TABLE
   2
LAYER
  70
4
   0
LAYER
   2
0
  70
0
  62
7
   6
CONTINUOUS
   0
LAYER
   2
LEVEL001
  70
0
  62
7
   6
CONTINUOUS
   0
LAYER
   2
LEVEL003
  70
0
  62
7
   6
CONTINUOUS
   0
LAYER
   2
LEVEL004
  70
0
  62
7
   6
CONTINUOUS
   0
ENDTAB
   0
ENDSEC
   0
SECTION
   2
ENTITIES
   0
LINE
   8
LEVEL003
   6
CONTINUOUS
  62
3
  10
 115.000
  20
 372.000
  30
0.0
  11
 115.000
  21
 400.500
  31
0.0
   0
LINE
   8
LEVEL003
   6
CONTINUOUS
  62
3
  10
 185.000
  20
 372.000
  30
0.0
  11
 185.000
  21
 400.500
  31
0.0
   0
LINE
   8
LEVEL003
   6
CONTINUOUS
  62
3
  10
 115.000
  20
 397.500
  30
0.0
  11
 185.000
  21
 397.500
  31
0.0
   0
LINE
   8
LEVEL003
   6
CONTINUOUS
  62
3
  10
 115.000
  20
 397.500
  30
0.0
  11
 119.500
  21
 396.707
  31
0.0
   0
LINE
   8
LEVEL003
   6
CONTINUOUS
  62
3
  10
 115.000
  20
 397.500
  30
0.0
  11
 119.500
  21
 398.293
  31
0.0
   0
LINE
   8
LEVEL003
   6
CONTINUOUS
  62
3
  10
 185.000
  20
 397.500
  30
0.0
  11
 180.500
  21
 398.293
  31
0.0
   0
LINE
   8
LEVEL003
   6
CONTINUOUS
  62
3
  10
 185.000
  20
 397.500
  30
0.0
  11
 180.500
  21
 396.707
  31
0.0
   0
TEXT
   8
LEVEL003
  62
3
  10
 144.000
  20
 398.700
  30
0.0
  40
 6.00000
   1
%%c70
   7
STANDARD
  72
1
  11
 150.000
  21
 398.700
  31
0.0
   0
LINE
   8
LEVEL003
   6
CONTINUOUS
  62
3
  10
 107.500
  20
 368.000
  30
0.0
  11
 107.500
  21
 415.500
  31
0.0
   0
LINE
   8
LEVEL003
   6
CONTINUOUS
  62
3
  10
 192.500
  20
 368.000
  30
0.0
  11
 192.500
  21
 415.500
  31
0.0
   0
LINE
   8
LEVEL003
   6
CONTINUOUS
  62
3
  10
 107.500
  20
 412.500
  30
0.0
  11
 192.500
  21
 412.500
  31
0.0
   0
LINE
   8
LEVEL003
   6
CONTINUOUS
  62
3
  10
 107.500
  20
 412.500
  30
0.0
  11
 112.000
  21
 411.707
  31
0.0
   0
LINE
   8
LEVEL003
   6
CONTINUOUS
  62
3
  10
 107.500
  20
 412.500
  30
0.0
  11
 112.000
  21
 413.293
  31
0.0
   0
LINE
   8
LEVEL003
   6
CONTINUOUS
  62
3
  10
 192.500
  20
 412.500
  30
0.0
  11
 188.000
  21
 413.293
  31
0.0
   0
LINE
   8
LEVEL003
   6
CONTINUOUS
  62
3
  10
 192.500
  20
 412.500
  30
0.0
  11
 188.000
  21
 411.707
  31
0.0
   0
TEXT
   8
LEVEL003
  62
3
  10
 144.000
  20
 413.700
  30
0.0
  40
 6.00000
   1
%%c85
   7
STANDARD
  72
1
  11
 150.000
  21
 413.700
  31
0.0
   0
LINE
   8
LEVEL003
   6
CONTINUOUS
  62
3
  10
 102.500
  20
 198.000
  30
0.0
  11
 102.500
  21
 169.500
  31
0.0
   0
LINE
   8
LEVEL003
   6
CONTINUOUS
  62
3
  10
 197.500
  20
 198.000
  30
0.0
  11
 197.500
  21
 169.500
  31
0.0
   0
LINE
   8
LEVEL003
   6
CONTINUOUS
  62
3
  10
 102.500
  20
 172.500
  30
0.0
  11
 197.500
  21
 172.500
  31
0.0
   0
LINE
   8
LEVEL003
   6
CONTINUOUS
  62
3
  10
 102.500
  20
 172.500
  30
0.0
  11
 107.000
  21
 171.707
  31
0.0
   0
LINE
   8
LEVEL003
   6
CONTINUOUS
  62
3
  10
 102.500
  20
 172.500
  30
0.0
  11
 107.000
  21
 173.293
  31
0.0
   0
LINE
   8
LEVEL003
   6
CONTINUOUS
  62
3
  10
 197.500
  20
 172.500
  30
0.0
  11
 193.000
  21
 173.293
  31
0.0
   0
LINE
   8
LEVEL003
   6
CONTINUOUS
  62
3
  10
 197.500
  20
 172.500
  30
0.0
  11
 193.000
  21
 171.707
  31
0.0
   0
TEXT
   8
LEVEL003
  62
3
  10
 144.000
  20
 173.700
  30
0.0
  40
 6.00000
   1
%%c95
   7
STANDARD
  72
1
  11
 150.000
  21
 173.700
  31
0.0
   0
LINE
   8
LEVEL003
   6
CONTINUOUS
  62
3
  10
 87.5000
  20
 203.000
  30
0.0
  11
 87.5000
  21
 154.500
  31
0.0
   0
LINE
   8
LEVEL003
   6
CONTINUOUS
  62
3
  10
 212.500
  20
 203.000
  30
0.0
  11
 212.500
  21
 154.500
  31
0.0
   0
LINE
   8
LEVEL003
   6
CONTINUOUS
  62
3
  10
 87.5000
  20
 157.500
  30
0.0
  11
 212.500
  21
 157.500
  31
0.0
   0
LINE
   8
LEVEL003
   6
CONTINUOUS
  62
3
  10
 87.5000
  20
 157.500
  30
0.0
  11
 92.0000
  21
 156.707
  31
0.0
   0
LINE
   8
LEVEL003
   6
CONTINUOUS
  62
3
  10
 87.5000
  20
 157.500
  30
0.0
  11
 92.0000
  21
 158.293
  31
0.0
   0
LINE
   8
LEVEL003
   6
CONTINUOUS
  62
3
  10
 212.500
  20
 157.500
  30
0.0
  11
 208.000
  21
 158.293
  31
0.0
   0
LINE
   8
LEVEL003
   6
CONTINUOUS
  62
3
  10
 212.500
  20
 157.500
  30
0.0
  11
 208.000
  21
 156.707
  31
0.0
   0
TEXT
   8
LEVEL003
  62
3
  10
 142.500
  20
 158.700
  30
0.0
  40
 6.00000
   1
%%c125
   7
STANDARD
  72
1
  11
 150.000
  21
 158.700
  31
0.0
   0
LINE
   8
LEVEL001
   6
CONTINUOUS
  62
7
  10
 89.5000
  20
 366.500
  30
0.0
  11
 90.5000
  21
 367.500
  31
0.0
   0
LINE
   8
LEVEL001
   6
CONTINUOUS
  62
7
  10
 89.5000
  20
 362.500
  30
0.0
  11
 89.5000
  21
 366.500
  31
0.0
   0
LINE
   8
LEVEL001
   6
CONTINUOUS
  62
7
  10
 88.5000
  20
 362.500
  30
0.0
  11
 87.5000
  21
 361.500
  31
0.0
   0
LINE
   8
LEVEL001
   6
CONTINUOUS
  62
7
  10
 87.5000
  20
 361.500
  30
0.0
  11
 87.5000
  21
 313.768
  31
0.0
   0
LINE
   8
LEVEL001
   6
CONTINUOUS
  62
3
  10
 88.5000
  20
 317.500
  30
0.0
  11
 87.5000
  21
 313.768
  31
0.0
   0
LINE
   8
LEVEL001
   6
CONTINUOUS
  62
7
  10
 115.000
  20
 370.500
  30
0.0
  11
 117.000
  21
 372.500
  31
0.0
   0
LINE
   8
LEVEL001
   6
CONTINUOUS
  62
7
  10
 183.000
  20
 372.500
  30
0.0
  11
 117.000
  21
 372.500
  31
0.0
   0
LINE
   8
LEVEL001
   6
DASHDOT
  62
1
  10
 84.5000
  20
 362.500
  30
0.0
  11
 84.5000
  21
 317.500
  31
0.0
   0
LINE
   8
LEVEL001
   6
DASHDOT
  62
1
  10
 88.5000
  20
 362.500
  30
0.0
  11
 84.5000
  21
 362.500
  31
0.0
   0
LINE
   8
LEVEL001
   6
DASHDOT
  62
1
  10
 87.5000
  20
 317.500
  30
0.0
  11
 84.5000
  21
 317.500
  31
0.0
   0
LINE
   8
LEVEL001
   6
CONTINUOUS
  62
7
  10
 87.5000
  20
 204.500
  30
0.0
  11
 87.5000
  21
 313.768
  31
0.0
   0
LINE
   8
LEVEL001
   6
CONTINUOUS
  62
7
  10
 89.5000
  20
 202.500
  30
0.0
  11
 210.500
  21
 202.500
  31
0.0
   0
LINE
   8
LEVEL001
   6
CONTINUOUS
  62
7
  10
 87.5000
  20
 204.500
  30
0.0
  11
 89.5000
  21
 202.500
  31
0.0
   0
LINE
   8
LEVEL003
   6
CONTINUOUS
  62
3
  10
 102.500
  20
 292.500
  30
0.0
  11
 197.500
  21
 292.500
  31
0.0
   0
LINE
   8
LEVEL003
   6
CONTINUOUS
  62
3
  10
 102.500
  20
 292.500
  30
0.0
  11
 107.000
  21
 291.707
  31
0.0
   0
LINE
   8
LEVEL003
   6
CONTINUOUS
  62
3
  10
 102.500
  20
 292.500
  30
0.0
  11
 107.000
  21
 293.293
  31
0.0
   0
LINE
   8
LEVEL003
   6
CONTINUOUS
  62
3
  10
 197.500
  20
 292.500
  30
0.0
  11
 193.000
  21
 293.293
  31
0.0
   0
LINE
   8
LEVEL003
   6
CONTINUOUS
  62
3
  10
 197.500
  20
 292.500
  30
0.0
  11
 193.000
  21
 291.707
  31
0.0
   0
TEXT
   8
LEVEL003
  62
3
  10
 144.000
  20
 293.700
  30
0.0
  40
 6.00000
   1
%%c95
   7
STANDARD
  72
1
  11
 150.000
  21
 293.700
  31
0.0
   0
TEXT
   8
LEVEL003
  62
3
  10
 232.500
  20
 187.500
  30
0.0
  40
 6.00000
   1
ＮＰＴ３／８
   7
STANDARD
   0
LINE
   8
LEVEL003
   6
CONTINUOUS
  62
3
  10
 215.806
  20
 223.066
  30
0.0
  11
 232.500
  21
 187.500
  31
0.0
   0
LINE
   8
LEVEL003
   6
CONTINUOUS
  62
3
  10
 215.806
  20
 223.066
  30
0.0
  11
 217.000
  21
 218.655
  31
0.0
   0
LINE
   8
LEVEL003
   6
CONTINUOUS
  62
3
  10
 215.806
  20
 223.066
  30
0.0
  11
 218.436
  21
 219.329
  31
0.0
   0
LINE
   8
LEVEL001
   6
CONTINUOUS
  62
3
  10
 222.500
  20
 240.144
  30
0.0
  11
 218.884
  21
 239.175
  31
0.0
   0
LINE
   8
LEVEL001
   6
CONTINUOUS
  62
3
  10
 222.500
  20
 222.856
  30
0.0
  11
 218.884
  21
 223.826
  31
0.0
   0
LINE
   8
LEVEL001
   6
CONTINUOUS
  62
7
  10
 222.500
  20
 240.144
  30
0.0
  11
 223.984
  21
 241.000
  31
0.0
   0
LINE
   8
LEVEL001
   6
CONTINUOUS
  62
7
  10
 239.500
  20
 241.000
  30
0.0
  11
 223.984
  21
 241.000
  31
0.0
   0
LINE
   8
LEVEL001
   6
CONTINUOUS
  62
7
  10
 222.500
  20
 222.856
  30
0.0
  11
 223.984
  21
 222.000
  31
0.0
   0
LINE
   8
LEVEL001
   6
CONTINUOUS
  62
7
  10
 239.500
  20
 222.000
  30
0.0
  11
 223.984
  21
 222.000
  31
0.0
   0
ARC
   8
LEVEL001
   6
CONTINUOUS
  62
7
  10
 241.000
  20
 244.500
  30
0.0
  40
 1.50000
  50
 90.0000
  51
 180.000
   0
LINE
   8
LEVEL001
   6
CONTINUOUS
  62
7
  10
 241.000
  20
 246.000
  30
0.0
  11
 246.000
  21
 246.000
  31
0.0
   0
ARC
   8
LEVEL001
   6
CONTINUOUS
  62
7
  10
 241.000
  20
 218.500
  30
0.0
  40
 1.50000
  50
 180.000
  51
 270.000
   0
LINE
   8
LEVEL001
   6
CONTINUOUS
  62
7
  10
 239.500
  20
 218.500
  30
0.0
  11
 239.500
  21
 244.500
  31
0.0
   0
LINE
   8
LEVEL001
   6
CONTINUOUS
  62
7
  10
 241.000
  20
 217.000
  30
0.0
  11
 246.000
  21
 217.000
  31
0.0
   0
LINE
   8
LEVEL001
   6
CONTINUOUS
  62
7
  10
 223.984
  20
 222.000
  30
0.0
  11
 223.984
  21
 225.669
  31
0.0
   0
LINE
   8
LEVEL001
   6
CONTINUOUS
  62
7
  10
 223.984
  20
 237.331
  30
0.0
  11
 223.984
  21
 241.000
  31
0.0
   0
LINE
   8
LEVEL001
   6
CONTINUOUS
  62
7
  10
 218.500
  20
 227.461
  30
0.0
  11
 232.500
  21
 237.331
  31
0.0
   0
LINE
   8
LEVEL001
   6
CONTINUOUS
  62
7
  10
 218.500
  20
 235.539
  30
0.0
  11
 232.500
  21
 225.669
  31
0.0
   0
LINE
   8
LEVEL001
   6
CONTINUOUS
  62
3
  10
 218.884
  20
 239.174
  30
0.0
  11
 218.884
  21
 235.539
  31
0.0
   0
LINE
   8
LEVEL001
   6
CONTINUOUS
  62
3
  10
 218.884
  20
 227.461
  30
0.0
  11
 218.884
  21
 223.826
  31
0.0
   0
LINE
   8
LEVEL001
   6
CONTINUOUS
  62
7
  10
 222.500
  20
 240.144
  30
0.0
  11
 222.500
  21
 235.797
  31
0.0
   0
LINE
   8
LEVEL001
   6
CONTINUOUS
  62
7
  10
 222.500
  20
 227.203
  30
0.0
  11
 222.500
  21
 222.856
  31
0.0
   0
LINE
   8
LEVEL001
   6
CONTINUOUS
  62
7
  10
 218.500
  20
 227.461
  30
0.0
  11
 218.500
  21
 235.539
  31
0.0
   0
LINE
   8
LEVEL001
   6
CONTINUOUS
  62
7
  10
 218.500
  20
 235.539
  30
0.0
  11
 222.500
  21
 235.797
  31
0.0
   0
LINE
   8
LEVEL001
   6
CONTINUOUS
  62
7
  10
 222.500
  20
 235.797
  30
0.0
  11
 223.984
  21
 237.331
  31
0.0
   0
LINE
   8
LEVEL001
   6
CONTINUOUS
  62
7
  10
 223.984
  20
 237.331
  30
0.0
  11
 232.500
  21
 237.331
  31
0.0
   0
LINE
   8
LEVEL001
   6
CONTINUOUS
  62
7
  10
 232.500
  20
 237.331
  30
0.0
  11
 232.500
  21
 225.669
  31
0.0
   0
LINE
   8
LEVEL001
   6
CONTINUOUS
  62
7
  10
 232.500
  20
 225.669
  30
0.0
  11
 223.984
  21
 225.669
  31
0.0
   0
LINE
   8
LEVEL001
   6
CONTINUOUS
  62
7
  10
 223.984
  20
 225.669
  30
0.0
  11
 222.500
  21
 227.203
  31
0.0
   0
LINE
   8
LEVEL001
   6
CONTINUOUS
  62
7
  10
 222.500
  20
 227.203
  30
0.0
  11
 218.500
  21
 227.461
  31
0.0
   0
LINE
   8
LEVEL001
   6
DASHDOT
  62
1
  10
 282.500
  20
 231.500
  30
0.0
  11
 195.000
  21
 231.500
  31
0.0
   0
LINE
   8
LEVEL003
   6
CONTINUOUS
  62
3
  10
 212.000
  20
 202.500
  30
0.0
  11
 310.500
  21
 202.500
  31
0.0
   0
LINE
   8
LEVEL003
   6
CONTINUOUS
  62
3
  10
 284.000
  20
 231.500
  30
0.0
  11
 310.500
  21
 231.500
  31
0.0
   0
LINE
   8
LEVEL003
   6
CONTINUOUS
  62
3
  10
 307.500
  20
 202.500
  30
0.0
  11
 307.500
  21
 231.500
  31
0.0
   0
LINE
   8
LEVEL003
   6
CONTINUOUS
  62
3
  10
 307.500
  20
 202.500
  30
0.0
  11
 308.293
  21
 207.000
  31
0.0
   0
LINE
   8
LEVEL003
   6
CONTINUOUS
  62
3
  10
 307.500
  20
 202.500
  30
0.0
  11
 306.707
  21
 207.000
  31
0.0
   0
LINE
   8
LEVEL003
   6
CONTINUOUS
  62
3
  10
 307.500
  20
 231.500
  30
0.0
  11
 306.707
  21
 227.000
  31
0.0
   0
LINE
   8
LEVEL003
   6
CONTINUOUS
  62
3
  10
 307.500
  20
 231.500
  30
0.0
  11
 308.293
  21
 227.000
  31
0.0
   0
TEXT
   8
LEVEL003
  62
3
  10
 306.300
  20
 214.000
  30
0.0
  40
 6.00000
   1
29
  50
 90.0000
  41
 0.500000
   7
STANDARD
  72
1
  11
 306.300
  21
 217.000
  31
0.0
   0
LINE
   8
LEVEL003
   6
CONTINUOUS
  62
3
  10
 212.000
  20
 202.500
  30
0.0
  11
 340.500
  21
 202.500
  31
0.0
   0
LINE
   8
LEVEL003
   6
CONTINUOUS
  62
3
  10
 184.500
  20
 372.500
  30
0.0
  11
 340.500
  21
 372.500
  31
0.0
   0
LINE
   8
LEVEL003
   6
CONTINUOUS
  62
3
  10
 337.500
  20
 202.500
  30
0.0
  11
 337.500
  21
 372.500
  31
0.0
   0
LINE
   8
LEVEL003
   6
CONTINUOUS
  62
3
  10
 337.500
  20
 202.500
  30
0.0
  11
 338.293
  21
 207.000
  31
0.0
   0
LINE
   8
LEVEL003
   6
CONTINUOUS
  62
3
  10
 337.500
  20
 202.500
  30
0.0
  11
 336.707
  21
 207.000
  31
0.0
   0
LINE
   8
LEVEL003
   6
CONTINUOUS
  62
3
  10
 337.500
  20
 372.500
  30
0.0
  11
 336.707
  21
 368.000
  31
0.0
   0
LINE
   8
LEVEL003
   6
CONTINUOUS
  62
3
  10
 337.500
  20
 372.500
  30
0.0
  11
 338.293
  21
 368.000
  31
0.0
   0
TEXT
   8
LEVEL003
  62
3
  10
 336.300
  20
 283.000
  30
0.0
  40
 6.00000
   1
170
  50
 90.0000
  41
 0.500000
   7
STANDARD
  72
1
  11
 336.300
  21
 287.500
  31
0.0
   0
LINE
   8
LEVEL001
   6
CONTINUOUS
  62
7
  10
 210.500
  20
 366.500
  30
0.0
  11
 209.500
  21
 367.500
  31
0.0
   0
LINE
   8
LEVEL001
   6
CONTINUOUS
  62
7
  10
 210.500
  20
 362.500
  30
0.0
  11
 210.500
  21
 366.500
  31
0.0
   0
LINE
   8
LEVEL001
   6
CONTINUOUS
  62
7
  10
 211.500
  20
 362.500
  30
0.0
  11
 212.500
  21
 361.500
  31
0.0
   0
LINE
   8
LEVEL001
   6
CONTINUOUS
  62
7
  10
 212.500
  20
 361.500
  30
0.0
  11
 212.500
  21
 313.768
  31
0.0
   0
LINE
   8
LEVEL001
   6
CONTINUOUS
  62
3
  10
 211.500
  20
 317.500
  30
0.0
  11
 212.500
  21
 313.768
  31
0.0
   0
LINE
   8
LEVEL001
   6
CONTINUOUS
  62
7
  10
 185.000
  20
 370.500
  30
0.0
  11
 183.000
  21
 372.500
  31
0.0
   0
LINE
   8
LEVEL001
   6
DASHDOT
  62
1
  10
 215.500
  20
 362.500
  30
0.0
  11
 215.500
  21
 317.500
  31
0.0
   0
LINE
   8
LEVEL001
   6
DASHDOT
  62
1
  10
 211.500
  20
 362.500
  30
0.0
  11
 215.500
  21
 362.500
  31
0.0
   0
LINE
   8
LEVEL001
   6
DASHDOT
  62
1
  10
 212.500
  20
 317.500
  30
0.0
  11
 215.500
  21
 317.500
  31
0.0
   0
LINE
   8
LEVEL001
   6
DASHDOT
  62
1
  10
 150.000
  20
 292.500
  30
0.0
  11
 150.000
  21
 195.000
  31
0.0
   0
LINE
   8
LEVEL001
   6
DASHDOT
  62
1
  10
 150.000
  20
 382.500
  30
0.0
  11
 150.000
  21
 300.000
  31
0.0
   0
LINE
   8
LEVEL001
   6
CONTINUOUS
  62
7
  10
 212.500
  20
 204.500
  30
0.0
  11
 210.500
  21
 202.500
  31
0.0
   0
TEXT
   8
LEVEL003
  62
3
  10
 225.000
  20
 330.000
  30
0.0
  40
 6.00000
   1
Ｍ１２５×２
   7
STANDARD
   0
LINE
   8
LEVEL003
   6
CONTINUOUS
  62
3
  10
 212.500
  20
 337.500
  30
0.0
  11
 225.000
  21
 330.000
  31
0.0
   0
LINE
   8
LEVEL003
   6
CONTINUOUS
  62
3
  10
 212.500
  20
 337.500
  30
0.0
  11
 215.950
  21
 334.504
  31
0.0
   0
LINE
   8
LEVEL003
   6
CONTINUOUS
  62
3
  10
 212.500
  20
 337.500
  30
0.0
  11
 216.767
  21
 335.865
  31
0.0
   0
LINE
   8
LEVEL001
   6
CONTINUOUS
  62
3
  10
 246.000
  20
 218.500
  30
0.0
  11
 257.000
  21
 218.500
  31
0.0
   0
LINE
   8
LEVEL001
   6
CONTINUOUS
  62
3
  10
 246.000
  20
 220.500
  30
0.0
  11
 257.000
  21
 220.500
  31
0.0
   0
LINE
   8
LEVEL001
   6
CONTINUOUS
  62
3
  10
 246.000
  20
 222.500
  30
0.0
  11
 257.000
  21
 222.500
  31
0.0
   0
LINE
   8
LEVEL001
   6
CONTINUOUS
  62
3
  10
 246.000
  20
 224.500
  30
0.0
  11
 257.000
  21
 224.500
  31
0.0
   0
LINE
   8
LEVEL001
   6
CONTINUOUS
  62
3
  10
 246.000
  20
 226.500
  30
0.0
  11
 257.000
  21
 226.500
  31
0.0
   0
LINE
   8
LEVEL001
   6
CONTINUOUS
  62
3
  10
 246.000
  20
 228.500
  30
0.0
  11
 257.000
  21
 228.500
  31
0.0
   0
LINE
   8
LEVEL001
   6
CONTINUOUS
  62
3
  10
 246.000
  20
 230.500
  30
0.0
  11
 257.000
  21
 230.500
  31
0.0
   0
LINE
   8
LEVEL001
   6
CONTINUOUS
  62
3
  10
 246.000
  20
 232.500
  30
0.0
  11
 257.000
  21
 232.500
  31
0.0
   0
LINE
   8
LEVEL001
   6
CONTINUOUS
  62
3
  10
 246.000
  20
 234.500
  30
0.0
  11
 257.000
  21
 234.500
  31
0.0
   0
LINE
   8
LEVEL001
   6
CONTINUOUS
  62
3
  10
 246.000
  20
 236.500
  30
0.0
  11
 257.000
  21
 236.500
  31
0.0
   0
LINE
   8
LEVEL001
   6
CONTINUOUS
  62
3
  10
 246.000
  20
 238.500
  30
0.0
  11
 257.000
  21
 238.500
  31
0.0
   0
LINE
   8
LEVEL001
   6
CONTINUOUS
  62
3
  10
 246.000
  20
 240.500
  30
0.0
  11
 257.000
  21
 240.500
  31
0.0
   0
LINE
   8
LEVEL001
   6
CONTINUOUS
  62
3
  10
 246.000
  20
 242.500
  30
0.0
  11
 257.000
  21
 242.500
  31
0.0
   0
LINE
   8
LEVEL001
   6
CONTINUOUS
  62
3
  10
 246.000
  20
 244.500
  30
0.0
  11
 257.000
  21
 244.500
  31
0.0
   0
LINE
   8
LEVEL001
   6
CONTINUOUS
  62
7
  10
 246.000
  20
 216.500
  30
0.0
  11
 246.000
  21
 246.500
  31
0.0
   0
LINE
   8
LEVEL001
   6
CONTINUOUS
  62
7
  10
 246.000
  20
 246.500
  30
0.0
  11
 257.000
  21
 246.500
  31
0.0
   0
LINE
   8
LEVEL001
   6
CONTINUOUS
  62
7
  10
 257.000
  20
 246.500
  30
0.0
  11
 257.000
  21
 216.500
  31
0.0
   0
LINE
   8
LEVEL001
   6
CONTINUOUS
  62
7
  10
 257.000
  20
 216.500
  30
0.0
  11
 246.000
  21
 216.500
  31
0.0
   0
ARC
   8
LEVEL001
   6
CONTINUOUS
  62
7
  10
 262.000
  20
 244.500
  30
0.0
  40
 1.50000
  50
 0.868503E-11
  51
 90.0000
   0
LINE
   8
LEVEL001
   6
CONTINUOUS
  62
7
  10
 257.000
  20
 246.000
  30
0.0
  11
 262.000
  21
 246.000
  31
0.0
   0
ARC
   8
LEVEL001
   6
CONTINUOUS
  62
7
  10
 262.000
  20
 218.500
  30
0.0
  40
 1.50000
  50
 270.000
  51
0.0
   0
LINE
   8
LEVEL001
   6
CONTINUOUS
  62
7
  10
 257.000
  20
 217.000
  30
0.0
  11
 262.000
  21
 217.000
  31
0.0
   0
LINE
   8
LEVEL001
   6
CONTINUOUS
  62
7
  10
 263.500
  20
 244.500
  30
0.0
  11
 263.500
  21
 218.500
  31
0.0
   0
ARC
   8
LEVEL001
   6
DASHDOT
  62
1
  10
 272.500
  20
 244.500
  30
0.0
  40
 1.00000
  50
0.0
  51
 90.0004
   0
LINE
   8
LEVEL001
   6
DASHDOT
  62
1
  10
 264.500
  20
 245.500
  30
0.0
  11
 272.500
  21
 245.500
  31
0.0
   0
ARC
   8
LEVEL001
   6
DASHDOT
  62
1
  10
 272.500
  20
 218.500
  30
0.0
  40
 1.00000
  50
 270.000
  51
 0.435426E-3
   0
LINE
   8
LEVEL001
   6
DASHDOT
  62
1
  10
 264.500
  20
 217.500
  30
0.0
  11
 272.500
  21
 217.500
  31
0.0
   0
LINE
   8
LEVEL001
   6
DASHDOT
  62
1
  10
 273.500
  20
 244.500
  30
0.0
  11
 273.500
  21
 218.500
  31
0.0
   0
CIRCLE
   8
LEVEL001
   6
DASHDOT
  62
1
  10
 276.500
  20
 231.500
  30
0.0
  40
 1.50000
   0
ARC
   8
LEVEL001
   6
DASHDOT
  62
1
  10
 264.500
  20
 218.500
  30
0.0
  40
 1.00000
  50
 180.000
  51
 270.000
   0
ARC
   8
LEVEL001
   6
DASHDOT
  62
1
  10
 264.500
  20
 244.500
  30
0.0
  40
 1.00000
  50
 89.9996
  51
 180.000
   0
ARC
   8
LEVEL001
   6
DASHDOT
  62
1
  10
 275.500
  20
 237.000
  30
0.0
  40
 2.00000
  50
 180.000
  51
 270.000
   0
ARC
   8
LEVEL001
   6
DASHDOT
  62
1
  10
 275.500
  20
 226.000
  30
0.0
  40
 2.00000
  50
 90.0002
  51
 180.000
   0
LINE
   8
LEVEL001
   6
DASHDOT
  62
1
  10
 275.500
  20
 235.000
  30
0.0
  11
 276.000
  21
 235.000
  31
0.0
   0
LINE
   8
LEVEL001
   6
DASHDOT
  62
1
  10
 275.500
  20
 228.000
  30
0.0
  11
 276.000
  21
 228.000
  31
0.0
   0
ARC
   8
LEVEL001
   6
DASHDOT
  62
1
  10
 276.000
  20
 231.500
  30
0.0
  40
 3.50000
  50
 270.000
  51
 90.0000
   0
LINE
   8
LEVEL003
   6
CONTINUOUS
  62
3
  10
 102.500
  20
 202.500
  30
0.0
  11
 75.0000
  21
 172.500
  31
0.0
   0
LINE
   8
LEVEL003
   6
CONTINUOUS
  62
3
  10
 102.500
  20
 202.500
  30
0.0
  11
 98.8743
  21
 199.719
  31
0.0
   0
LINE
   8
LEVEL003
   6
CONTINUOUS
  62
3
  10
 102.500
  20
 202.500
  30
0.0
  11
 100.044
  21
 198.647
  31
0.0
   0
CIRCLE
   8
LEVEL001
   6
CONTINUOUS
  62
7
  10
 149.700
  20
 75.0000
  30
0.0
  40
 62.5000
   0
CIRCLE
   8
LEVEL001
   6
CONTINUOUS
  62
7
  10
 149.700
  20
 75.0000
  30
0.0
  40
 60.5000
   0
CIRCLE
   8
LEVEL001
   6
CONTINUOUS
  62
7
  10
 149.700
  20
 75.0000
  30
0.0
  40
 9.83102
   0
LINE
   8
LEVEL001
   6
DASHDOT
  62
1
  10
 149.700
  20
 147.141
  30
0.0
  11
 149.700
  21
 2.85938
  31
0.0
   0
LINE
   8
LEVEL001
   6
CONTINUOUS
  62
7
  10
 150.000
  20
 79.6188
  30
0.0
  11
 154.000
  21
 77.3094
  31
0.0
   0
LINE
   8
LEVEL001
   6
CONTINUOUS
  62
7
  10
 154.000
  20
 77.3094
  30
0.0
  11
 154.000
  21
 72.6906
  31
0.0
   0
LINE
   8
LEVEL001
   6
CONTINUOUS
  62
7
  10
 154.000
  20
 72.6906
  30
0.0
  11
 150.000
  21
 70.3812
  31
0.0
   0
LINE
   8
LEVEL001
   6
CONTINUOUS
  62
7
  10
 150.000
  20
 70.3812
  30
0.0
  11
 146.000
  21
 72.6906
  31
0.0
   0
LINE
   8
LEVEL001
   6
CONTINUOUS
  62
7
  10
 146.000
  20
 72.6906
  30
0.0
  11
 146.000
  21
 77.3094
  31
0.0
   0
LINE
   8
LEVEL001
   6
CONTINUOUS
  62
7
  10
 146.000
  20
 77.3094
  30
0.0
  11
 150.000
  21
 79.6188
  31
0.0
   0
CIRCLE
   8
LEVEL001
   6
CONTINUOUS
  62
7
  10
 150.000
  20
 75.0000
  30
0.0
  40
 8.33100
   0
CIRCLE
   8
LEVEL001
   6
CONTINUOUS
  62
3
  10
 150.000
  20
 75.0000
  30
0.0
  40
 7.47500
   0
CIRCLE
   8
LEVEL001
   6
DASHDOT
  62
1
  10
 150.000
  20
 75.0000
  30
0.0
  40
 47.5000
   0
CIRCLE
   8
LEVEL001
   6
CONTINUOUS
  62
7
  10
 183.588
  20
 41.4124
  30
0.0
  40
 5.12500
   0
CIRCLE
   8
LEVEL001
   6
CONTINUOUS
  62
3
  10
 183.588
  20
 41.4124
  30
0.0
  40
 6.00000
   0
LINE
   8
LEVEL001
   6
DASHDOT
  62
1
  10
 189.952
  20
 35.0485
  30
0.0
  11
 177.224
  21
 47.7764
  31
0.0
   0
LINE
   8
LEVEL001
   6
CONTINUOUS
  62
3
  10
 218.584
  20
 82.5000
  30
0.0
  11
 218.584
  21
 67.5000
  31
0.0
   0
LINE
   8
LEVEL001
   6
CONTINUOUS
  62
7
  10
 222.200
  20
 82.5000
  30
0.0
  11
 222.200
  21
 67.5000
  31
0.0
   0
LINE
   8
LEVEL001
   6
CONTINUOUS
  62
7
  10
 223.684
  20
 67.5000
  30
0.0
  11
 223.684
  21
 82.5000
  31
0.0
   0
LINE
   8
LEVEL001
   6
CONTINUOUS
  62
7
  10
 218.200
  20
 83.5185
  30
0.0
  11
 212.200
  21
 83.3310
  31
0.0
   0
LINE
   8
LEVEL001
   6
CONTINUOUS
  62
3
  10
 218.200
  20
 82.6625
  30
0.0
  11
 212.200
  21
 82.4750
  31
0.0
   0
LINE
   8
LEVEL001
   6
CONTINUOUS
  62
3
  10
 218.195
  20
 67.3376
  30
0.0
  11
 212.200
  21
 67.5250
  31
0.0
   0
LINE
   8
LEVEL001
   6
CONTINUOUS
  62
7
  10
 218.200
  20
 66.4815
  30
0.0
  11
 212.200
  21
 66.6690
  31
0.0
   0
CIRCLE
   8
LEVEL001
   6
CONTINUOUS
  62
7
  10
 183.588
  20
 108.588
  30
0.0
  40
 5.12500
   0
CIRCLE
   8
LEVEL001
   6
CONTINUOUS
  62
3
  10
 183.588
  20
 108.588
  30
0.0
  40
 6.00000
   0
LINE
   8
LEVEL001
   6
DASHDOT
  62
1
  10
 189.952
  20
 114.952
  30
0.0
  11
 177.224
  21
 102.224
  31
0.0
   0
CIRCLE
   8
LEVEL001
   6
CONTINUOUS
  62
7
  10
 115.813
  20
 41.4124
  30
0.0
  40
 5.12500
   0
CIRCLE
   8
LEVEL001
   6
CONTINUOUS
  62
3
  10
 115.813
  20
 41.4124
  30
0.0
  40
 6.00000
   0
LINE
   8
LEVEL001
   6
DASHDOT
  62
1
  10
 109.449
  20
 35.0485
  30
0.0
  11
 122.177
  21
 47.7764
  31
0.0
   0
CIRCLE
   8
LEVEL001
   6
CONTINUOUS
  62
7
  10
 115.813
  20
 108.588
  30
0.0
  40
 5.12500
   0
CIRCLE
   8
LEVEL001
   6
CONTINUOUS
  62
3
  10
 115.813
  20
 108.588
  30
0.0
  40
 6.00000
   0
LINE
   8
LEVEL001
   6
DASHDOT
  62
1
  10
 109.449
  20
 114.952
  30
0.0
  11
 122.177
  21
 102.224
  31
0.0
   0
ARC
   8
LEVEL001
   6
CONTINUOUS
  62
7
  10
 240.700
  20
 88.0000
  30
0.0
  40
 1.50000
  50
 90.0000
  51
 180.000
   0
LINE
   8
LEVEL001
   6
CONTINUOUS
  62
7
  10
 240.700
  20
 89.5000
  30
0.0
  11
 245.700
  21
 89.5000
  31
0.0
   0
ARC
   8
LEVEL001
   6
CONTINUOUS
  62
7
  10
 240.700
  20
 62.0000
  30
0.0
  40
 1.50000
  50
 180.000
  51
 270.000
   0
LINE
   8
LEVEL001
   6
CONTINUOUS
  62
7
  10
 239.200
  20
 62.0000
  30
0.0
  11
 239.200
  21
 88.0000
  31
0.0
   0
LINE
   8
LEVEL001
   6
CONTINUOUS
  62
7
  10
 240.700
  20
 60.5000
  30
0.0
  11
 245.700
  21
 60.5000
  31
0.0
   0
ARC
   8
LEVEL001
   6
CONTINUOUS
  62
7
  10
 261.700
  20
 88.0000
  30
0.0
  40
 1.50000
  50
0.0
  51
 90.0000
   0
LINE
   8
LEVEL001
   6
CONTINUOUS
  62
7
  10
 256.700
  20
 89.5000
  30
0.0
  11
 261.700
  21
 89.5000
  31
0.0
   0
ARC
   8
LEVEL001
   6
CONTINUOUS
  62
7
  10
 261.700
  20
 62.0000
  30
0.0
  40
 1.50000
  50
 270.000
  51
 0.328403E-9
   0
LINE
   8
LEVEL001
   6
CONTINUOUS
  62
7
  10
 256.700
  20
 60.5000
  30
0.0
  11
 261.700
  21
 60.5000
  31
0.0
   0
LINE
   8
LEVEL001
   6
CONTINUOUS
  62
7
  10
 263.200
  20
 88.0000
  30
0.0
  11
 263.200
  21
 62.0000
  31
0.0
   0
ARC
   8
LEVEL001
   6
DASHDOT
  62
1
  10
 272.200
  20
 88.0000
  30
0.0
  40
 1.00000
  50
0.0
  51
 90.0000
   0
LINE
   8
LEVEL001
   6
DASHDOT
  62
1
  10
 264.200
  20
 89.0000
  30
0.0
  11
 272.200
  21
 89.0000
  31
0.0
   0
ARC
   8
LEVEL001
   6
DASHDOT
  62
1
  10
 272.200
  20
 62.0000
  30
0.0
  40
 1.00000
  50
 270.000
  51
 0.489347E-9
   0
LINE
   8
LEVEL001
   6
DASHDOT
  62
1
  10
 264.200
  20
 61.0000
  30
0.0
  11
 272.200
  21
 61.0000
  31
0.0
   0
LINE
   8
LEVEL001
   6
DASHDOT
  62
1
  10
 273.200
  20
 88.0000
  30
0.0
  11
 273.200
  21
 62.0000
  31
0.0
   0
ARC
   8
LEVEL001
   6
DASHDOT
  62
1
  10
 264.200
  20
 62.0000
  30
0.0
  40
 1.00000
  50
 180.000
  51
 270.000
   0
ARC
   8
LEVEL001
   6
DASHDOT
  62
1
  10
 264.200
  20
 88.0000
  30
0.0
  40
 1.00000
  50
 90.0000
  51
 180.000
   0
LINE
   8
LEVEL001
   6
CONTINUOUS
  62
3
  10
 245.700
  20
 62.0000
  30
0.0
  11
 256.700
  21
 62.0000
  31
0.0
   0
LINE
   8
LEVEL001
   6
CONTINUOUS
  62
3
  10
 245.700
  20
 64.0000
  30
0.0
  11
 256.700
  21
 64.0000
  31
0.0
   0
LINE
   8
LEVEL001
   6
CONTINUOUS
  62
3
  10
 245.700
  20
 66.0000
  30
0.0
  11
 256.700
  21
 66.0000
  31
0.0
   0
LINE
   8
LEVEL001
   6
CONTINUOUS
  62
3
  10
 245.700
  20
 68.0000
  30
0.0
  11
 256.700
  21
 68.0000
  31
0.0
   0
LINE
   8
LEVEL001
   6
CONTINUOUS
  62
3
  10
 245.700
  20
 70.0000
  30
0.0
  11
 256.700
  21
 70.0000
  31
0.0
   0
LINE
   8
LEVEL001
   6
CONTINUOUS
  62
3
  10
 245.700
  20
 72.0000
  30
0.0
  11
 256.700
  21
 72.0000
  31
0.0
   0
LINE
   8
LEVEL001
   6
CONTINUOUS
  62
3
  10
 245.700
  20
 74.0000
  30
0.0
  11
 256.700
  21
 74.0000
  31
0.0
   0
LINE
   8
LEVEL001
   6
CONTINUOUS
  62
3
  10
 245.700
  20
 76.0000
  30
0.0
  11
 256.700
  21
 76.0000
  31
0.0
   0
LINE
   8
LEVEL001
   6
CONTINUOUS
  62
3
  10
 245.700
  20
 78.0000
  30
0.0
  11
 256.700
  21
 78.0000
  31
0.0
   0
LINE
   8
LEVEL001
   6
CONTINUOUS
  62
3
  10
 245.700
  20
 80.0000
  30
0.0
  11
 256.700
  21
 80.0000
  31
0.0
   0
LINE
   8
LEVEL001
   6
CONTINUOUS
  62
3
  10
 245.700
  20
 82.0000
  30
0.0
  11
 256.700
  21
 82.0000
  31
0.0
   0
LINE
   8
LEVEL001
   6
CONTINUOUS
  62
3
  10
 245.700
  20
 84.0000
  30
0.0
  11
 256.700
  21
 84.0000
  31
0.0
   0
LINE
   8
LEVEL001
   6
CONTINUOUS
  62
3
  10
 245.700
  20
 86.0000
  30
0.0
  11
 256.700
  21
 86.0000
  31
0.0
   0
LINE
   8
LEVEL001
   6
CONTINUOUS
  62
3
  10
 245.700
  20
 88.0000
  30
0.0
  11
 256.700
  21
 88.0000
  31
0.0
   0
LINE
   8
LEVEL001
   6
DASHDOT
  62
1
  10
 273.200
  20
 77.0000
  30
0.0
  11
 279.200
  21
 77.0000
  31
0.0
   0
LINE
   8
LEVEL001
   6
DASHDOT
  62
1
  10
 279.200
  20
 77.0000
  30
0.0
  11
 279.200
  21
 73.0000
  31
0.0
   0
LINE
   8
LEVEL001
   6
DASHDOT
  62
1
  10
 279.200
  20
 73.0000
  30
0.0
  11
 273.200
  21
 73.0000
  31
0.0
   0
LINE
   8
LEVEL001
   6
CONTINUOUS
  62
7
  10
 218.200
  20
 83.5185
  30
0.0
  11
 218.200
  21
 82.5000
  31
0.0
   0
LINE
   8
LEVEL001
   6
CONTINUOUS
  62
7
  10
 218.200
  20
 82.5000
  30
0.0
  11
 232.200
  21
 82.5000
  31
0.0
   0
LINE
   8
LEVEL001
   6
CONTINUOUS
  62
7
  10
 232.200
  20
 82.5000
  30
0.0
  11
 232.200
  21
 84.5000
  31
0.0
   0
LINE
   8
LEVEL001
   6
CONTINUOUS
  62
7
  10
 232.200
  20
 84.5000
  30
0.0
  11
 239.200
  21
 84.5000
  31
0.0
   0
LINE
   8
LEVEL001
   6
CONTINUOUS
  62
7
  10
 218.200
  20
 66.4815
  30
0.0
  11
 218.200
  21
 67.5000
  31
0.0
   0
LINE
   8
LEVEL001
   6
CONTINUOUS
  62
7
  10
 218.200
  20
 67.5000
  30
0.0
  11
 232.200
  21
 67.5000
  31
0.0
   0
LINE
   8
LEVEL001
   6
CONTINUOUS
  62
7
  10
 232.200
  20
 67.5000
  30
0.0
  11
 232.200
  21
 65.5000
  31
0.0
   0
LINE
   8
LEVEL001
   6
CONTINUOUS
  62
7
  10
 232.200
  20
 65.5000
  30
0.0
  11
 239.200
  21
 65.5000
  31
0.0
   0
LINE
   8
LEVEL001
   6
CONTINUOUS
  62
7
  10
 245.700
  20
 60.0000
  30
0.0
  11
 245.700
  21
 90.0000
  31
0.0
   0
LINE
   8
LEVEL001
   6
CONTINUOUS
  62
7
  10
 245.700
  20
 90.0000
  30
0.0
  11
 256.700
  21
 90.0000
  31
0.0
   0
LINE
   8
LEVEL001
   6
CONTINUOUS
  62
7
  10
 256.700
  20
 90.0000
  30
0.0
  11
 256.700
  21
 60.0000
  31
0.0
   0
LINE
   8
LEVEL001
   6
CONTINUOUS
  62
7
  10
 256.700
  20
 60.0000
  30
0.0
  11
 245.700
  21
 60.0000
  31
0.0
   0
LINE
   8
LEVEL001
   6
DASHDOT
  62
1
  10
 282.200
  20
 75.0000
  30
0.0
  11
 77.5598
  21
 75.0000
  31
0.0
   0
LINE
   8
LEVEL001
   6
CONTINUOUS
  62
7
  10
 222.500
  20
 222.856
  30
0.0
  11
 212.500
  21
 223.169
  31
0.0
   0
LINE
   8
LEVEL001
   6
CONTINUOUS
  62
7
  10
 222.500
  20
 240.144
  30
0.0
  11
 212.500
  21
 239.831
  31
0.0
   0
LINE
   8
LEVEL001
   6
CONTINUOUS
  62
7
  10
 212.500
  20
 204.500
  30
0.0
  11
 212.500
  21
 313.768
  31
0.0
   0
LINE
   8
LEVEL001
   6
CONTINUOUS
  62
3
  10
 218.884
  20
 223.826
  30
0.0
  11
 212.500
  21
 224.025
  31
0.0
   0
LINE
   8
LEVEL001
   6
CONTINUOUS
  62
3
  10
 218.884
  20
 239.174
  30
0.0
  11
 212.500
  21
 238.975
  31
0.0
   0
LINE
   8
LEVEL001
   6
CONTINUOUS
  62
7
  10
 87.5000
  20
 204.500
  30
0.0
  11
 212.500
  21
 204.500
  31
0.0
   0
LINE
   8
LEVEL001
   6
CONTINUOUS
  62
7
  10
 108.250
  20
 369.500
  30
0.0
  11
 191.750
  21
 369.500
  31
0.0
   0
LINE
   8
LEVEL001
   6
CONTINUOUS
  62
7
  10
 90.5000
  20
 367.500
  30
0.0
  11
 209.500
  21
 367.500
  31
0.0
   0
LINE
   8
LEVEL001
   6
CONTINUOUS
  62
7
  10
 108.250
  20
 369.500
  30
0.0
  11
 107.750
  21
 367.500
  31
0.0
   0
LINE
   8
LEVEL001
   6
CONTINUOUS
  62
7
  10
 191.750
  20
 369.500
  30
0.0
  11
 192.250
  21
 367.500
  31
0.0
   0
LINE
   8
LEVEL001
   6
CONTINUOUS
  62
7
  10
 210.500
  20
 366.500
  30
0.0
  11
 89.5000
  21
 366.500
  31
0.0
   0
LINE
   8
LEVEL001
   6
CONTINUOUS
  62
7
  10
 88.5000
  20
 362.500
  30
0.0
  11
 211.500
  21
 362.500
  31
0.0
   0
LINE
   8
LEVEL001
   6
CONTINUOUS
  62
7
  10
 185.000
  20
 370.500
  30
0.0
  11
 185.000
  21
 369.500
  31
0.0
   0
LINE
   8
LEVEL001
   6
CONTINUOUS
  62
7
  10
 115.000
  20
 370.500
  30
0.0
  11
 115.000
  21
 369.500
  31
0.0
   0
LINE
   8
LEVEL001
   6
CONTINUOUS
  62
7
  10
 115.000
  20
 370.500
  30
0.0
  11
 185.000
  21
 370.500
  31
0.0
   0
LINE
   8
LEVEL001
   6
CONTINUOUS
  62
3
  10
 88.5000
  20
 362.500
  30
0.0
  11
 88.5000
  21
 317.500
  31
0.0
   0
LINE
   8
LEVEL001
   6
CONTINUOUS
  62
3
  10
 211.500
  20
 362.500
  30
0.0
  11
 211.500
  21
 317.500
  31
0.0
   0
LINE
   8
LEVEL001
   6
CONTINUOUS
  62
7
  10
 87.5000
  20
 313.768
  30
0.0
  11
 212.500
  21
 313.768
  31
0.0
   0
LINE
   8
LEVEL001
   6
CONTINUOUS
  62
3
  10
 212.500
  20
 317.500
  30
0.0
  11
 87.5000
  21
 317.500
  31
0.0
   0
LINE
   8
LEVEL001
   6
CONTINUOUS
  62
3
  10
 212.500
  20
 361.500
  30
0.0
  11
 87.5000
  21
 361.500
  31
0.0
   0
LINE
   8
LEVEL004
   6
DASHDOT
  62
1
  10
 197.500
  20
 199.500
  30
0.0
  11
 197.500
  21
 217.500
  31
0.0
   0
LINE
   8
LEVEL004
   6
DASHDOT
  62
1
  10
 102.500
  20
 199.500
  30
0.0
  11
 102.500
  21
 227.724
  31
0.0
   0
LINE
   8
LEVEL004
   6
DOT
  62
3
  10
 96.5000
  20
 202.500
  30
0.0
  11
 97.3750
  21
 203.375
  31
0.0
   0
LINE
   8
LEVEL004
   6
DOT
  62
3
  10
 97.3750
  20
 203.375
  30
0.0
  11
 97.3750
  21
 221.766
  31
0.0
   0
LINE
   8
LEVEL004
   6
DOT
  62
3
  10
 97.3750
  20
 221.766
  30
0.0
  11
 102.500
  21
 224.724
  31
0.0
   0
LINE
   8
LEVEL004
   6
DOT
  62
3
  10
 102.500
  20
 224.724
  30
0.0
  11
 107.625
  21
 221.766
  31
0.0
   0
LINE
   8
LEVEL004
   6
DOT
  62
3
  10
 107.625
  20
 221.766
  30
0.0
  11
 107.625
  21
 203.375
  31
0.0
   0
LINE
   8
LEVEL004
   6
DOT
  62
3
  10
 107.625
  20
 203.375
  30
0.0
  11
 108.500
  21
 202.500
  31
0.0
   0
LINE
   8
LEVEL004
   6
DOT
  62
3
  10
 97.3750
  20
 221.766
  30
0.0
  11
 107.625
  21
 221.766
  31
0.0
   0
LINE
   8
LEVEL004
   6
DOT
  62
3
  10
 96.5000
  20
 202.500
  30
0.0
  11
 96.5000
  21
 218.500
  31
0.0
   0
LINE
   8
LEVEL004
   6
DOT
  62
3
  10
 96.5000
  20
 218.500
  30
0.0
  11
 97.3750
  21
 221.766
  31
0.0
   0
LINE
   8
LEVEL004
   6
DOT
  62
3
  10
 107.625
  20
 221.766
  30
0.0
  11
 108.500
  21
 218.500
  31
0.0
   0
LINE
   8
LEVEL004
   6
DOT
  62
3
  10
 108.500
  20
 218.500
  30
0.0
  11
 108.500
  21
 202.500
  31
0.0
   0
LINE
   8
LEVEL004
   6
DOT
  62
3
  10
 96.5000
  20
 218.500
  30
0.0
  11
 108.500
  21
 218.500
  31
0.0
   0
LINE
   8
LEVEL004
   6
DOT
  62
3
  10
 97.3750
  20
 203.375
  30
0.0
  11
 107.625
  21
 203.375
  31
0.0
   0
LINE
   8
LEVEL004
   6
DOT
  62
3
  10
 107.500
  20
 289.500
  30
0.0
  11
 107.500
  21
 366.500
  31
0.0
   0
LINE
   8
LEVEL004
   6
DOT
  62
3
  10
 102.500
  20
 331.500
  30
0.0
  11
 102.500
  21
 250.300
  31
0.0
   0
LINE
   8
LEVEL004
   6
DOT
  62
3
  10
 192.500
  20
 289.500
  30
0.0
  11
 192.500
  21
 366.500
  31
0.0
   0
LINE
   8
LEVEL004
   6
DOT
  62
3
  10
 197.500
  20
 331.500
  30
0.0
  11
 197.500
  21
 250.300
  31
0.0
   0
LINE
   8
LEVEL004
   6
DASHDOT
  62
1
  10
 175.000
  20
 374.000
  30
0.0
  11
 175.000
  21
 340.219
  31
0.0
   0
LINE
   8
LEVEL004
   6
DOT
  62
3
  10
 171.000
  20
 348.000
  30
0.0
  11
 171.625
  21
 344.875
  31
0.0
   0
LINE
   8
LEVEL004
   6
DOT
  62
3
  10
 171.625
  20
 349.000
  30
0.0
  11
 171.625
  21
 363.000
  31
0.0
   0
LINE
   8
LEVEL004
   6
DOT
  62
3
  10
 179.000
  20
 349.625
  30
0.0
  11
 179.000
  21
 348.000
  31
0.0
   0
LINE
   8
LEVEL004
   6
DOT
  62
3
  10
 179.000
  20
 348.000
  30
0.0
  11
 178.375
  21
 344.875
  31
0.0
   0
LINE
   8
LEVEL004
   6
DOT
  62
3
  10
 178.375
  20
 349.000
  30
0.0
  11
 178.375
  21
 363.000
  31
0.0
   0
LINE
   8
LEVEL004
   6
DOT
  62
3
  10
 179.000
  20
 349.625
  30
0.0
  11
 171.000
  21
 349.625
  31
0.0
   0
LINE
   8
LEVEL004
   6
DOT
  62
3
  10
 171.000
  20
 348.000
  30
0.0
  11
 179.000
  21
 348.000
  31
0.0
   0
LINE
   8
LEVEL004
   6
DOT
  62
3
  10
 178.375
  20
 349.000
  30
0.0
  11
 178.375
  21
 344.875
  31
0.0
   0
LINE
   8
LEVEL004
   6
DOT
  62
3
  10
 178.375
  20
 344.875
  30
0.0
  11
 175.000
  21
 342.926
  31
0.0
   0
LINE
   8
LEVEL004
   6
DOT
  62
3
  10
 175.000
  20
 342.926
  30
0.0
  11
 171.625
  21
 344.875
  31
0.0
   0
LINE
   8
LEVEL004
   6
DOT
  62
3
  10
 171.625
  20
 344.875
  30
0.0
  11
 171.625
  21
 349.000
  31
0.0
   0
LINE
   8
LEVEL004
   6
DOT
  62
3
  10
 178.375
  20
 344.875
  30
0.0
  11
 171.625
  21
 344.875
  31
0.0
   0
LINE
   8
LEVEL004
   6
DOT
  62
3
  10
 179.000
  20
 363.000
  30
0.0
  11
 179.000
  21
 349.625
  31
0.0
   0
LINE
   8
LEVEL004
   6
DOT
  62
3
  10
 179.000
  20
 349.625
  30
0.0
  11
 178.375
  21
 349.000
  31
0.0
   0
LINE
   8
LEVEL004
   6
DOT
  62
3
  10
 178.375
  20
 349.000
  30
0.0
  11
 171.625
  21
 349.000
  31
0.0
   0
LINE
   8
LEVEL004
   6
DOT
  62
3
  10
 171.625
  20
 349.000
  30
0.0
  11
 171.000
  21
 349.625
  31
0.0
   0
LINE
   8
LEVEL004
   6
DOT
  62
3
  10
 171.000
  20
 349.625
  30
0.0
  11
 171.000
  21
 363.000
  31
0.0
   0
LINE
   8
LEVEL004
   6
DOT
  62
3
  10
 171.000
  20
 349.625
  30
0.0
  11
 171.000
  21
 348.000
  31
0.0
   0
LINE
   8
LEVEL004
   6
DOT
  62
3
  10
 183.500
  20
 359.500
  30
0.0
  11
 185.000
  21
 361.000
  31
0.0
   0
ARC
   8
LEVEL004
   6
DOT
  62
3
  10
 184.000
  20
 360.500
  30
0.0
  40
 1.00000
  50
 270.001
  51
 0.174683E-2
   0
LINE
   8
LEVEL004
   6
DOT
  62
3
  10
 184.000
  20
 359.500
  30
0.0
  11
 178.375
  21
 359.500
  31
0.0
   0
LINE
   8
LEVEL004
   6
DOT
  62
3
  10
 179.500
  20
 363.000
  30
0.0
  11
 179.500
  21
 359.500
  31
0.0
   0
LINE
   8
LEVEL004
   6
DOT
  62
3
  10
 182.000
  20
 372.500
  30
0.0
  11
 182.000
  21
 363.000
  31
0.0
   0
LINE
   8
LEVEL004
   6
DOT
  62
3
  10
 181.500
  20
 363.000
  30
0.0
  11
 168.500
  21
 363.000
  31
0.0
   0
LINE
   8
LEVEL004
   6
DOT
  62
3
  10
 168.500
  20
 363.000
  30
0.0
  11
 168.500
  21
 370.600
  31
0.0
   0
LINE
   8
LEVEL004
   6
DOT
  62
3
  10
 168.500
  20
 370.600
  30
0.0
  11
 169.193
  21
 371.000
  31
0.0
   0
LINE
   8
LEVEL004
   6
DOT
  62
3
  10
 169.193
  20
 371.000
  30
0.0
  11
 180.807
  21
 371.000
  31
0.0
   0
LINE
   8
LEVEL004
   6
DOT
  62
3
  10
 180.807
  20
 371.000
  30
0.0
  11
 181.500
  21
 370.600
  31
0.0
   0
LINE
   8
LEVEL004
   6
DOT
  62
3
  10
 181.500
  20
 370.600
  30
0.0
  11
 181.500
  21
 363.000
  31
0.0
   0
ARC
   8
LEVEL004
   6
DOT
  62
3
  10
 170.000
  20
 372.500
  30
0.0
  40
 1.00001
  50
 180.000
  51
0.0
   0
LINE
   8
LEVEL004
   6
DOT
  62
3
  10
 181.500
  20
 370.600
  30
0.0
  11
 168.500
  21
 370.600
  31
0.0
   0
LINE
   8
LEVEL004
   6
DOT
  62
3
  10
 168.000
  20
 372.500
  30
0.0
  11
 168.000
  21
 363.000
  31
0.0
   0
LINE
   8
LEVEL004
   6
DOT
  62
3
  10
 168.000
  20
 363.000
  30
0.0
  11
 168.500
  21
 363.000
  31
0.0
   0
LINE
   8
LEVEL004
   6
DOT
  62
3
  10
 170.500
  20
 363.000
  30
0.0
  11
 170.500
  21
 359.500
  31
0.0
   0
LINE
   8
LEVEL004
   6
DOT
  62
3
  10
 181.500
  20
 363.000
  30
0.0
  11
 182.000
  21
 363.000
  31
0.0
   0
LINE
   8
LEVEL004
   6
DOT
  62
3
  10
 185.000
  20
 369.500
  30
0.0
  11
 185.000
  21
 360.500
  31
0.0
   0
LINE
   8
LEVEL004
   6
DOT
  62
3
  10
 171.625
  20
 359.500
  30
0.0
  11
 116.000
  21
 359.500
  31
0.0
   0
LINE
   8
LEVEL004
   6
DOT
  62
3
  10
 116.500
  20
 359.500
  30
0.0
  11
 115.000
  21
 361.000
  31
0.0
   0
ARC
   8
LEVEL004
   6
DOT
  62
3
  10
 116.000
  20
 360.500
  30
0.0
  40
 1.00000
  50
 179.998
  51
 269.999
   0
LINE
   8
LEVEL004
   6
DOT
  62
3
  10
 115.000
  20
 369.500
  30
0.0
  11
 115.000
  21
 360.500
  31
0.0
   0
ARC
   8
LEVEL004
   6
DOT
  62
3
  10
 140.000
  20
 372.500
  30
0.0
  40
 1.00001
  50
 180.000
  51
0.0
   0
ARC
   8
LEVEL004
   6
DOT
  62
3
  10
 130.000
  20
 372.500
  30
0.0
  40
 1.00001
  50
 180.000
  51
0.0
   0
ARC
   8
LEVEL004
   6
DOT
  62
3
  10
 160.000
  20
 372.500
  30
0.0
  40
 1.00001
  50
 180.000
  51
0.0
   0
TEXT
   8
LEVEL003
  62
7
  10
 291.691
  20
 20.2200
  30
0.0
  40
 10.0000
   1
ＯＳＡＫＡ ＪＡＣＫ
   7
STANDARD
   0
CIRCLE
   8
LEVEL003
   6
CONTINUOUS
  62
7
  10
 279.718
  20
 27.2707
  30
0.0
  40
 3.00000
   0
LINE
   8
LEVEL003
   6
CONTINUOUS
  62
7
  10
 285.606
  20
 30.2707
  30
0.0
  11
 281.797
  21
 23.6707
  31
0.0
   0
LINE
   8
LEVEL003
   6
CONTINUOUS
  62
7
  10
 281.797
  20
 23.6707
  30
0.0
  11
 274.176
  21
 23.6707
  31
0.0
   0
LINE
   8
LEVEL003
   6
CONTINUOUS
  62
7
  10
 273.309
  20
 22.1707
  30
0.0
  11
 286.930
  21
 22.1707
  31
0.0
   0
LINE
   8
LEVEL003
   6
CONTINUOUS
  62
7
  10
 286.930
  20
 22.1707
  30
0.0
  11
 291.606
  21
 30.2707
  31
0.0
   0
LINE
   8
LEVEL003
   6
CONTINUOUS
  62
7
  10
 291.606
  20
 30.2707
  30
0.0
  11
 285.606
  21
 30.2707
  31
0.0
   0
LINE
   8
LEVEL003
   6
CONTINUOUS
  62
7
  10
 274.176
  20
 23.6707
  30
0.0
  11
 273.309
  21
 22.1707
  31
0.0
   0
TEXT
   8
LEVEL003
  62
7
  10
 294.602
  20
 37.1134
  30
0.0
  40
 6.00000
   1
Model : Ｅ５０Ｓ５
   7
STANDARD
   0
TEXT
   8
LEVEL003
  62
3
  10
 11.0000
  20
 172.500
  30
0.0
  40
 6.00000
   1
４－Ｍ１２×１６Ｌ
   7
STANDARD
   0
LINE
   8
LEVEL003
   6
CONTINUOUS
  62
3
  10
 75.0000
  20
 172.500
  30
0.0
  11
 11.3449
  21
 172.500
  31
0.0
   0
LINE
   8
LEVEL003
   6
CONTINUOUS
  62
3
  10
 232.500
  20
 187.500
  30
0.0
  11
 275.253
  21
 187.500
  31
0.0
   0
LINE
   8
LEVEL003
   6
CONTINUOUS
  62
3
  10
 225.000
  20
 330.000
  30
0.0
  11
 268.448
  21
 330.000
  31
0.0
   0
LINE
   8
LEVEL003
   6
CONTINUOUS
  62
3
  10
 210.500
  20
 367.500
  30
0.0
  11
 293.152
  21
 367.500
  31
0.0
   0
LINE
   8
LEVEL003
   6
CONTINUOUS
  62
3
  10
 216.500
  20
 317.500
  30
0.0
  11
 293.152
  21
 317.500
  31
0.0
   0
LINE
   8
LEVEL003
   6
CONTINUOUS
  62
3
  10
 291.152
  20
 367.500
  30
0.0
  11
 291.152
  21
 317.500
  31
0.0
   0
LINE
   8
LEVEL003
   6
CONTINUOUS
  62
3
  10
 291.152
  20
 367.500
  30
0.0
  11
 290.623
  21
 364.500
  31
0.0
   0
LINE
   8
LEVEL003
   6
CONTINUOUS
  62
3
  10
 291.152
  20
 367.500
  30
0.0
  11
 291.681
  21
 364.500
  31
0.0
   0
LINE
   8
LEVEL003
   6
CONTINUOUS
  62
3
  10
 291.152
  20
 317.500
  30
0.0
  11
 291.681
  21
 320.500
  31
0.0
   0
LINE
   8
LEVEL003
   6
CONTINUOUS
  62
3
  10
 291.152
  20
 317.500
  30
0.0
  11
 290.623
  21
 320.500
  31
0.0
   0
TEXT
   8
LEVEL003
  62
3
  10
 290.352
  20
 338.500
  30
0.0
  40
 4.00000
   1
50
  50
 90.0000
   7
STANDARD
  72
1
  11
 290.352
  21
 342.500
  31
0.0
   0
LINE
   8
LEVEL003
   6
CONTINUOUS
  62
3
  10
 210.500
  20
 367.500
  30
0.0
  11
 271.603
  21
 367.500
  31
0.0
   0
LINE
   8
LEVEL003
   6
CONTINUOUS
  62
3
  10
 216.500
  20
 362.500
  30
0.0
  11
 271.603
  21
 362.500
  31
0.0
   0
LINE
   8
LEVEL003
   6
CONTINUOUS
  62
3
  10
 269.603
  20
 367.500
  30
0.0
  11
 269.603
  21
 362.500
  31
0.0
   0
LINE
   8
LEVEL003
   6
CONTINUOUS
  62
3
  10
 269.603
  20
 362.500
  30
0.0
  11
 269.603
  21
 355.833
  31
0.0
   0
LINE
   8
LEVEL003
   6
CONTINUOUS
  62
3
  10
 269.603
  20
 367.500
  30
0.0
  11
 270.132
  21
 370.500
  31
0.0
   0
LINE
   8
LEVEL003
   6
CONTINUOUS
  62
3
  10
 269.603
  20
 367.500
  30
0.0
  11
 269.074
  21
 370.500
  31
0.0
   0
LINE
   8
LEVEL003
   6
CONTINUOUS
  62
3
  10
 269.603
  20
 362.500
  30
0.0
  11
 269.074
  21
 359.500
  31
0.0
   0
LINE
   8
LEVEL003
   6
CONTINUOUS
  62
3
  10
 269.603
  20
 362.500
  30
0.0
  11
 270.132
  21
 359.500
  31
0.0
   0
LINE
   8
LEVEL003
   6
CONTINUOUS
  62
3
  10
 269.603
  20
 367.500
  30
0.0
  11
 269.603
  21
 371.250
  31
0.0
   0
LINE
   8
LEVEL003
   6
CONTINUOUS
  62
3
  10
 269.603
  20
 362.500
  30
0.0
  11
 269.603
  21
 355.833
  31
0.0
   0
TEXT
   8
LEVEL003
  62
3
  10
 268.803
  20
 355.833
  30
0.0
  40
 4.00000
   1
5
  50
 90.0000
   7
STANDARD
  72
1
  11
 268.803
  21
 357.833
  31
0.0
   0
LINE
   8
LEVEL003
   6
CONTINUOUS
  62
3
  10
 184.000
  20
 372.500
  30
0.0
  11
 271.603
  21
 372.500
  31
0.0
   0
LINE
   8
LEVEL003
   6
CONTINUOUS
  62
3
  10
 210.500
  20
 367.500
  30
0.0
  11
 271.603
  21
 367.500
  31
0.0
   0
LINE
   8
LEVEL003
   6
CONTINUOUS
  62
3
  10
 269.603
  20
 372.500
  30
0.0
  11
 269.603
  21
 367.500
  31
0.0
   0
LINE
   8
LEVEL003
   6
CONTINUOUS
  62
3
  10
 269.603
  20
 372.500
  30
0.0
  11
 269.603
  21
 378.167
  31
0.0
   0
LINE
   8
LEVEL003
   6
CONTINUOUS
  62
3
  10
 269.603
  20
 372.500
  30
0.0
  11
 270.132
  21
 375.500
  31
0.0
   0
LINE
   8
LEVEL003
   6
CONTINUOUS
  62
3
  10
 269.603
  20
 372.500
  30
0.0
  11
 269.074
  21
 375.500
  31
0.0
   0
LINE
   8
LEVEL003
   6
CONTINUOUS
  62
3
  10
 269.603
  20
 367.500
  30
0.0
  11
 269.074
  21
 364.500
  31
0.0
   0
LINE
   8
LEVEL003
   6
CONTINUOUS
  62
3
  10
 269.603
  20
 367.500
  30
0.0
  11
 270.132
  21
 364.500
  31
0.0
   0
LINE
   8
LEVEL003
   6
CONTINUOUS
  62
3
  10
 269.603
  20
 372.500
  30
0.0
  11
 269.603
  21
 378.167
  31
0.0
   0
LINE
   8
LEVEL003
   6
CONTINUOUS
  62
3
  10
 269.603
  20
 367.500
  30
0.0
  11
 269.603
  21
 363.750
  31
0.0
   0
TEXT
   8
LEVEL003
  62
3
  10
 268.803
  20
 374.167
  30
0.0
  40
 4.00000
   1
5
  50
 90.0000
   7
STANDARD
  72
1
  11
 268.803
  21
 376.167
  31
0.0
   0
ENDSEC
   0
EOF
