   0
SECTION
   2
HEADER
   9
$LIMMIN
  10
0.0
  20
0.0
   9
$LIMMAX
  10
 420.000
  20
 297.000
   9
$EXTMIN
  10
0.0
  20
0.0
   9
$EXTMAX
  10
 420.000
  20
 297.000
   9
$LTSCALE
  40
 8.40000
   0
ENDSEC
   0
SECTION
   2
TABLES
  0
TABLE
  2
LTYPE
 70
    25
  0
LTYPE
  2
CONTINUOUS
 70
    64
  3
Solid line
 72
    65
 73
     0
 40
0.0
  0
LTYPE
  2
BORDER
 70
    64
  3
__ __ . __ __ . __ __ . __ __ . __ __ . __ __ .
 72
    65
 73
     6
 40
1.75
 49
0.5
 49
-0.25
 49
0.5
 49
-0.25
 49
0.0
 49
-0.25
  0
LTYPE
  2
BORDER2
 70
    64
  3
__.__.__.__.__.__.__.__.__.__.__.__.__.__.__.__
 72
    65
 73
     6
 40
0.875
 49
0.25
 49
-0.125
 49
0.25
 49
-0.125
 49
0.0
 49
-0.125
  0
LTYPE
  2
BORDERX2
 70
    64
  3
____  ____  .  ____  ____  .  ____  ____  .  __
 72
    65
 73
     6
 40
3.5
 49
1.0
 49
-0.5
 49
1.0
 49
-0.5
 49
0.0
 49
-0.5
  0
LTYPE
  2
CENTER
 70
    64
  3
____ _ ____ _ ____ _ ____ _ ____ _ ____ _ ____ 
 72
    65
 73
     4
 40
2.0
 49
1.25
 49
-0.25
 49
0.25
 49
-0.25
  0
LTYPE
  2
CENTER2
 70
    64
  3
___ _ ___ _ ___ _ ___ _ ___ _ ___ _ ___ _ ___ _
 72
    65
 73
     4
 40
1.125
 49
0.75
 49
-0.125
 49
0.125
 49
-0.125
  0
LTYPE
  2
CENTERX2
 70
    64
  3
________  __  ________  __  ________  __  _____
 72
    65
 73
     4
 40
4.0
 49
2.5
 49
-0.5
 49
0.5
 49
-0.5
  0
LTYPE
  2
DASHDOT
 70
    64
  3
__ . __ . __ . __ . __ . __ . __ . __ . __ . __
 72
    65
 73
     4
 40
1.0
 49
0.5
 49
-0.25
 49
0.0
 49
-0.25
  0
LTYPE
  2
DASHDOT2
 70
    64
  3
_._._._._._._._._._._._._._._._._._._._._._._._
 72
    65
 73
     4
 40
0.5
 49
0.25
 49
-0.125
 49
0.0
 49
-0.125
  0
LTYPE
  2
DASHDOTX2
 70
    64
  3
____  .  ____  .  ____  .  ____  .  ____  .  __
 72
    65
 73
     4
 40
2.0
 49
1.0
 49
-0.5
 49
0.0
 49
-0.5
  0
LTYPE
  2
DASHED
 70
    64
  3
__ __ __ __ __ __ __ __ __ __ __ __ __ __ __ __
 72
    65
 73
     2
 40
0.75
 49
0.5
 49
-0.25
  0
LTYPE
  2
DASHED2
 70
    64
  3
_ _ _ _ _ _ _ _ _ _ _ _ _ _ _ _ _ _ _ _ _ _ _ _
 72
    65
 73
     2
 40
0.375
 49
0.25
 49
-0.125
  0
LTYPE
  2
DASHEDX2
 70
    64
  3
____  ____  ____  ____  ____  ____  ____  ____ 
 72
    65
 73
     2
 40
1.5
 49
1.0
 49
-0.5
  0
LTYPE
  2
DIVIDE
 70
    64
  3
____ . . ____ . . ____ . . ____ . . ____ . . __
 72
    65
 73
     6
 40
1.25
 49
0.5
 49
-0.25
 49
0.0
 49
-0.25
 49
0.0
 49
-0.25
  0
LTYPE
  2
DIVIDE2
 70
    64
  3
__..__..__..__..__..__..__..__..__..__..__..__.
 72
    65
 73
     6
 40
0.625
 49
0.25
 49
-0.125
 49
0.0
 49
-0.125
 49
0.0
 49
-0.125
  0
LTYPE
  2
DIVIDEX2
 70
    64
  3
________  .  .  ________  .  .  ________  .  . 
 72
    65
 73
     6
 40
2.5
 49
1.0
 49
-0.5
 49
0.0
 49
-0.5
 49
0.0
 49
-0.5
  0
LTYPE
  2
DOT
 70
    64
  3
. . . . . . . . . . . . . . . . . . . . . . . .
 72
    65
 73
     2
 40
0.25
 49
0.0
 49
-0.25
  0
LTYPE
  2
DOT2
 70
    64
  3
...............................................
 72
    65
 73
     2
 40
0.125
 49
0.0
 49
-0.125
  0
LTYPE
  2
DOTX2
 70
    64
  3
.  .  .  .  .  .  .  .  .  .  .  .  .  .  .  . 
 72
    65
 73
     2
 40
0.5
 49
0.0
 49
-0.5
  0
LTYPE
  2
HIDDEN
 70
    64
  3
__ __ __ __ __ __ __ __ __ __ __ __ __ __ __ __
 72
    65
 73
     2
 40
0.375
 49
0.25
 49
-0.125
  0
LTYPE
  2
HIDDEN2
 70
    64
  3
_ _ _ _ _ _ _ _ _ _ _ _ _ _ _ _ _ _ _ _ _ _ _ _
 72
    65
 73
     2
 40
0.1875
 49
0.125
 49
-0.0625
  0
LTYPE
  2
HIDDENX2
 70
    64
  3
____ ____ ____ ____ ____ ____ ____ ____ ____ __
 72
    65
 73
     2
 40
0.75
 49
0.5
 49
-0.25
  0
LTYPE
  2
PHANTOM
 70
    64
  3
______  __  __  ______  __  __  ______  __  __ 
 72
    65
 73
     6
 40
2.5
 49
1.25
 49
-0.25
 49
0.25
 49
-0.25
 49
0.25
 49
-0.25
  0
LTYPE
  2
PHANTOM2
 70
    64
  3
___ _ _ ___ _ _ ___ _ _ ___ _ _ ___ _ _ ___ _ _
 72
    65
 73
     6
 40
1.25
 49
0.625
 49
-0.125
 49
0.125
 49
-0.125
 49
0.125
 49
-0.125
  0
LTYPE
  2
PHANTOMX2
 70
    64
  3
____________    ____    ____    ____________   
 72
    65
 73
     6
 40
5.0
 49
2.5
 49
-0.5
 49
0.5
 49
-0.5
 49
0.5
 49
-0.5
  0
ENDTAB
  0
TABLE
  2
STYLE
 70
     2
  0
STYLE
  2
STANDARD
 70
0
 40
0.0
 41
1.0
 50
0.0
 71
0
 42
0.2
  3
TXT
  4
BIGFONT
  0
STYLE
  2
STANDARD1
 70
     4
 40
0.0
 41
1.0
 50
0.0
 71
     0
 42
0.2
  3
TXT
  4
BIGFONT
  0
ENDTAB
   0
TABLE
   2
LAYER
  70
4
   0
LAYER
   2
0
  70
0
  62
7
   6
CONTINUOUS
   0
LAYER
   2
LEVEL001
  70
0
  62
7
   6
CONTINUOUS
   0
LAYER
   2
LEVEL003
  70
0
  62
7
   6
CONTINUOUS
   0
LAYER
   2
LEVEL004
  70
0
  62
7
   6
CONTINUOUS
   0
ENDTAB
   0
ENDSEC
   0
SECTION
   2
ENTITIES
   0
LINE
   8
LEVEL001
   6
CONTINUOUS
  62
3
  10
 93.7191
  20
 56.1738
  30
0.0
  11
 90.0321
  21
 56.8239
  31
0.0
   0
LINE
   8
LEVEL001
   6
CONTINUOUS
  62
7
  10
 93.7191
  20
 56.1738
  30
0.0
  11
 95.2716
  21
 55.4498
  31
0.0
   0
LINE
   8
LEVEL001
   6
CONTINUOUS
  62
7
  10
 110.729
  20
 56.8022
  30
0.0
  11
 95.2716
  21
 55.4498
  31
0.0
   0
ARC
   8
LEVEL001
   6
CONTINUOUS
  62
7
  10
 112.528
  20
 53.4462
  30
0.0
  40
 1.50000
  50
 185.000
  51
 275.000
   0
LINE
   8
LEVEL001
   6
CONTINUOUS
  62
7
  10
 111.034
  20
 53.3155
  30
0.0
  11
 108.768
  21
 79.2166
  31
0.0
   0
LINE
   8
LEVEL001
   6
CONTINUOUS
  62
7
  10
 95.2716
  20
 55.4498
  30
0.0
  11
 94.9519
  21
 59.1049
  31
0.0
   0
LINE
   8
LEVEL001
   6
CONTINUOUS
  62
7
  10
 88.6290
  20
 68.4596
  30
0.0
  11
 103.436
  21
 59.8472
  31
0.0
   0
LINE
   8
LEVEL001
   6
CONTINUOUS
  62
7
  10
 93.3402
  20
 60.5042
  30
0.0
  11
 93.7191
  21
 56.1738
  31
0.0
   0
LINE
   8
LEVEL001
   6
CONTINUOUS
  62
7
  10
 89.3330
  20
 60.4120
  30
0.0
  11
 88.6290
  21
 68.4596
  31
0.0
   0
LINE
   8
LEVEL001
   6
CONTINUOUS
  62
7
  10
 88.6290
  20
 68.4596
  30
0.0
  11
 92.5913
  21
 69.0646
  31
0.0
   0
LINE
   8
LEVEL001
   6
CONTINUOUS
  62
7
  10
 92.5913
  20
 69.0646
  30
0.0
  11
 93.9355
  21
 70.7225
  31
0.0
   0
LINE
   8
LEVEL001
   6
CONTINUOUS
  62
7
  10
 93.9355
  20
 70.7225
  30
0.0
  11
 102.420
  21
 71.4647
  31
0.0
   0
LINE
   8
LEVEL001
   6
CONTINUOUS
  62
7
  10
 102.420
  20
 71.4647
  30
0.0
  11
 103.436
  21
 59.8472
  31
0.0
   0
LINE
   8
LEVEL001
   6
CONTINUOUS
  62
7
  10
 103.436
  20
 59.8472
  30
0.0
  11
 94.9519
  21
 59.1049
  31
0.0
   0
LINE
   8
LEVEL001
   6
CONTINUOUS
  62
7
  10
 94.9519
  20
 59.1049
  30
0.0
  11
 93.3402
  21
 60.5042
  31
0.0
   0
LINE
   8
LEVEL001
   6
CONTINUOUS
  62
7
  10
 93.3402
  20
 60.5042
  30
0.0
  11
 89.3330
  21
 60.4120
  31
0.0
   0
LINE
   8
LEVEL001
   6
CONTINUOUS
  62
3
  10
 92.2124
  20
 73.3950
  30
0.0
  11
 88.6943
  21
 72.1145
  31
0.0
   0
LINE
   8
LEVEL001
   6
CONTINUOUS
  62
7
  10
 92.2124
  20
 73.3950
  30
0.0
  11
 93.6157
  21
 74.3776
  31
0.0
   0
LINE
   8
LEVEL001
   6
CONTINUOUS
  62
7
  10
 109.073
  20
 75.7299
  30
0.0
  11
 93.6157
  21
 74.3775
  31
0.0
   0
ARC
   8
LEVEL001
   6
CONTINUOUS
  62
7
  10
 110.262
  20
 79.3473
  30
0.0
  40
 1.50000
  50
 95.0001
  51
 185.000
   0
LINE
   8
LEVEL001
   6
CONTINUOUS
  62
7
  10
 110.132
  20
 80.8416
  30
0.0
  11
 115.113
  21
 81.2774
  31
0.0
   0
ARC
   8
LEVEL001
   6
CONTINUOUS
  62
7
  10
 131.182
  20
 81.1776
  30
0.0
  40
 1.50000
  50
 4.99979
  51
 95.0002
   0
LINE
   8
LEVEL001
   6
CONTINUOUS
  62
7
  10
 126.071
  20
 82.2361
  30
0.0
  11
 131.052
  21
 82.6719
  31
0.0
   0
LINE
   8
LEVEL001
   6
CONTINUOUS
  62
7
  10
 132.677
  20
 81.3083
  30
0.0
  11
 134.943
  21
 55.4072
  31
0.0
   0
ARC
   8
LEVEL001
   6
DASHDOT
  62
1
  10
 141.642
  20
 82.0927
  30
0.0
  40
 1.00000
  50
 4.99976
  51
 95.0005
   0
LINE
   8
LEVEL001
   6
DASHDOT
  62
1
  10
 133.586
  20
 82.3917
  30
0.0
  11
 141.555
  21
 83.0889
  31
0.0
   0
LINE
   8
LEVEL001
   6
DASHDOT
  62
1
  10
 142.639
  20
 82.1799
  30
0.0
  11
 144.905
  21
 56.2788
  31
0.0
   0
CIRCLE
   8
LEVEL001
   6
DASHDOT
  62
1
  10
 146.760
  20
 69.4908
  30
0.0
  40
 1.50000
   0
ARC
   8
LEVEL001
   6
DASHDOT
  62
1
  10
 133.673
  20
 81.3955
  30
0.0
  40
 1.00000
  50
 95.0007
  51
 185.000
   0
ARC
   8
LEVEL001
   6
DASHDOT
  62
1
  10
 145.285
  20
 74.8827
  30
0.0
  40
 2.00000
  50
 185.000
  51
 275.000
   0
LINE
   8
LEVEL001
   6
DASHDOT
  62
1
  10
 145.459
  20
 72.8903
  30
0.0
  11
 145.957
  21
 72.9339
  31
0.0
   0
LINE
   8
LEVEL001
   6
CONTINUOUS
  62
7
  10
 93.9355
  20
 70.7225
  30
0.0
  11
 93.6157
  21
 74.3776
  31
0.0
   0
LINE
   8
LEVEL001
   6
CONTINUOUS
  62
7
  10
 89.3330
  20
 60.4120
  30
0.0
  11
 102.420
  21
 71.4647
  31
0.0
   0
LINE
   8
LEVEL001
   6
CONTINUOUS
  62
7
  10
 92.2124
  20
 73.3950
  30
0.0
  11
 92.5913
  21
 69.0646
  31
0.0
   0
LINE
   8
LEVEL001
   6
CONTINUOUS
  62
3
  10
 116.289
  20
 67.8287
  30
0.0
  11
 127.247
  21
 68.7875
  31
0.0
   0
LINE
   8
LEVEL001
   6
CONTINUOUS
  62
3
  10
 116.115
  20
 69.8211
  30
0.0
  11
 127.073
  21
 70.7798
  31
0.0
   0
LINE
   8
LEVEL001
   6
CONTINUOUS
  62
3
  10
 115.941
  20
 71.8135
  30
0.0
  11
 126.899
  21
 72.7722
  31
0.0
   0
LINE
   8
LEVEL001
   6
CONTINUOUS
  62
3
  10
 115.766
  20
 73.8059
  30
0.0
  11
 126.724
  21
 74.7646
  31
0.0
   0
LINE
   8
LEVEL001
   6
CONTINUOUS
  62
3
  10
 115.592
  20
 75.7983
  30
0.0
  11
 126.550
  21
 76.7570
  31
0.0
   0
LINE
   8
LEVEL001
   6
CONTINUOUS
  62
3
  10
 115.418
  20
 77.7907
  30
0.0
  11
 126.376
  21
 78.7494
  31
0.0
   0
LINE
   8
LEVEL001
   6
CONTINUOUS
  62
3
  10
 115.243
  20
 79.7831
  30
0.0
  11
 126.201
  21
 80.7418
  31
0.0
   0
LINE
   8
LEVEL001
   6
CONTINUOUS
  62
7
  10
 117.684
  20
 51.8896
  30
0.0
  11
 115.069
  21
 81.7755
  31
0.0
   0
LINE
   8
LEVEL001
   6
CONTINUOUS
  62
7
  10
 115.069
  20
 81.7755
  30
0.0
  11
 126.027
  21
 82.7342
  31
0.0
   0
LINE
   8
LEVEL001
   6
CONTINUOUS
  62
7
  10
 126.027
  20
 82.7342
  30
0.0
  11
 128.642
  21
 52.8483
  31
0.0
   0
LINE
   8
LEVEL001
   6
CONTINUOUS
  62
7
  10
 128.642
  20
 52.8483
  30
0.0
  11
 117.684
  21
 51.8896
  31
0.0
   0
ARC
   8
LEVEL001
   6
DASHDOT
  62
1
  10
 146.243
  20
 63.9246
  30
0.0
  40
 2.00000
  50
 95.0002
  51
 185.000
   0
ARC
   8
LEVEL001
   6
CONTINUOUS
  62
7
  10
 133.448
  20
 55.2765
  30
0.0
  40
 1.50000
  50
 275.000
  51
 4.99990
   0
LINE
   8
LEVEL001
   6
CONTINUOUS
  62
7
  10
 128.598
  20
 53.3464
  30
0.0
  11
 133.579
  21
 53.7822
  31
0.0
   0
LINE
   8
LEVEL001
   6
DASHDOT
  62
1
  10
 136.026
  20
 54.4982
  30
0.0
  11
 143.996
  21
 55.1954
  31
0.0
   0
ARC
   8
LEVEL001
   6
DASHDOT
  62
1
  10
 135.939
  20
 55.4944
  30
0.0
  40
 1.00000
  50
 185.000
  51
 275.000
   0
ARC
   8
LEVEL001
   6
DASHDOT
  62
1
  10
 143.909
  20
 56.1916
  30
0.0
  40
 1.00000
  50
 275.000
  51
 5.00002
   0
LINE
   8
LEVEL001
   6
CONTINUOUS
  62
7
  10
 112.659
  20
 51.9520
  30
0.0
  11
 117.640
  21
 52.3877
  31
0.0
   0
LINE
   8
LEVEL001
   6
CONTINUOUS
  62
3
  10
 117.509
  20
 53.8820
  30
0.0
  11
 128.468
  21
 54.8407
  31
0.0
   0
LINE
   8
LEVEL001
   6
CONTINUOUS
  62
3
  10
 117.335
  20
 55.8744
  30
0.0
  11
 128.293
  21
 56.8331
  31
0.0
   0
LINE
   8
LEVEL001
   6
CONTINUOUS
  62
3
  10
 117.161
  20
 57.8668
  30
0.0
  11
 128.119
  21
 58.8255
  31
0.0
   0
LINE
   8
LEVEL001
   6
CONTINUOUS
  62
3
  10
 116.986
  20
 59.8592
  30
0.0
  11
 127.945
  21
 60.8179
  31
0.0
   0
LINE
   8
LEVEL001
   6
CONTINUOUS
  62
3
  10
 116.812
  20
 61.8516
  30
0.0
  11
 127.770
  21
 62.8103
  31
0.0
   0
LINE
   8
LEVEL001
   6
CONTINUOUS
  62
3
  10
 116.464
  20
 65.8364
  30
0.0
  11
 127.422
  21
 66.7951
  31
0.0
   0
LINE
   8
LEVEL001
   6
CONTINUOUS
  62
3
  10
 116.638
  20
 63.8440
  30
0.0
  11
 127.596
  21
 64.8027
  31
0.0
   0
LINE
   8
LEVEL001
   6
CONTINUOUS
  62
3
  10
 89.7152
  20
 60.4454
  30
0.0
  11
 90.0321
  21
 56.8239
  31
0.0
   0
LINE
   8
LEVEL001
   6
CONTINUOUS
  62
3
  10
 88.6943
  20
 72.1145
  30
0.0
  11
 89.0112
  21
 68.4930
  31
0.0
   0
POINT
   8
LEVEL001
  62
7
  10
 83.0038
  20
 63.9128
  30
0.0
   0
LINE
   8
LEVEL001
   6
CONTINUOUS
  62
7
  10
 20.0000
  20
 45.0000
  30
0.0
  11
 19.0000
  21
 46.0000
  31
0.0
   0
LINE
   8
LEVEL001
   6
CONTINUOUS
  62
7
  10
 19.0000
  20
 89.0000
  30
0.0
  11
 20.0000
  21
 90.0000
  31
0.0
   0
LINE
   8
LEVEL001
   6
CONTINUOUS
  62
7
  10
 19.0000
  20
 89.0000
  30
0.0
  11
 19.0000
  21
 46.0000
  31
0.0
   0
LINE
   8
LEVEL001
   6
CONTINUOUS
  62
7
  10
 83.0000
  20
 45.0000
  30
0.0
  11
 20.0000
  21
 45.0000
  31
0.0
   0
LINE
   8
LEVEL001
   6
CONTINUOUS
  62
7
  10
 83.0000
  20
 90.0000
  30
0.0
  11
 84.0000
  21
 89.0000
  31
0.0
   0
LINE
   8
LEVEL001
   6
CONTINUOUS
  62
7
  10
 83.0000
  20
 45.0000
  30
0.0
  11
 84.0000
  21
 46.0000
  31
0.0
   0
LINE
   8
LEVEL001
   6
CONTINUOUS
  62
7
  10
 92.2124
  20
 73.3950
  30
0.0
  11
 84.0000
  21
 72.4172
  31
0.0
   0
LINE
   8
LEVEL001
   6
CONTINUOUS
  62
7
  10
 93.7191
  20
 56.1738
  30
0.0
  11
 84.0000
  21
 55.6287
  31
0.0
   0
LINE
   8
LEVEL001
   6
CONTINUOUS
  62
7
  10
 84.0000
  20
 46.0000
  30
0.0
  11
 84.0000
  21
 89.0000
  31
0.0
   0
LINE
   8
LEVEL001
   6
CONTINUOUS
  62
3
  10
 88.6943
  20
 72.1145
  30
0.0
  11
 84.0000
  21
 71.5556
  31
0.0
   0
LINE
   8
LEVEL001
   6
CONTINUOUS
  62
3
  10
 90.0321
  20
 56.8239
  30
0.0
  11
 84.0000
  21
 56.4856
  31
0.0
   0
LINE
   8
LEVEL001
   6
DASHDOT
  62
1
  10
 40.0000
  20
 95.0000
  30
0.0
  11
 40.0000
  21
 40.0000
  31
0.0
   0
LINE
   8
LEVEL001
   6
CONTINUOUS
  62
7
  10
 19.0000
  20
 46.0000
  30
0.0
  11
 84.0000
  21
 46.0000
  31
0.0
   0
LINE
   8
LEVEL001
   6
CONTINUOUS
  62
7
  10
 19.0000
  20
 89.0000
  30
0.0
  11
 84.0000
  21
 89.0000
  31
0.0
   0
LINE
   8
LEVEL001
   6
CONTINUOUS
  62
7
  10
 79.5858
  20
 90.0000
  30
0.0
  11
 80.0000
  21
 89.0000
  31
0.0
   0
LINE
   8
LEVEL001
   6
CONTINUOUS
  62
7
  10
 23.4142
  20
 90.0000
  30
0.0
  11
 23.0000
  21
 89.0000
  31
0.0
   0
LINE
   8
LEVEL001
   6
CONTINUOUS
  62
7
  10
 20.0000
  20
 90.0000
  30
0.0
  11
 83.0000
  21
 90.0000
  31
0.0
   0
LINE
   8
LEVEL001
   6
CONTINUOUS
  62
7
  10
 23.4142
  20
 45.0000
  30
0.0
  11
 23.0000
  21
 46.0000
  31
0.0
   0
LINE
   8
LEVEL001
   6
CONTINUOUS
  62
7
  10
 79.5858
  20
 45.0000
  30
0.0
  11
 80.0000
  21
 46.0000
  31
0.0
   0
LINE
   8
LEVEL001
   6
CONTINUOUS
  62
7
  10
 80.0000
  20
 89.0000
  30
0.0
  11
 80.0000
  21
 46.0000
  31
0.0
   0
LINE
   8
LEVEL001
   6
CONTINUOUS
  62
7
  10
 23.0000
  20
 89.0000
  30
0.0
  11
 23.0000
  21
 46.0000
  31
0.0
   0
LINE
   8
LEVEL001
   6
DASHDOT
  62
1
  10
 154.982
  20
 70.2101
  30
0.0
  11
 75.1552
  21
 63.2262
  31
0.0
   0
CIRCLE
   8
LEVEL001
   6
CONTINUOUS
  62
7
  10
 40.0000
  20
 135.000
  30
0.0
  40
 5.00000
   0
CIRCLE
   8
LEVEL001
   6
CONTINUOUS
  62
7
  10
 40.0000
  20
 135.000
  30
0.0
  40
 4.48038
   0
CIRCLE
   8
LEVEL001
   6
CONTINUOUS
  62
7
  10
 40.0000
  20
 135.000
  30
0.0
  40
 5.50000
   0
CIRCLE
   8
LEVEL001
   6
CONTINUOUS
  62
7
  10
 40.0000
  20
 135.000
  30
0.0
  40
 12.5000
   0
CIRCLE
   8
LEVEL001
   6
CONTINUOUS
  62
7
  10
 40.0000
  20
 135.000
  30
0.0
  40
 17.5000
   0
CIRCLE
   8
LEVEL001
   6
CONTINUOUS
  62
7
  10
 40.0000
  20
 135.000
  30
0.0
  40
 16.7500
   0
CIRCLE
   8
LEVEL001
   6
CONTINUOUS
  62
7
  10
 40.0000
  20
 135.000
  30
0.0
  40
 12.0000
   0
LINE
   8
LEVEL001
   6
CONTINUOUS
  62
7
  10
 22.6795
  20
 137.500
  30
0.0
  11
 27.7525
  21
 137.500
  31
0.0
   0
LINE
   8
LEVEL001
   6
CONTINUOUS
  62
7
  10
 52.2475
  20
 137.500
  30
0.0
  11
 57.3205
  21
 137.500
  31
0.0
   0
LINE
   8
LEVEL001
   6
CONTINUOUS
  62
7
  10
 22.6795
  20
 132.500
  30
0.0
  11
 27.7525
  21
 132.500
  31
0.0
   0
LINE
   8
LEVEL001
   6
CONTINUOUS
  62
7
  10
 52.2475
  20
 132.500
  30
0.0
  11
 57.3205
  21
 132.500
  31
0.0
   0
LINE
   8
LEVEL001
   6
DASHDOT
  62
1
  10
 40.0000
  20
 160.000
  30
0.0
  11
 40.0000
  21
 110.000
  31
0.0
   0
CIRCLE
   8
LEVEL001
   6
CONTINUOUS
  62
7
  10
 65.0000
  20
 120.750
  30
0.0
  40
 2.75000
   0
CIRCLE
   8
LEVEL001
   6
CONTINUOUS
  62
7
  10
 65.0000
  20
 120.750
  30
0.0
  40
 4.25000
   0
LINE
   8
LEVEL001
   6
DASHDOT
  62
1
  10
 57.5670
  20
 120.750
  30
0.0
  11
 72.4330
  21
 120.750
  31
0.0
   0
LINE
   8
LEVEL001
   6
DASHDOT
  62
1
  10
 65.0000
  20
 113.317
  30
0.0
  11
 65.0000
  21
 128.183
  31
0.0
   0
CIRCLE
   8
LEVEL001
   6
CONTINUOUS
  62
7
  10
 65.0000
  20
 149.250
  30
0.0
  40
 2.75000
   0
CIRCLE
   8
LEVEL001
   6
CONTINUOUS
  62
7
  10
 65.0000
  20
 149.250
  30
0.0
  40
 4.25000
   0
LINE
   8
LEVEL001
   6
DASHDOT
  62
1
  10
 57.5670
  20
 149.250
  30
0.0
  11
 72.4330
  21
 149.250
  31
0.0
   0
LINE
   8
LEVEL001
   6
DASHDOT
  62
1
  10
 65.0000
  20
 141.817
  30
0.0
  11
 65.0000
  21
 156.683
  31
0.0
   0
LINE
   8
LEVEL001
   6
CONTINUOUS
  62
7
  10
 40.0000
  20
 132.113
  30
0.0
  11
 37.5000
  21
 133.557
  31
0.0
   0
LINE
   8
LEVEL001
   6
CONTINUOUS
  62
7
  10
 37.5000
  20
 133.557
  30
0.0
  11
 37.5000
  21
 136.443
  31
0.0
   0
LINE
   8
LEVEL001
   6
CONTINUOUS
  62
7
  10
 37.5000
  20
 136.443
  30
0.0
  11
 40.0000
  21
 137.887
  31
0.0
   0
LINE
   8
LEVEL001
   6
CONTINUOUS
  62
7
  10
 40.0000
  20
 137.887
  30
0.0
  11
 42.5000
  21
 136.443
  31
0.0
   0
LINE
   8
LEVEL001
   6
CONTINUOUS
  62
7
  10
 42.5000
  20
 136.443
  30
0.0
  11
 42.5000
  21
 133.557
  31
0.0
   0
LINE
   8
LEVEL001
   6
CONTINUOUS
  62
7
  10
 42.5000
  20
 133.557
  30
0.0
  11
 40.0000
  21
 132.113
  31
0.0
   0
LINE
   8
LEVEL001
   6
CONTINUOUS
  62
7
  10
 19.0000
  20
 118.500
  30
0.0
  11
 19.0000
  21
 151.500
  31
0.0
   0
LINE
   8
LEVEL001
   6
CONTINUOUS
  62
7
  10
 19.0000
  20
 151.500
  30
0.0
  11
 23.0000
  21
 155.500
  31
0.0
   0
LINE
   8
LEVEL001
   6
CONTINUOUS
  62
7
  10
 23.0000
  20
 155.500
  30
0.0
  11
 80.0000
  21
 155.500
  31
0.0
   0
LINE
   8
LEVEL001
   6
CONTINUOUS
  62
7
  10
 80.0000
  20
 155.500
  30
0.0
  11
 84.0000
  21
 151.500
  31
0.0
   0
LINE
   8
LEVEL001
   6
CONTINUOUS
  62
7
  10
 84.0000
  20
 151.500
  30
0.0
  11
 84.0000
  21
 118.500
  31
0.0
   0
LINE
   8
LEVEL001
   6
CONTINUOUS
  62
7
  10
 84.0000
  20
 118.500
  30
0.0
  11
 80.0000
  21
 114.500
  31
0.0
   0
LINE
   8
LEVEL001
   6
CONTINUOUS
  62
7
  10
 80.0000
  20
 114.500
  30
0.0
  11
 23.0000
  21
 114.500
  31
0.0
   0
LINE
   8
LEVEL001
   6
CONTINUOUS
  62
7
  10
 23.0000
  20
 114.500
  30
0.0
  11
 19.0000
  21
 118.500
  31
0.0
   0
ARC
   8
LEVEL001
   6
CONTINUOUS
  62
7
  10
 111.504
  20
 148.000
  30
0.0
  40
 1.50000
  50
 90.0000
  51
 180.000
   0
LINE
   8
LEVEL001
   6
CONTINUOUS
  62
7
  10
 111.504
  20
 149.500
  30
0.0
  11
 116.504
  21
 149.500
  31
0.0
   0
ARC
   8
LEVEL001
   6
CONTINUOUS
  62
7
  10
 111.504
  20
 122.000
  30
0.0
  40
 1.50000
  50
 180.000
  51
 270.000
   0
LINE
   8
LEVEL001
   6
CONTINUOUS
  62
7
  10
 110.004
  20
 122.000
  30
0.0
  11
 110.004
  21
 148.000
  31
0.0
   0
LINE
   8
LEVEL001
   6
CONTINUOUS
  62
7
  10
 111.504
  20
 120.500
  30
0.0
  11
 116.504
  21
 120.500
  31
0.0
   0
ARC
   8
LEVEL001
   6
CONTINUOUS
  62
7
  10
 132.504
  20
 148.000
  30
0.0
  40
 1.50000
  50
0.0
  51
 90.0000
   0
LINE
   8
LEVEL001
   6
CONTINUOUS
  62
7
  10
 127.504
  20
 149.500
  30
0.0
  11
 132.504
  21
 149.500
  31
0.0
   0
ARC
   8
LEVEL001
   6
CONTINUOUS
  62
7
  10
 132.504
  20
 122.000
  30
0.0
  40
 1.50000
  50
 270.000
  51
0.0
   0
LINE
   8
LEVEL001
   6
CONTINUOUS
  62
7
  10
 127.504
  20
 120.500
  30
0.0
  11
 132.504
  21
 120.500
  31
0.0
   0
LINE
   8
LEVEL001
   6
CONTINUOUS
  62
7
  10
 134.004
  20
 148.000
  30
0.0
  11
 134.004
  21
 122.000
  31
0.0
   0
ARC
   8
LEVEL001
   6
DASHDOT
  62
1
  10
 143.004
  20
 148.000
  30
0.0
  40
 1.00000
  50
0.0
  51
 90.0000
   0
LINE
   8
LEVEL001
   6
DASHDOT
  62
1
  10
 135.004
  20
 149.000
  30
0.0
  11
 143.004
  21
 149.000
  31
0.0
   0
ARC
   8
LEVEL001
   6
DASHDOT
  62
1
  10
 143.004
  20
 122.000
  30
0.0
  40
 1.00000
  50
 270.000
  51
 0.170987E-9
   0
LINE
   8
LEVEL001
   6
DASHDOT
  62
1
  10
 135.004
  20
 121.000
  30
0.0
  11
 143.004
  21
 121.000
  31
0.0
   0
LINE
   8
LEVEL001
   6
DASHDOT
  62
1
  10
 144.004
  20
 148.000
  30
0.0
  11
 144.004
  21
 122.000
  31
0.0
   0
ARC
   8
LEVEL001
   6
DASHDOT
  62
1
  10
 135.004
  20
 122.000
  30
0.0
  40
 1.00000
  50
 180.000
  51
 270.000
   0
ARC
   8
LEVEL001
   6
DASHDOT
  62
1
  10
 135.004
  20
 148.000
  30
0.0
  40
 1.00000
  50
 90.0000
  51
 180.000
   0
LINE
   8
LEVEL001
   6
CONTINUOUS
  62
3
  10
 89.3874
  20
 142.500
  30
0.0
  11
 89.3873
  21
 127.500
  31
0.0
   0
LINE
   8
LEVEL001
   6
CONTINUOUS
  62
7
  10
 93.0037
  20
 142.500
  30
0.0
  11
 93.0037
  21
 127.500
  31
0.0
   0
LINE
   8
LEVEL001
   6
CONTINUOUS
  62
7
  10
 94.4872
  20
 127.500
  30
0.0
  11
 94.4872
  21
 142.500
  31
0.0
   0
LINE
   8
LEVEL001
   6
CONTINUOUS
  62
3
  10
 116.504
  20
 122.000
  30
0.0
  11
 127.504
  21
 122.000
  31
0.0
   0
LINE
   8
LEVEL001
   6
CONTINUOUS
  62
3
  10
 116.504
  20
 124.000
  30
0.0
  11
 127.504
  21
 124.000
  31
0.0
   0
LINE
   8
LEVEL001
   6
CONTINUOUS
  62
3
  10
 116.504
  20
 126.000
  30
0.0
  11
 127.504
  21
 126.000
  31
0.0
   0
LINE
   8
LEVEL001
   6
CONTINUOUS
  62
3
  10
 116.504
  20
 128.000
  30
0.0
  11
 127.504
  21
 128.000
  31
0.0
   0
LINE
   8
LEVEL001
   6
CONTINUOUS
  62
3
  10
 116.504
  20
 130.000
  30
0.0
  11
 127.504
  21
 130.000
  31
0.0
   0
LINE
   8
LEVEL001
   6
CONTINUOUS
  62
3
  10
 116.504
  20
 132.000
  30
0.0
  11
 127.504
  21
 132.000
  31
0.0
   0
LINE
   8
LEVEL001
   6
CONTINUOUS
  62
3
  10
 116.504
  20
 134.000
  30
0.0
  11
 127.504
  21
 134.000
  31
0.0
   0
LINE
   8
LEVEL001
   6
CONTINUOUS
  62
3
  10
 116.504
  20
 136.000
  30
0.0
  11
 127.504
  21
 136.000
  31
0.0
   0
LINE
   8
LEVEL001
   6
CONTINUOUS
  62
3
  10
 116.504
  20
 138.000
  30
0.0
  11
 127.504
  21
 138.000
  31
0.0
   0
LINE
   8
LEVEL001
   6
CONTINUOUS
  62
3
  10
 116.504
  20
 140.000
  30
0.0
  11
 127.504
  21
 140.000
  31
0.0
   0
LINE
   8
LEVEL001
   6
CONTINUOUS
  62
3
  10
 116.504
  20
 142.000
  30
0.0
  11
 127.504
  21
 142.000
  31
0.0
   0
LINE
   8
LEVEL001
   6
CONTINUOUS
  62
3
  10
 116.504
  20
 144.000
  30
0.0
  11
 127.504
  21
 144.000
  31
0.0
   0
LINE
   8
LEVEL001
   6
CONTINUOUS
  62
3
  10
 116.504
  20
 146.000
  30
0.0
  11
 127.504
  21
 146.000
  31
0.0
   0
LINE
   8
LEVEL001
   6
CONTINUOUS
  62
3
  10
 116.504
  20
 148.000
  30
0.0
  11
 127.504
  21
 148.000
  31
0.0
   0
LINE
   8
LEVEL001
   6
DASHDOT
  62
1
  10
 144.004
  20
 137.000
  30
0.0
  11
 150.004
  21
 137.000
  31
0.0
   0
LINE
   8
LEVEL001
   6
DASHDOT
  62
1
  10
 150.004
  20
 133.000
  30
0.0
  11
 144.004
  21
 133.000
  31
0.0
   0
LINE
   8
LEVEL001
   6
CONTINUOUS
  62
7
  10
 89.0037
  20
 143.519
  30
0.0
  11
 89.0037
  21
 142.500
  31
0.0
   0
LINE
   8
LEVEL001
   6
CONTINUOUS
  62
7
  10
 89.0037
  20
 142.500
  30
0.0
  11
 103.004
  21
 142.500
  31
0.0
   0
LINE
   8
LEVEL001
   6
CONTINUOUS
  62
7
  10
 103.004
  20
 142.500
  30
0.0
  11
 103.004
  21
 144.500
  31
0.0
   0
LINE
   8
LEVEL001
   6
CONTINUOUS
  62
7
  10
 103.004
  20
 144.500
  30
0.0
  11
 110.004
  21
 144.500
  31
0.0
   0
LINE
   8
LEVEL001
   6
CONTINUOUS
  62
7
  10
 89.0037
  20
 126.481
  30
0.0
  11
 89.0037
  21
 127.500
  31
0.0
   0
LINE
   8
LEVEL001
   6
CONTINUOUS
  62
7
  10
 89.0037
  20
 127.500
  30
0.0
  11
 103.004
  21
 127.500
  31
0.0
   0
LINE
   8
LEVEL001
   6
CONTINUOUS
  62
7
  10
 103.004
  20
 127.500
  30
0.0
  11
 103.004
  21
 125.500
  31
0.0
   0
LINE
   8
LEVEL001
   6
CONTINUOUS
  62
7
  10
 103.004
  20
 125.500
  30
0.0
  11
 110.004
  21
 125.500
  31
0.0
   0
LINE
   8
LEVEL001
   6
CONTINUOUS
  62
7
  10
 116.504
  20
 120.000
  30
0.0
  11
 116.504
  21
 150.000
  31
0.0
   0
LINE
   8
LEVEL001
   6
CONTINUOUS
  62
7
  10
 116.504
  20
 150.000
  30
0.0
  11
 127.504
  21
 150.000
  31
0.0
   0
LINE
   8
LEVEL001
   6
CONTINUOUS
  62
7
  10
 127.504
  20
 150.000
  30
0.0
  11
 127.504
  21
 120.000
  31
0.0
   0
LINE
   8
LEVEL001
   6
CONTINUOUS
  62
7
  10
 127.504
  20
 120.000
  30
0.0
  11
 116.504
  21
 120.000
  31
0.0
   0
LINE
   8
LEVEL001
   6
DASHDOT
  62
1
  10
 153.004
  20
 135.000
  30
0.0
  11
 15.0000
  21
 135.000
  31
0.0
   0
LINE
   8
LEVEL001
   6
CONTINUOUS
  62
7
  10
 89.0037
  20
 143.519
  30
0.0
  11
 84.0000
  21
 143.362
  31
0.0
   0
LINE
   8
LEVEL001
   6
CONTINUOUS
  62
3
  10
 89.0037
  20
 142.663
  30
0.0
  11
 84.0000
  21
 142.506
  31
0.0
   0
LINE
   8
LEVEL001
   6
CONTINUOUS
  62
3
  10
 88.9986
  20
 127.338
  30
0.0
  11
 84.0000
  21
 127.494
  31
0.0
   0
LINE
   8
LEVEL001
   6
CONTINUOUS
  62
7
  10
 89.0037
  20
 126.481
  30
0.0
  11
 84.0000
  21
 126.638
  31
0.0
   0
LINE
   8
LEVEL001
   6
DASHDOT
  62
1
  10
 146.069
  20
 65.9170
  30
0.0
  11
 146.567
  21
 65.9605
  31
0.0
   0
ARC
   8
LEVEL001
   6
DASHDOT
  62
1
  10
 146.262
  20
 69.4472
  30
0.0
  40
 3.50000
  50
 275.000
  51
 95.0000
   0
LINE
   8
LEVEL001
   6
DASHDOT
  62
1
  10
 150.004
  20
 137.000
  30
0.0
  11
 150.004
  21
 133.000
  31
0.0
   0
LINE
   8
LEVEL003
   6
CONTINUOUS
  62
3
  10
 22.0000
  20
 114.500
  30
0.0
  11
 5.97669
  21
 114.500
  31
0.0
   0
LINE
   8
LEVEL003
   6
CONTINUOUS
  62
3
  10
 22.0000
  20
 155.500
  30
0.0
  11
 5.97669
  21
 155.500
  31
0.0
   0
LINE
   8
LEVEL003
   6
CONTINUOUS
  62
3
  10
 7.97669
  20
 114.500
  30
0.0
  11
 7.97669
  21
 155.500
  31
0.0
   0
LINE
   8
LEVEL003
   6
CONTINUOUS
  62
3
  10
 7.97669
  20
 114.500
  30
0.0
  11
 8.78054
  21
 117.500
  31
0.0
   0
LINE
   8
LEVEL003
   6
CONTINUOUS
  62
3
  10
 7.97669
  20
 114.500
  30
0.0
  11
 7.17284
  21
 117.500
  31
0.0
   0
LINE
   8
LEVEL003
   6
CONTINUOUS
  62
3
  10
 7.97669
  20
 155.500
  30
0.0
  11
 7.17284
  21
 152.500
  31
0.0
   0
LINE
   8
LEVEL003
   6
CONTINUOUS
  62
3
  10
 7.97669
  20
 155.500
  30
0.0
  11
 8.78054
  21
 152.500
  31
0.0
   0
TEXT
   8
LEVEL003
  62
3
  10
 6.26240
  20
 133.000
  30
0.0
  40
 4.00000
   1
41
  50
 90.0000
  41
 0.500000
   7
STANDARD
  72
1
  11
 6.26240
  21
 135.000
  31
0.0
   0
LINE
   8
LEVEL003
   6
CONTINUOUS
  62
3
  10
 19.0000
  20
 45.0000
  30
0.0
  11
 5.97669
  21
 45.0000
  31
0.0
   0
LINE
   8
LEVEL003
   6
CONTINUOUS
  62
3
  10
 19.0000
  20
 90.0000
  30
0.0
  11
 5.97669
  21
 90.0000
  31
0.0
   0
LINE
   8
LEVEL003
   6
CONTINUOUS
  62
3
  10
 7.97669
  20
 45.0000
  30
0.0
  11
 7.97669
  21
 90.0000
  31
0.0
   0
LINE
   8
LEVEL003
   6
CONTINUOUS
  62
3
  10
 7.97669
  20
 45.0000
  30
0.0
  11
 8.78054
  21
 48.0000
  31
0.0
   0
LINE
   8
LEVEL003
   6
CONTINUOUS
  62
3
  10
 7.97669
  20
 45.0000
  30
0.0
  11
 7.17284
  21
 48.0000
  31
0.0
   0
LINE
   8
LEVEL003
   6
CONTINUOUS
  62
3
  10
 7.97669
  20
 90.0000
  30
0.0
  11
 7.17284
  21
 87.0000
  31
0.0
   0
LINE
   8
LEVEL003
   6
CONTINUOUS
  62
3
  10
 7.97669
  20
 90.0000
  30
0.0
  11
 8.78054
  21
 87.0000
  31
0.0
   0
TEXT
   8
LEVEL003
  62
3
  10
 6.26240
  20
 65.5000
  30
0.0
  40
 4.00000
   1
45
  50
 90.0000
  41
 0.500000
   7
STANDARD
  72
1
  11
 6.26240
  21
 67.5000
  31
0.0
   0
LINE
   8
LEVEL003
   6
CONTINUOUS
  62
3
  10
 19.0000
  20
 45.0000
  30
0.0
  11
 19.0000
  21
 26.9476
  31
0.0
   0
LINE
   8
LEVEL003
   6
CONTINUOUS
  62
3
  10
 84.0000
  20
 45.0000
  30
0.0
  11
 84.0000
  21
 26.9476
  31
0.0
   0
LINE
   8
LEVEL003
   6
CONTINUOUS
  62
3
  10
 19.0000
  20
 28.9476
  30
0.0
  11
 84.0000
  21
 28.9476
  31
0.0
   0
LINE
   8
LEVEL003
   6
CONTINUOUS
  62
3
  10
 19.0000
  20
 28.9476
  30
0.0
  11
 22.0000
  21
 28.1437
  31
0.0
   0
LINE
   8
LEVEL003
   6
CONTINUOUS
  62
3
  10
 19.0000
  20
 28.9476
  30
0.0
  11
 22.0000
  21
 29.7514
  31
0.0
   0
LINE
   8
LEVEL003
   6
CONTINUOUS
  62
3
  10
 84.0000
  20
 28.9476
  30
0.0
  11
 81.0000
  21
 29.7514
  31
0.0
   0
LINE
   8
LEVEL003
   6
CONTINUOUS
  62
3
  10
 84.0000
  20
 28.9476
  30
0.0
  11
 81.0000
  21
 28.1437
  31
0.0
   0
TEXT
   8
LEVEL003
  62
3
  10
 49.5000
  20
 30.6618
  30
0.0
  40
 4.00000
   1
65
  41
 0.500000
   7
STANDARD
  72
1
  11
 51.5000
  21
 30.6618
  31
0.0
   0
CIRCLE
   8
LEVEL003
   6
CONTINUOUS
  62
7
  10
 156.409
  20
 30.1000
  30
0.0
  40
 3.00000
   0
LINE
   8
LEVEL003
   6
CONTINUOUS
  62
7
  10
 162.297
  20
 33.1000
  30
0.0
  11
 158.487
  21
 26.5000
  31
0.0
   0
LINE
   8
LEVEL003
   6
CONTINUOUS
  62
7
  10
 158.487
  20
 26.5000
  30
0.0
  11
 150.866
  21
 26.5000
  31
0.0
   0
LINE
   8
LEVEL003
   6
CONTINUOUS
  62
7
  10
 150.000
  20
 25.0000
  30
0.0
  11
 163.621
  21
 25.0000
  31
0.0
   0
LINE
   8
LEVEL003
   6
CONTINUOUS
  62
7
  10
 163.621
  20
 25.0000
  30
0.0
  11
 168.297
  21
 33.1000
  31
0.0
   0
LINE
   8
LEVEL003
   6
CONTINUOUS
  62
7
  10
 168.297
  20
 33.1000
  30
0.0
  11
 162.297
  21
 33.1000
  31
0.0
   0
LINE
   8
LEVEL003
   6
CONTINUOUS
  62
7
  10
 150.866
  20
 26.5000
  30
0.0
  11
 150.000
  21
 25.0000
  31
0.0
   0
TEXT
   8
LEVEL003
  62
7
  10
 168.381
  20
 23.0493
  30
0.0
  40
 10.0000
   1
ＯＳＡＫＡ ＪＡＣＫ
   7
STANDARD
   0
TEXT
   8
LEVEL003
  62
7
  10
 171.293
  20
 39.9427
  30
0.0
  40
 6.00000
   1
Model : Ｅ５Ｓ１.５
   7
STANDARD
   0
LINE
   8
LEVEL004
   6
DOT
  62
3
  10
 69.2500
  20
 84.0000
  30
0.0
  11
 60.7500
  21
 84.0000
  31
0.0
   0
LINE
   8
LEVEL004
   6
DOT
  62
3
  10
 60.7500
  20
 90.0000
  30
0.0
  11
 60.7500
  21
 84.0000
  31
0.0
   0
LINE
   8
LEVEL004
   6
DOT
  62
3
  10
 62.2500
  20
 84.0000
  30
0.0
  11
 62.2500
  21
 45.0000
  31
0.0
   0
LINE
   8
LEVEL004
   6
DASHDOT
  62
1
  10
 65.0000
  20
 40.0000
  30
0.0
  11
 65.0000
  21
 95.0000
  31
0.0
   0
LINE
   8
LEVEL004
   6
DOT
  62
3
  10
 69.2500
  20
 90.0000
  30
0.0
  11
 69.2500
  21
 84.0000
  31
0.0
   0
LINE
   8
LEVEL004
   6
DOT
  62
3
  10
 67.7500
  20
 84.0000
  30
0.0
  11
 67.7500
  21
 45.0000
  31
0.0
   0
LINE
   8
LEVEL003
   6
CONTINUOUS
  62
3
  10
 27.5000
  20
 89.0000
  30
0.0
  11
 27.5000
  21
 102.000
  31
0.0
   0
LINE
   8
LEVEL003
   6
CONTINUOUS
  62
3
  10
 52.5000
  20
 89.0000
  30
0.0
  11
 52.5000
  21
 102.000
  31
0.0
   0
LINE
   8
LEVEL003
   6
CONTINUOUS
  62
3
  10
 27.5000
  20
 100.000
  30
0.0
  11
 52.5000
  21
 100.000
  31
0.0
   0
LINE
   8
LEVEL003
   6
CONTINUOUS
  62
3
  10
 27.5000
  20
 100.000
  30
0.0
  11
 30.5000
  21
 99.4710
  31
0.0
   0
LINE
   8
LEVEL003
   6
CONTINUOUS
  62
3
  10
 27.5000
  20
 100.000
  30
0.0
  11
 30.5000
  21
 100.529
  31
0.0
   0
LINE
   8
LEVEL003
   6
CONTINUOUS
  62
3
  10
 52.5000
  20
 100.000
  30
0.0
  11
 49.5000
  21
 100.529
  31
0.0
   0
LINE
   8
LEVEL003
   6
CONTINUOUS
  62
3
  10
 52.5000
  20
 100.000
  30
0.0
  11
 49.5000
  21
 99.4710
  31
0.0
   0
TEXT
   8
LEVEL003
  62
3
  10
 36.0000
  20
 100.800
  30
0.0
  40
 4.00000
   1
%%c25
   7
STANDARD
  72
1
  11
 40.0000
  21
 100.800
  31
0.0
   0
TEXT
   8
LEVEL003
  62
3
  10
 95.0000
  20
 35.0000
  30
0.0
  40
 4.00000
   1
ＮＰＴ３／８
   7
STANDARD
   0
LINE
   8
LEVEL003
   6
CONTINUOUS
  62
3
  10
 87.1749
  20
 55.8067
  30
0.0
  11
 95.0000
  21
 35.0000
  31
0.0
   0
LINE
   8
LEVEL003
   6
CONTINUOUS
  62
3
  10
 95.0000
  20
 35.0000
  30
0.0
  11
 120.000
  21
 35.0000
  31
0.0
   0
LINE
   8
LEVEL003
   6
CONTINUOUS
  62
3
  10
 87.1749
  20
 55.8067
  30
0.0
  11
 87.7358
  21
 52.8126
  31
0.0
   0
LINE
   8
LEVEL003
   6
CONTINUOUS
  62
3
  10
 87.1749
  20
 55.8067
  30
0.0
  11
 88.7260
  21
 53.1850
  31
0.0
   0
LINE
   8
LEVEL003
   6
CONTINUOUS
  62
3
  10
 25.0000
  20
 66.8919
  30
0.0
  11
 55.0000
  21
 66.8919
  31
0.0
   0
LINE
   8
LEVEL003
   6
CONTINUOUS
  62
3
  10
 25.0000
  20
 66.8919
  30
0.0
  11
 28.0000
  21
 66.3629
  31
0.0
   0
LINE
   8
LEVEL003
   6
CONTINUOUS
  62
3
  10
 25.0000
  20
 66.8919
  30
0.0
  11
 28.0000
  21
 67.4208
  31
0.0
   0
LINE
   8
LEVEL003
   6
CONTINUOUS
  62
3
  10
 55.0000
  20
 66.8919
  30
0.0
  11
 52.0000
  21
 67.4208
  31
0.0
   0
LINE
   8
LEVEL003
   6
CONTINUOUS
  62
3
  10
 55.0000
  20
 66.8919
  30
0.0
  11
 52.0000
  21
 66.3629
  31
0.0
   0
TEXT
   8
LEVEL003
  62
3
  10
 36.0000
  20
 67.6919
  30
0.0
  40
 4.00000
   1
%%c30
   7
STANDARD
  72
1
  11
 40.0000
  21
 67.6919
  31
0.0
   0
LINE
   8
LEVEL004
   6
DOT
  62
3
  10
 52.5000
  20
 89.5000
  30
0.0
  11
 52.5000
  21
 69.5000
  31
0.0
   0
LINE
   8
LEVEL004
   6
DOT
  62
3
  10
 55.0000
  20
 80.5000
  30
0.0
  11
 55.0000
  21
 55.0000
  31
0.0
   0
LINE
   8
LEVEL004
   6
DOT
  62
3
  10
 27.5000
  20
 89.5000
  30
0.0
  11
 27.5000
  21
 69.5000
  31
0.0
   0
LINE
   8
LEVEL004
   6
DOT
  62
3
  10
 25.0000
  20
 80.5000
  30
0.0
  11
 25.0000
  21
 55.0000
  31
0.0
   0
TEXT
   8
LEVEL003
  62
3
  10
 75.0000
  20
 165.000
  30
0.0
  40
 4.00000
   1
２－%%c５．５
   7
STANDARD
   0
LINE
   8
LEVEL003
   6
CONTINUOUS
  62
3
  10
 75.0000
  20
 165.000
  30
0.0
  11
 100.000
  21
 165.000
  31
0.0
   0
LINE
   8
LEVEL003
   6
CONTINUOUS
  62
3
  10
 66.4740
  20
 151.572
  30
0.0
  11
 75.0000
  21
 165.000
  31
0.0
   0
LINE
   8
LEVEL003
   6
CONTINUOUS
  62
3
  10
 66.4740
  20
 151.572
  30
0.0
  11
 67.6355
  21
 154.388
  31
0.0
   0
LINE
   8
LEVEL003
   6
CONTINUOUS
  62
3
  10
 66.4740
  20
 151.572
  30
0.0
  11
 68.5286
  21
 153.821
  31
0.0
   0
LINE
   8
LEVEL003
   6
CONTINUOUS
  62
3
  10
 60.7500
  20
 91.0000
  30
0.0
  11
 60.7500
  21
 97.0000
  31
0.0
   0
LINE
   8
LEVEL003
   6
CONTINUOUS
  62
3
  10
 69.2500
  20
 91.0000
  30
0.0
  11
 69.2500
  21
 97.0000
  31
0.0
   0
LINE
   8
LEVEL003
   6
CONTINUOUS
  62
3
  10
 60.7500
  20
 95.0000
  30
0.0
  11
 69.2500
  21
 95.0000
  31
0.0
   0
LINE
   8
LEVEL003
   6
CONTINUOUS
  62
3
  10
 69.2500
  20
 95.0000
  30
0.0
  11
 86.0000
  21
 95.0000
  31
0.0
   0
LINE
   8
LEVEL003
   6
CONTINUOUS
  62
3
  10
 60.7500
  20
 95.0000
  30
0.0
  11
 63.7500
  21
 94.4710
  31
0.0
   0
LINE
   8
LEVEL003
   6
CONTINUOUS
  62
3
  10
 60.7500
  20
 95.0000
  30
0.0
  11
 63.7500
  21
 95.5290
  31
0.0
   0
LINE
   8
LEVEL003
   6
CONTINUOUS
  62
3
  10
 69.2500
  20
 95.0000
  30
0.0
  11
 66.2500
  21
 95.5290
  31
0.0
   0
LINE
   8
LEVEL003
   6
CONTINUOUS
  62
3
  10
 69.2500
  20
 95.0000
  30
0.0
  11
 66.2500
  21
 94.4710
  31
0.0
   0
TEXT
   8
LEVEL003
  62
3
  10
 67.0000
  20
 95.8000
  30
0.0
  40
 4.00000
   1
%%c8.5
   7
STANDARD
  72
1
  11
 79.0000
  21
 95.8000
  31
0.0
   0
LINE
   8
LEVEL003
   6
CONTINUOUS
  62
3
  10
 75.0000
  20
 90.0000
  30
0.0
  11
 75.0000
  21
 90.0000
  31
0.0
   0
LINE
   8
LEVEL003
   6
CONTINUOUS
  62
3
  10
 70.2500
  20
 84.0000
  30
0.0
  11
 77.0000
  21
 84.0000
  31
0.0
   0
LINE
   8
LEVEL003
   6
CONTINUOUS
  62
3
  10
 75.0000
  20
 90.0000
  30
0.0
  11
 75.0000
  21
 84.0000
  31
0.0
   0
LINE
   8
LEVEL003
   6
CONTINUOUS
  62
3
  10
 75.0000
  20
 90.0000
  30
0.0
  11
 75.5290
  21
 93.0000
  31
0.0
   0
LINE
   8
LEVEL003
   6
CONTINUOUS
  62
3
  10
 75.0000
  20
 90.0000
  30
0.0
  11
 74.4710
  21
 93.0000
  31
0.0
   0
LINE
   8
LEVEL003
   6
CONTINUOUS
  62
3
  10
 75.0000
  20
 84.0000
  30
0.0
  11
 74.4710
  21
 81.0000
  31
0.0
   0
LINE
   8
LEVEL003
   6
CONTINUOUS
  62
3
  10
 75.0000
  20
 84.0000
  30
0.0
  11
 75.5290
  21
 81.0000
  31
0.0
   0
LINE
   8
LEVEL003
   6
CONTINUOUS
  62
3
  10
 75.0000
  20
 90.0000
  30
0.0
  11
 75.0000
  21
 93.7500
  31
0.0
   0
LINE
   8
LEVEL003
   6
CONTINUOUS
  62
3
  10
 75.0000
  20
 84.0000
  30
0.0
  11
 75.0000
  21
 80.2500
  31
0.0
   0
TEXT
   8
LEVEL003
  62
3
  10
 74.2000
  20
 85.0000
  30
0.0
  40
 4.00000
   1
6
  50
 90.0000
   7
STANDARD
  72
1
  11
 74.2000
  21
 87.0000
  31
0.0
   0
ENDSEC
   0
EOF
