   0
SECTION
   2
HEADER
   9
$LIMMIN
  10
0.0
  20
0.0
   9
$LIMMAX
  10
 420.000
  20
 297.000
   9
$EXTMIN
  10
0.0
  20
0.0
   9
$EXTMAX
  10
 420.000
  20
 297.000
   9
$LTSCALE
  40
 8.40000
   0
ENDSEC
   0
SECTION
   2
TABLES
  0
TABLE
  2
LTYPE
 70
    25
  0
LTYPE
  2
CONTINUOUS
 70
    64
  3
Solid line
 72
    65
 73
     0
 40
0.0
  0
LTYPE
  2
BORDER
 70
    64
  3
__ __ . __ __ . __ __ . __ __ . __ __ . __ __ .
 72
    65
 73
     6
 40
1.75
 49
0.5
 49
-0.25
 49
0.5
 49
-0.25
 49
0.0
 49
-0.25
  0
LTYPE
  2
BORDER2
 70
    64
  3
__.__.__.__.__.__.__.__.__.__.__.__.__.__.__.__
 72
    65
 73
     6
 40
0.875
 49
0.25
 49
-0.125
 49
0.25
 49
-0.125
 49
0.0
 49
-0.125
  0
LTYPE
  2
BORDERX2
 70
    64
  3
____  ____  .  ____  ____  .  ____  ____  .  __
 72
    65
 73
     6
 40
3.5
 49
1.0
 49
-0.5
 49
1.0
 49
-0.5
 49
0.0
 49
-0.5
  0
LTYPE
  2
CENTER
 70
    64
  3
____ _ ____ _ ____ _ ____ _ ____ _ ____ _ ____ 
 72
    65
 73
     4
 40
2.0
 49
1.25
 49
-0.25
 49
0.25
 49
-0.25
  0
LTYPE
  2
CENTER2
 70
    64
  3
___ _ ___ _ ___ _ ___ _ ___ _ ___ _ ___ _ ___ _
 72
    65
 73
     4
 40
1.125
 49
0.75
 49
-0.125
 49
0.125
 49
-0.125
  0
LTYPE
  2
CENTERX2
 70
    64
  3
________  __  ________  __  ________  __  _____
 72
    65
 73
     4
 40
4.0
 49
2.5
 49
-0.5
 49
0.5
 49
-0.5
  0
LTYPE
  2
DASHDOT
 70
    64
  3
__ . __ . __ . __ . __ . __ . __ . __ . __ . __
 72
    65
 73
     4
 40
1.0
 49
0.5
 49
-0.25
 49
0.0
 49
-0.25
  0
LTYPE
  2
DASHDOT2
 70
    64
  3
_._._._._._._._._._._._._._._._._._._._._._._._
 72
    65
 73
     4
 40
0.5
 49
0.25
 49
-0.125
 49
0.0
 49
-0.125
  0
LTYPE
  2
DASHDOTX2
 70
    64
  3
____  .  ____  .  ____  .  ____  .  ____  .  __
 72
    65
 73
     4
 40
2.0
 49
1.0
 49
-0.5
 49
0.0
 49
-0.5
  0
LTYPE
  2
DASHED
 70
    64
  3
__ __ __ __ __ __ __ __ __ __ __ __ __ __ __ __
 72
    65
 73
     2
 40
0.75
 49
0.5
 49
-0.25
  0
LTYPE
  2
DASHED2
 70
    64
  3
_ _ _ _ _ _ _ _ _ _ _ _ _ _ _ _ _ _ _ _ _ _ _ _
 72
    65
 73
     2
 40
0.375
 49
0.25
 49
-0.125
  0
LTYPE
  2
DASHEDX2
 70
    64
  3
____  ____  ____  ____  ____  ____  ____  ____ 
 72
    65
 73
     2
 40
1.5
 49
1.0
 49
-0.5
  0
LTYPE
  2
DIVIDE
 70
    64
  3
____ . . ____ . . ____ . . ____ . . ____ . . __
 72
    65
 73
     6
 40
1.25
 49
0.5
 49
-0.25
 49
0.0
 49
-0.25
 49
0.0
 49
-0.25
  0
LTYPE
  2
DIVIDE2
 70
    64
  3
__..__..__..__..__..__..__..__..__..__..__..__.
 72
    65
 73
     6
 40
0.625
 49
0.25
 49
-0.125
 49
0.0
 49
-0.125
 49
0.0
 49
-0.125
  0
LTYPE
  2
DIVIDEX2
 70
    64
  3
________  .  .  ________  .  .  ________  .  . 
 72
    65
 73
     6
 40
2.5
 49
1.0
 49
-0.5
 49
0.0
 49
-0.5
 49
0.0
 49
-0.5
  0
LTYPE
  2
DOT
 70
    64
  3
. . . . . . . . . . . . . . . . . . . . . . . .
 72
    65
 73
     2
 40
0.25
 49
0.0
 49
-0.25
  0
LTYPE
  2
DOT2
 70
    64
  3
...............................................
 72
    65
 73
     2
 40
0.125
 49
0.0
 49
-0.125
  0
LTYPE
  2
DOTX2
 70
    64
  3
.  .  .  .  .  .  .  .  .  .  .  .  .  .  .  . 
 72
    65
 73
     2
 40
0.5
 49
0.0
 49
-0.5
  0
LTYPE
  2
HIDDEN
 70
    64
  3
__ __ __ __ __ __ __ __ __ __ __ __ __ __ __ __
 72
    65
 73
     2
 40
0.375
 49
0.25
 49
-0.125
  0
LTYPE
  2
HIDDEN2
 70
    64
  3
_ _ _ _ _ _ _ _ _ _ _ _ _ _ _ _ _ _ _ _ _ _ _ _
 72
    65
 73
     2
 40
0.1875
 49
0.125
 49
-0.0625
  0
LTYPE
  2
HIDDENX2
 70
    64
  3
____ ____ ____ ____ ____ ____ ____ ____ ____ __
 72
    65
 73
     2
 40
0.75
 49
0.5
 49
-0.25
  0
LTYPE
  2
PHANTOM
 70
    64
  3
______  __  __  ______  __  __  ______  __  __ 
 72
    65
 73
     6
 40
2.5
 49
1.25
 49
-0.25
 49
0.25
 49
-0.25
 49
0.25
 49
-0.25
  0
LTYPE
  2
PHANTOM2
 70
    64
  3
___ _ _ ___ _ _ ___ _ _ ___ _ _ ___ _ _ ___ _ _
 72
    65
 73
     6
 40
1.25
 49
0.625
 49
-0.125
 49
0.125
 49
-0.125
 49
0.125
 49
-0.125
  0
LTYPE
  2
PHANTOMX2
 70
    64
  3
____________    ____    ____    ____________   
 72
    65
 73
     6
 40
5.0
 49
2.5
 49
-0.5
 49
0.5
 49
-0.5
 49
0.5
 49
-0.5
  0
ENDTAB
  0
TABLE
  2
STYLE
 70
     2
  0
STYLE
  2
STANDARD
 70
0
 40
0.0
 41
1.0
 50
0.0
 71
0
 42
0.2
  3
TXT
  4
BIGFONT
  0
STYLE
  2
STANDARD1
 70
     4
 40
0.0
 41
1.0
 50
0.0
 71
     0
 42
0.2
  3
TXT
  4
BIGFONT
  0
ENDTAB
   0
TABLE
   2
LAYER
  70
4
   0
LAYER
   2
0
  70
0
  62
7
   6
CONTINUOUS
   0
LAYER
   2
LEVEL001
  70
0
  62
7
   6
CONTINUOUS
   0
LAYER
   2
LEVEL003
  70
0
  62
7
   6
CONTINUOUS
   0
LAYER
   2
LEVEL004
  70
0
  62
7
   6
CONTINUOUS
   0
ENDTAB
   0
ENDSEC
   0
SECTION
   2
ENTITIES
   0
LINE
   8
LEVEL003
   6
CONTINUOUS
  62
3
  10
 57.5000
  20
 284.000
  30
0.0
  11
 57.5000
  21
 294.000
  31
0.0
   0
LINE
   8
LEVEL003
   6
CONTINUOUS
  62
3
  10
 82.5000
  20
 284.000
  30
0.0
  11
 82.5000
  21
 294.000
  31
0.0
   0
LINE
   8
LEVEL003
   6
CONTINUOUS
  62
3
  10
 57.5000
  20
 292.000
  30
0.0
  11
 82.5000
  21
 292.000
  31
0.0
   0
LINE
   8
LEVEL003
   6
CONTINUOUS
  62
3
  10
 57.5000
  20
 292.000
  30
0.0
  11
 60.5000
  21
 291.471
  31
0.0
   0
LINE
   8
LEVEL003
   6
CONTINUOUS
  62
3
  10
 57.5000
  20
 292.000
  30
0.0
  11
 60.5000
  21
 292.529
  31
0.0
   0
LINE
   8
LEVEL003
   6
CONTINUOUS
  62
3
  10
 82.5000
  20
 292.000
  30
0.0
  11
 79.5000
  21
 292.529
  31
0.0
   0
LINE
   8
LEVEL003
   6
CONTINUOUS
  62
3
  10
 82.5000
  20
 292.000
  30
0.0
  11
 79.5000
  21
 291.471
  31
0.0
   0
TEXT
   8
LEVEL003
  62
3
  10
 66.0000
  20
 292.800
  30
0.0
  40
 4.00000
   1
%%c25
   7
STANDARD
  72
1
  11
 70.0000
  21
 292.800
  31
0.0
   0
TEXT
   8
LEVEL003
  62
3
  10
 110.000
  20
 290.000
  30
0.0
  40
 4.00000
   1
Ｍ２０×２
   7
STANDARD
   0
LINE
   8
LEVEL003
   6
CONTINUOUS
  62
3
  10
 80.0000
  20
 270.000
  30
0.0
  11
 110.000
  21
 290.000
  31
0.0
   0
LINE
   8
LEVEL003
   6
CONTINUOUS
  62
3
  10
 80.0000
  20
 270.000
  30
0.0
  11
 82.7896
  21
 271.224
  31
0.0
   0
LINE
   8
LEVEL003
   6
CONTINUOUS
  62
3
  10
 80.0000
  20
 270.000
  30
0.0
  11
 82.2027
  21
 272.104
  31
0.0
   0
TEXT
   8
LEVEL003
  62
3
  10
 110.000
  20
 245.000
  30
0.0
  40
 4.00000
   1
Ｍ４２×１．５
   7
STANDARD
   0
LINE
   8
LEVEL003
   6
CONTINUOUS
  62
3
  10
 91.0000
  20
 260.000
  30
0.0
  11
 110.000
  21
 245.000
  31
0.0
   0
LINE
   8
LEVEL003
   6
CONTINUOUS
  62
3
  10
 91.0000
  20
 260.000
  30
0.0
  11
 93.0269
  21
 257.726
  31
0.0
   0
LINE
   8
LEVEL003
   6
CONTINUOUS
  62
3
  10
 91.0000
  20
 260.000
  30
0.0
  11
 93.6824
  21
 258.556
  31
0.0
   0
LINE
   8
LEVEL003
   6
CONTINUOUS
  62
3
  10
 57.0000
  20
 175.000
  30
0.0
  11
 83.0000
  21
 175.000
  31
0.0
   0
LINE
   8
LEVEL003
   6
CONTINUOUS
  62
3
  10
 57.0000
  20
 175.000
  30
0.0
  11
 60.0000
  21
 174.471
  31
0.0
   0
LINE
   8
LEVEL003
   6
CONTINUOUS
  62
3
  10
 57.0000
  20
 175.000
  30
0.0
  11
 60.0000
  21
 175.529
  31
0.0
   0
LINE
   8
LEVEL003
   6
CONTINUOUS
  62
3
  10
 83.0000
  20
 175.000
  30
0.0
  11
 80.0000
  21
 175.529
  31
0.0
   0
LINE
   8
LEVEL003
   6
CONTINUOUS
  62
3
  10
 83.0000
  20
 175.000
  30
0.0
  11
 80.0000
  21
 174.471
  31
0.0
   0
TEXT
   8
LEVEL003
  62
3
  10
 66.0000
  20
 175.800
  30
0.0
  40
 4.00000
   1
%%c26
   7
STANDARD
  72
1
  11
 70.0000
  21
 175.800
  31
0.0
   0
LINE
   8
LEVEL003
   6
CONTINUOUS
  62
3
  10
 55.0000
  20
 165.000
  30
0.0
  11
 85.0000
  21
 165.000
  31
0.0
   0
LINE
   8
LEVEL003
   6
CONTINUOUS
  62
3
  10
 55.0000
  20
 165.000
  30
0.0
  11
 58.0000
  21
 164.471
  31
0.0
   0
LINE
   8
LEVEL003
   6
CONTINUOUS
  62
3
  10
 55.0000
  20
 165.000
  30
0.0
  11
 58.0000
  21
 165.529
  31
0.0
   0
LINE
   8
LEVEL003
   6
CONTINUOUS
  62
3
  10
 85.0000
  20
 165.000
  30
0.0
  11
 82.0000
  21
 165.529
  31
0.0
   0
LINE
   8
LEVEL003
   6
CONTINUOUS
  62
3
  10
 85.0000
  20
 165.000
  30
0.0
  11
 82.0000
  21
 164.471
  31
0.0
   0
TEXT
   8
LEVEL003
  62
3
  10
 66.0000
  20
 165.800
  30
0.0
  40
 4.00000
   1
%%c30
   7
STANDARD
  72
1
  11
 70.0000
  21
 165.800
  31
0.0
   0
LINE
   8
LEVEL003
   6
CONTINUOUS
  62
3
  10
 49.0000
  20
 155.000
  30
0.0
  11
 91.0000
  21
 155.000
  31
0.0
   0
LINE
   8
LEVEL003
   6
CONTINUOUS
  62
3
  10
 49.0000
  20
 155.000
  30
0.0
  11
 52.0000
  21
 154.471
  31
0.0
   0
LINE
   8
LEVEL003
   6
CONTINUOUS
  62
3
  10
 49.0000
  20
 155.000
  30
0.0
  11
 52.0000
  21
 155.529
  31
0.0
   0
LINE
   8
LEVEL003
   6
CONTINUOUS
  62
3
  10
 91.0000
  20
 155.000
  30
0.0
  11
 88.0000
  21
 155.529
  31
0.0
   0
LINE
   8
LEVEL003
   6
CONTINUOUS
  62
3
  10
 91.0000
  20
 155.000
  30
0.0
  11
 88.0000
  21
 154.471
  31
0.0
   0
TEXT
   8
LEVEL003
  62
3
  10
 66.0000
  20
 155.800
  30
0.0
  40
 4.00000
   1
%%c42
   7
STANDARD
  72
1
  11
 70.0000
  21
 155.800
  31
0.0
   0
LINE
   8
LEVEL003
   6
CONTINUOUS
  62
3
  10
 82.5000
  20
 284.000
  30
0.0
  11
 192.000
  21
 284.000
  31
0.0
   0
LINE
   8
LEVEL003
   6
CONTINUOUS
  62
3
  10
 91.0000
  20
 70.0000
  30
0.0
  11
 192.000
  21
 70.0000
  31
0.0
   0
LINE
   8
LEVEL003
   6
CONTINUOUS
  62
3
  10
 190.000
  20
 284.000
  30
0.0
  11
 190.000
  21
 70.0000
  31
0.0
   0
LINE
   8
LEVEL003
   6
CONTINUOUS
  62
3
  10
 190.000
  20
 284.000
  30
0.0
  11
 189.471
  21
 281.000
  31
0.0
   0
LINE
   8
LEVEL003
   6
CONTINUOUS
  62
3
  10
 190.000
  20
 284.000
  30
0.0
  11
 190.529
  21
 281.000
  31
0.0
   0
LINE
   8
LEVEL003
   6
CONTINUOUS
  62
3
  10
 190.000
  20
 70.0000
  30
0.0
  11
 190.529
  21
 73.0000
  31
0.0
   0
LINE
   8
LEVEL003
   6
CONTINUOUS
  62
3
  10
 190.000
  20
 70.0000
  30
0.0
  11
 189.471
  21
 73.0000
  31
0.0
   0
TEXT
   8
LEVEL003
  62
3
  10
 189.200
  20
 174.000
  30
0.0
  40
 4.00000
   1
214
  50
 90.0000
  41
 0.500000
   7
STANDARD
  72
1
  11
 189.200
  21
 177.000
  31
0.0
   0
TEXT
   8
LEVEL003
  62
3
  10
 102.000
  20
 60.0000
  30
0.0
  40
 4.00000
   1
ＮＰＴ３／８
   7
STANDARD
   0
LINE
   8
LEVEL003
   6
CONTINUOUS
  62
3
  10
 94.1749
  20
 80.8067
  30
0.0
  11
 102.000
  21
 60.0000
  31
0.0
   0
LINE
   8
LEVEL003
   6
CONTINUOUS
  62
3
  10
 94.1749
  20
 80.8067
  30
0.0
  11
 94.7358
  21
 77.8126
  31
0.0
   0
LINE
   8
LEVEL003
   6
CONTINUOUS
  62
3
  10
 94.1749
  20
 80.8067
  30
0.0
  11
 95.7260
  21
 78.1850
  31
0.0
   0
LINE
   8
LEVEL003
   6
CONTINUOUS
  62
3
  10
 56.0000
  20
 66.0000
  30
0.0
  11
 56.0000
  21
 53.0000
  31
0.0
   0
LINE
   8
LEVEL003
   6
CONTINUOUS
  62
3
  10
 84.0000
  20
 66.0000
  30
0.0
  11
 84.0000
  21
 53.0000
  31
0.0
   0
LINE
   8
LEVEL003
   6
CONTINUOUS
  62
3
  10
 56.0000
  20
 55.0000
  30
0.0
  11
 84.0000
  21
 55.0000
  31
0.0
   0
LINE
   8
LEVEL003
   6
CONTINUOUS
  62
3
  10
 56.0000
  20
 55.0000
  30
0.0
  11
 59.0000
  21
 54.4710
  31
0.0
   0
LINE
   8
LEVEL003
   6
CONTINUOUS
  62
3
  10
 56.0000
  20
 55.0000
  30
0.0
  11
 59.0000
  21
 55.5290
  31
0.0
   0
LINE
   8
LEVEL003
   6
CONTINUOUS
  62
3
  10
 84.0000
  20
 55.0000
  30
0.0
  11
 81.0000
  21
 55.5290
  31
0.0
   0
LINE
   8
LEVEL003
   6
CONTINUOUS
  62
3
  10
 84.0000
  20
 55.0000
  30
0.0
  11
 81.0000
  21
 54.4710
  31
0.0
   0
TEXT
   8
LEVEL003
  62
3
  10
 66.0000
  20
 55.8000
  30
0.0
  40
 4.00000
   1
%%c28
   7
STANDARD
  72
1
  11
 70.0000
  21
 55.8000
  31
0.0
   0
LINE
   8
LEVEL003
   6
CONTINUOUS
  62
3
  10
 56.0000
  20
 70.0000
  30
0.0
  11
 50.0000
  21
 55.0000
  31
0.0
   0
LINE
   8
LEVEL003
   6
CONTINUOUS
  62
3
  10
 56.0000
  20
 70.0000
  30
0.0
  11
 54.3947
  21
 67.4110
  31
0.0
   0
LINE
   8
LEVEL003
   6
CONTINUOUS
  62
3
  10
 56.0000
  20
 70.0000
  30
0.0
  11
 55.3770
  21
 67.0181
  31
0.0
   0
ARC
   8
LEVEL004
   6
DOT
  62
3
  10
 79.0000
  20
 284.000
  30
0.0
  40
 1.00000
  50
 180.000
  51
0.0
   0
ARC
   8
LEVEL004
   6
DOT
  62
3
  10
 74.0000
  20
 284.000
  30
0.0
  40
 1.00000
  50
 180.000
  51
0.0
   0
ARC
   8
LEVEL004
   6
DOT
  62
3
  10
 61.0000
  20
 284.000
  30
0.0
  40
 1.00000
  50
 180.000
  51
0.0
   0
ARC
   8
LEVEL004
   6
DOT
  62
3
  10
 66.0000
  20
 284.000
  30
0.0
  40
 1.00000
  50
 180.000
  51
0.0
   0
LINE
   8
LEVEL004
   6
DOT
  62
3
  10
 60.0000
  20
 278.500
  30
0.0
  11
 59.5000
  21
 279.000
  31
0.0
   0
LINE
   8
LEVEL004
   6
DOT
  62
3
  10
 60.0000
  20
 278.500
  30
0.0
  11
 60.0000
  21
 276.990
  31
0.0
   0
ARC
   8
LEVEL004
   6
DOT
  62
3
  10
 59.7500
  20
 277.500
  30
0.0
  40
 1.50000
  50
0.0
  51
 90.0000
   0
LINE
   8
LEVEL004
   6
DOT
  62
3
  10
 80.0000
  20
 278.500
  30
0.0
  11
 80.5000
  21
 279.000
  31
0.0
   0
ARC
   8
LEVEL004
   6
DOT
  62
3
  10
 80.2500
  20
 277.500
  30
0.0
  40
 1.50000
  50
 90.0000
  51
 180.000
   0
LINE
   8
LEVEL004
   6
DOT
  62
3
  10
 83.0000
  20
 129.000
  30
0.0
  11
 83.0000
  21
 277.000
  31
0.0
   0
LINE
   8
LEVEL004
   6
DOT
  62
3
  10
 80.0000
  20
 276.990
  30
0.0
  11
 78.7500
  21
 276.990
  31
0.0
   0
LINE
   8
LEVEL004
   6
DOT
  62
3
  10
 80.0000
  20
 278.500
  30
0.0
  11
 80.0000
  21
 276.990
  31
0.0
   0
LINE
   8
LEVEL004
   6
DOT
  62
3
  10
 80.0000
  20
 277.000
  30
0.0
  11
 79.0000
  21
 276.000
  31
0.0
   0
LINE
   8
LEVEL004
   6
DOT
  62
3
  10
 79.0000
  20
 276.000
  30
0.0
  11
 79.0000
  21
 261.268
  31
0.0
   0
LINE
   8
LEVEL004
   6
DOT
  62
3
  10
 80.0000
  20
 277.000
  30
0.0
  11
 80.0000
  21
 265.000
  31
0.0
   0
LINE
   8
LEVEL004
   6
DOT
  62
3
  10
 80.0000
  20
 265.000
  30
0.0
  11
 79.0000
  21
 265.000
  31
0.0
   0
LINE
   8
LEVEL004
   6
DOT
  62
3
  10
 78.7500
  20
 267.000
  30
0.0
  11
 78.7500
  21
 277.500
  31
0.0
   0
LINE
   8
LEVEL004
   6
DOT
  62
3
  10
 57.0000
  20
 129.000
  30
0.0
  11
 57.0000
  21
 277.000
  31
0.0
   0
LINE
   8
LEVEL004
   6
DOT
  62
3
  10
 60.0000
  20
 276.990
  30
0.0
  11
 61.2500
  21
 276.990
  31
0.0
   0
LINE
   8
LEVEL004
   6
DOT
  62
3
  10
 61.2500
  20
 272.964
  30
0.0
  11
 61.2500
  21
 277.500
  31
0.0
   0
LINE
   8
LEVEL004
   6
DOT
  62
3
  10
 60.0000
  20
 277.000
  30
0.0
  11
 60.0000
  21
 265.000
  31
0.0
   0
LINE
   8
LEVEL004
   6
DOT
  62
3
  10
 60.0000
  20
 265.000
  30
0.0
  11
 61.0000
  21
 265.000
  31
0.0
   0
LINE
   8
LEVEL004
   6
DOT
  62
3
  10
 60.0000
  20
 277.000
  30
0.0
  11
 61.0000
  21
 276.000
  31
0.0
   0
LINE
   8
LEVEL004
   6
DOT
  62
3
  10
 61.0000
  20
 276.000
  30
0.0
  11
 61.0000
  21
 261.268
  31
0.0
   0
LINE
   8
LEVEL004
   6
DASHDOT
  62
1
  10
 58.2500
  20
 272.000
  30
0.0
  11
 77.4047
  21
 272.000
  31
0.0
   0
LINE
   8
LEVEL004
   6
DASHDOT
  62
1
  10
 73.5387
  20
 270.500
  30
0.0
  11
 73.0760
  21
 273.500
  31
0.0
   0
LINE
   8
LEVEL004
   6
DASHDOT
  62
1
  10
 73.0760
  20
 273.500
  30
0.0
  11
 72.6132
  21
 270.500
  31
0.0
   0
LINE
   8
LEVEL004
   6
DASHDOT
  62
1
  10
 72.6132
  20
 270.500
  30
0.0
  11
 72.1504
  21
 273.500
  31
0.0
   0
LINE
   8
LEVEL004
   6
DASHDOT
  62
1
  10
 72.1504
  20
 273.500
  30
0.0
  11
 71.6877
  21
 270.500
  31
0.0
   0
LINE
   8
LEVEL004
   6
DASHDOT
  62
1
  10
 71.6877
  20
 270.500
  30
0.0
  11
 71.2249
  21
 273.500
  31
0.0
   0
LINE
   8
LEVEL004
   6
DASHDOT
  62
1
  10
 71.2249
  20
 273.500
  30
0.0
  11
 70.7622
  21
 270.500
  31
0.0
   0
LINE
   8
LEVEL004
   6
DASHDOT
  62
1
  10
 70.7622
  20
 270.500
  30
0.0
  11
 70.2994
  21
 273.500
  31
0.0
   0
LINE
   8
LEVEL004
   6
DASHDOT
  62
1
  10
 70.2994
  20
 273.500
  30
0.0
  11
 69.8366
  21
 270.500
  31
0.0
   0
LINE
   8
LEVEL004
   6
DASHDOT
  62
1
  10
 69.8366
  20
 270.500
  30
0.0
  11
 69.3739
  21
 273.500
  31
0.0
   0
LINE
   8
LEVEL004
   6
DASHDOT
  62
1
  10
 69.3739
  20
 273.500
  30
0.0
  11
 68.9111
  21
 270.500
  31
0.0
   0
LINE
   8
LEVEL004
   6
DASHDOT
  62
1
  10
 68.9111
  20
 270.500
  30
0.0
  11
 68.4484
  21
 273.500
  31
0.0
   0
LINE
   8
LEVEL004
   6
DASHDOT
  62
1
  10
 68.4484
  20
 273.500
  30
0.0
  11
 67.9856
  21
 270.500
  31
0.0
   0
LINE
   8
LEVEL004
   6
DASHDOT
  62
1
  10
 67.9856
  20
 270.500
  30
0.0
  11
 67.5229
  21
 273.500
  31
0.0
   0
LINE
   8
LEVEL004
   6
DASHDOT
  62
1
  10
 67.5229
  20
 273.500
  30
0.0
  11
 67.0601
  21
 270.500
  31
0.0
   0
LINE
   8
LEVEL004
   6
DASHDOT
  62
1
  10
 67.0601
  20
 270.500
  30
0.0
  11
 66.5973
  21
 273.500
  31
0.0
   0
LINE
   8
LEVEL004
   6
DASHDOT
  62
1
  10
 66.5973
  20
 273.500
  30
0.0
  11
 66.1346
  21
 270.500
  31
0.0
   0
LINE
   8
LEVEL004
   6
DASHDOT
  62
1
  10
 66.1346
  20
 270.500
  30
0.0
  11
 65.6718
  21
 273.500
  31
0.0
   0
LINE
   8
LEVEL004
   6
DASHDOT
  62
1
  10
 65.6718
  20
 273.500
  30
0.0
  11
 65.2091
  21
 270.500
  31
0.0
   0
LINE
   8
LEVEL004
   6
DASHDOT
  62
1
  10
 65.2091
  20
 270.500
  30
0.0
  11
 64.7463
  21
 273.500
  31
0.0
   0
CIRCLE
   8
LEVEL004
   6
DOT
  62
3
  10
 62.9844
  20
 272.000
  30
0.0
  40
 1.98438
   0
LINE
   8
LEVEL004
   6
DOT
  62
3
  10
 61.2500
  20
 270.000
  30
0.0
  11
 73.2500
  21
 270.000
  31
0.0
   0
LINE
   8
LEVEL004
   6
DOT
  62
3
  10
 73.2500
  20
 270.000
  30
0.0
  11
 74.4047
  21
 272.000
  31
0.0
   0
LINE
   8
LEVEL004
   6
DOT
  62
3
  10
 74.4047
  20
 272.000
  30
0.0
  11
 73.2500
  21
 274.000
  31
0.0
   0
LINE
   8
LEVEL004
   6
DOT
  62
3
  10
 73.2500
  20
 274.000
  30
0.0
  11
 61.2500
  21
 274.000
  31
0.0
   0
LINE
   8
LEVEL004
   6
DOT
  62
3
  10
 61.2500
  20
 267.000
  30
0.0
  11
 61.2500
  21
 271.036
  31
0.0
   0
LINE
   8
LEVEL004
   6
DOT
  62
3
  10
 73.2500
  20
 274.000
  30
0.0
  11
 73.2500
  21
 270.000
  31
0.0
   0
LINE
   8
LEVEL004
   6
DOT
  62
3
  10
 79.0000
  20
 261.268
  30
0.0
  11
 79.0000
  21
 253.000
  31
0.0
   0
LINE
   8
LEVEL004
   6
DOT
  62
3
  10
 80.0000
  20
 265.000
  30
0.0
  11
 79.0000
  21
 261.268
  31
0.0
   0
LINE
   8
LEVEL004
   6
DOT
  62
3
  10
 78.7500
  20
 267.000
  30
0.0
  11
 77.7500
  21
 266.000
  31
0.0
   0
LINE
   8
LEVEL004
   6
DOT
  62
3
  10
 79.0000
  20
 261.268
  30
0.0
  11
 75.7735
  21
 261.268
  31
0.0
   0
LINE
   8
LEVEL004
   6
DOT
  62
3
  10
 79.0000
  20
 265.000
  30
0.0
  11
 75.7735
  21
 265.000
  31
0.0
   0
LINE
   8
LEVEL004
   6
DOT
  62
3
  10
 75.0000
  20
 265.500
  30
0.0
  11
 75.7735
  21
 265.053
  31
0.0
   0
LINE
   8
LEVEL004
   6
DOT
  62
3
  10
 75.7735
  20
 265.053
  30
0.0
  11
 75.7735
  21
 252.947
  31
0.0
   0
LINE
   8
LEVEL004
   6
DOT
  62
3
  10
 62.2500
  20
 266.000
  30
0.0
  11
 77.7500
  21
 266.000
  31
0.0
   0
LINE
   8
LEVEL004
   6
DOT
  62
3
  10
 61.0000
  20
 261.268
  30
0.0
  11
 61.0000
  21
 253.000
  31
0.0
   0
LINE
   8
LEVEL004
   6
DOT
  62
3
  10
 60.0000
  20
 265.000
  30
0.0
  11
 61.0000
  21
 261.268
  31
0.0
   0
LINE
   8
LEVEL004
   6
DOT
  62
3
  10
 61.2500
  20
 267.000
  30
0.0
  11
 62.2500
  21
 266.000
  31
0.0
   0
LINE
   8
LEVEL004
   6
DOT
  62
3
  10
 64.2265
  20
 261.268
  30
0.0
  11
 61.0000
  21
 261.268
  31
0.0
   0
LINE
   8
LEVEL004
   6
DOT
  62
3
  10
 64.2265
  20
 265.000
  30
0.0
  11
 61.0000
  21
 265.000
  31
0.0
   0
LINE
   8
LEVEL004
   6
DOT
  62
3
  10
 64.2265
  20
 265.053
  30
0.0
  11
 64.2265
  21
 252.947
  31
0.0
   0
LINE
   8
LEVEL004
   6
DOT
  62
3
  10
 65.0000
  20
 265.500
  30
0.0
  11
 75.0000
  21
 265.500
  31
0.0
   0
LINE
   8
LEVEL004
   6
DOT
  62
3
  10
 65.0000
  20
 265.500
  30
0.0
  11
 64.2265
  21
 265.053
  31
0.0
   0
LINE
   8
LEVEL004
   6
DOT
  62
3
  10
 85.0000
  20
 249.000
  30
0.0
  11
 85.0000
  21
 102.600
  31
0.0
   0
LINE
   8
LEVEL004
   6
DOT
  62
3
  10
 55.0000
  20
 249.000
  30
0.0
  11
 55.0000
  21
 102.600
  31
0.0
   0
LINE
   8
LEVEL004
   6
DASHDOT
  62
1
  10
 56.0000
  20
 67.0000
  30
0.0
  11
 56.0000
  21
 85.0000
  31
0.0
   0
LINE
   8
LEVEL004
   6
DOT
  62
3
  10
 59.0000
  20
 70.0000
  30
0.0
  11
 58.5000
  21
 70.5000
  31
0.0
   0
LINE
   8
LEVEL004
   6
DOT
  62
3
  10
 58.5000
  20
 70.5000
  30
0.0
  11
 58.5000
  21
 81.8660
  31
0.0
   0
LINE
   8
LEVEL004
   6
DOT
  62
3
  10
 58.5000
  20
 81.8660
  30
0.0
  11
 56.0000
  21
 83.3094
  31
0.0
   0
LINE
   8
LEVEL004
   6
DOT
  62
3
  10
 56.0000
  20
 83.3094
  30
0.0
  11
 53.5000
  21
 81.8660
  31
0.0
   0
LINE
   8
LEVEL004
   6
DOT
  62
3
  10
 53.5000
  20
 81.8660
  30
0.0
  11
 53.5000
  21
 70.5000
  31
0.0
   0
LINE
   8
LEVEL004
   6
DOT
  62
3
  10
 53.5000
  20
 70.5000
  30
0.0
  11
 53.0000
  21
 70.0000
  31
0.0
   0
LINE
   8
LEVEL004
   6
DOT
  62
3
  10
 58.5000
  20
 70.5000
  30
0.0
  11
 53.5000
  21
 70.5000
  31
0.0
   0
LINE
   8
LEVEL004
   6
DOT
  62
3
  10
 59.0000
  20
 70.0000
  30
0.0
  11
 59.0000
  21
 80.0000
  31
0.0
   0
LINE
   8
LEVEL004
   6
DOT
  62
3
  10
 59.0000
  20
 80.0000
  30
0.0
  11
 58.5000
  21
 81.8660
  31
0.0
   0
LINE
   8
LEVEL004
   6
DOT
  62
3
  10
 53.5000
  20
 81.8660
  30
0.0
  11
 53.0000
  21
 80.0000
  31
0.0
   0
LINE
   8
LEVEL004
   6
DOT
  62
3
  10
 53.0000
  20
 80.0000
  30
0.0
  11
 53.0000
  21
 70.0000
  31
0.0
   0
LINE
   8
LEVEL004
   6
DOT
  62
3
  10
 58.5000
  20
 81.8660
  30
0.0
  11
 53.5000
  21
 81.8660
  31
0.0
   0
LINE
   8
LEVEL004
   6
DOT
  62
3
  10
 59.0000
  20
 80.0000
  30
0.0
  11
 53.0000
  21
 80.0000
  31
0.0
   0
CIRCLE
   8
LEVEL001
   6
CONTINUOUS
  62
7
  10
 70.0000
  20
 25.0000
  30
0.0
  40
 21.0000
   0
LINE
   8
LEVEL001
   6
DASHDOT
  62
1
  10
 70.0000
  20
 50.0000
  30
0.0
  11
 70.0000
  21
0.0
  31
0.0
   0
CIRCLE
   8
LEVEL001
   6
CONTINUOUS
  62
7
  10
 70.0000
  20
 25.0000
  30
0.0
  40
 20.0038
   0
LINE
   8
LEVEL001
   6
CONTINUOUS
  62
3
  10
 96.3875
  20
 32.5000
  30
0.0
  11
 96.3873
  21
 17.5000
  31
0.0
   0
LINE
   8
LEVEL001
   6
CONTINUOUS
  62
7
  10
 100.004
  20
 32.5000
  30
0.0
  11
 100.004
  21
 17.5000
  31
0.0
   0
LINE
   8
LEVEL001
   6
CONTINUOUS
  62
7
  10
 101.487
  20
 17.5000
  30
0.0
  11
 101.487
  21
 32.5000
  31
0.0
   0
LINE
   8
LEVEL001
   6
CONTINUOUS
  62
3
  10
 96.0038
  20
 32.6625
  30
0.0
  11
 89.6290
  21
 32.4633
  31
0.0
   0
LINE
   8
LEVEL001
   6
CONTINUOUS
  62
7
  10
 96.0038
  20
 33.5185
  30
0.0
  11
 89.2865
  21
 33.3086
  31
0.0
   0
LINE
   8
LEVEL001
   6
CONTINUOUS
  62
7
  10
 96.0038
  20
 16.4815
  30
0.0
  11
 89.2865
  21
 16.6914
  31
0.0
   0
LINE
   8
LEVEL001
   6
CONTINUOUS
  62
3
  10
 95.9987
  20
 17.3376
  30
0.0
  11
 89.6290
  21
 17.5367
  31
0.0
   0
CIRCLE
   8
LEVEL001
   6
CONTINUOUS
  62
7
  10
 70.0000
  20
 39.0000
  30
0.0
  40
 2.50000
   0
CIRCLE
   8
LEVEL001
   6
CONTINUOUS
  62
3
  10
 70.0000
  20
 39.0000
  30
0.0
  40
 3.00000
   0
LINE
   8
LEVEL001
   6
DASHDOT
  62
1
  10
 76.0000
  20
 39.0000
  30
0.0
  11
 64.0000
  21
 39.0000
  31
0.0
   0
CIRCLE
   8
LEVEL001
   6
CONTINUOUS
  62
7
  10
 70.0000
  20
 11.0000
  30
0.0
  40
 2.50000
   0
CIRCLE
   8
LEVEL001
   6
CONTINUOUS
  62
3
  10
 70.0000
  20
 11.0000
  30
0.0
  40
 3.00000
   0
LINE
   8
LEVEL001
   6
DASHDOT
  62
1
  10
 76.0000
  20
 11.0000
  30
0.0
  11
 64.0000
  21
 11.0000
  31
0.0
   0
LINE
   8
LEVEL001
   6
CONTINUOUS
  62
3
  10
 99.2124
  20
 98.3950
  30
0.0
  11
 95.6943
  21
 97.1145
  31
0.0
   0
LINE
   8
LEVEL001
   6
CONTINUOUS
  62
3
  10
 100.719
  20
 81.1738
  30
0.0
  11
 97.0320
  21
 81.8239
  31
0.0
   0
LINE
   8
LEVEL001
   6
CONTINUOUS
  62
7
  10
 99.2124
  20
 98.3950
  30
0.0
  11
 100.616
  21
 99.3776
  31
0.0
   0
LINE
   8
LEVEL001
   6
CONTINUOUS
  62
7
  10
 116.073
  20
 100.730
  30
0.0
  11
 100.616
  21
 99.3775
  31
0.0
   0
LINE
   8
LEVEL001
   6
CONTINUOUS
  62
7
  10
 100.719
  20
 81.1738
  30
0.0
  11
 102.272
  21
 80.4498
  31
0.0
   0
LINE
   8
LEVEL001
   6
CONTINUOUS
  62
7
  10
 117.729
  20
 81.8022
  30
0.0
  11
 102.272
  21
 80.4498
  31
0.0
   0
ARC
   8
LEVEL001
   6
CONTINUOUS
  62
7
  10
 117.262
  20
 104.347
  30
0.0
  40
 1.50000
  50
 95.0001
  51
 185.000
   0
LINE
   8
LEVEL001
   6
CONTINUOUS
  62
7
  10
 117.132
  20
 105.842
  30
0.0
  11
 122.113
  21
 106.277
  31
0.0
   0
ARC
   8
LEVEL001
   6
CONTINUOUS
  62
7
  10
 119.528
  20
 78.4462
  30
0.0
  40
 1.50000
  50
 185.000
  51
 275.000
   0
LINE
   8
LEVEL001
   6
CONTINUOUS
  62
7
  10
 118.034
  20
 78.3155
  30
0.0
  11
 115.768
  21
 104.217
  31
0.0
   0
LINE
   8
LEVEL001
   6
CONTINUOUS
  62
7
  10
 119.659
  20
 76.9519
  30
0.0
  11
 124.640
  21
 77.3877
  31
0.0
   0
ARC
   8
LEVEL001
   6
CONTINUOUS
  62
7
  10
 138.182
  20
 106.178
  30
0.0
  40
 1.50000
  50
 4.99979
  51
 95.0002
   0
LINE
   8
LEVEL001
   6
CONTINUOUS
  62
7
  10
 133.071
  20
 107.236
  30
0.0
  11
 138.052
  21
 107.672
  31
0.0
   0
ARC
   8
LEVEL001
   6
CONTINUOUS
  62
7
  10
 140.448
  20
 80.2765
  30
0.0
  40
 1.50000
  50
 275.000
  51
 4.99990
   0
LINE
   8
LEVEL001
   6
CONTINUOUS
  62
7
  10
 135.598
  20
 78.3464
  30
0.0
  11
 140.579
  21
 78.7822
  31
0.0
   0
LINE
   8
LEVEL001
   6
CONTINUOUS
  62
7
  10
 139.677
  20
 106.308
  30
0.0
  11
 141.943
  21
 80.4072
  31
0.0
   0
ARC
   8
LEVEL001
   6
DASHDOT
  62
1
  10
 148.642
  20
 107.093
  30
0.0
  40
 1.00000
  50
 5.00020
  51
 95.0005
   0
LINE
   8
LEVEL001
   6
DASHDOT
  62
1
  10
 140.586
  20
 107.392
  30
0.0
  11
 148.555
  21
 108.089
  31
0.0
   0
ARC
   8
LEVEL001
   6
DASHDOT
  62
1
  10
 150.909
  20
 81.1916
  30
0.0
  40
 1.00000
  50
 275.000
  51
 5.00002
   0
LINE
   8
LEVEL001
   6
DASHDOT
  62
1
  10
 143.026
  20
 79.4982
  30
0.0
  11
 150.996
  21
 80.1954
  31
0.0
   0
LINE
   8
LEVEL001
   6
DASHDOT
  62
1
  10
 149.639
  20
 107.180
  30
0.0
  11
 151.905
  21
 81.2788
  31
0.0
   0
CIRCLE
   8
LEVEL001
   6
DASHDOT
  62
1
  10
 153.760
  20
 94.4908
  30
0.0
  40
 1.50000
   0
ARC
   8
LEVEL001
   6
DASHDOT
  62
1
  10
 142.939
  20
 80.4944
  30
0.0
  40
 1.00000
  50
 185.000
  51
 275.000
   0
ARC
   8
LEVEL001
   6
DASHDOT
  62
1
  10
 140.673
  20
 106.395
  30
0.0
  40
 1.00000
  50
 95.0007
  51
 185.000
   0
ARC
   8
LEVEL001
   6
DASHDOT
  62
1
  10
 152.285
  20
 99.8827
  30
0.0
  40
 2.00000
  50
 185.000
  51
 275.000
   0
ARC
   8
LEVEL001
   6
DASHDOT
  62
1
  10
 153.243
  20
 88.9246
  30
0.0
  40
 2.00000
  50
 95.0002
  51
 185.000
   0
LINE
   8
LEVEL001
   6
DASHDOT
  62
1
  10
 152.459
  20
 97.8903
  30
0.0
  11
 152.957
  21
 97.9339
  31
0.0
   0
LINE
   8
LEVEL001
   6
DASHDOT
  62
1
  10
 153.069
  20
 90.9170
  30
0.0
  11
 153.567
  21
 90.9605
  31
0.0
   0
ARC
   8
LEVEL001
   6
DASHDOT
  62
1
  10
 153.258
  20
 94.4469
  30
0.0
  40
 3.50000
  50
 275.065
  51
 94.9347
   0
LINE
   8
LEVEL001
   6
CONTINUOUS
  62
7
  10
 102.272
  20
 80.4498
  30
0.0
  11
 101.952
  21
 84.1049
  31
0.0
   0
LINE
   8
LEVEL001
   6
CONTINUOUS
  62
7
  10
 100.935
  20
 95.7225
  30
0.0
  11
 100.616
  21
 99.3776
  31
0.0
   0
LINE
   8
LEVEL001
   6
CONTINUOUS
  62
7
  10
 96.3330
  20
 85.4120
  30
0.0
  11
 109.419
  21
 96.4647
  31
0.0
   0
LINE
   8
LEVEL001
   6
CONTINUOUS
  62
7
  10
 95.6289
  20
 93.4596
  30
0.0
  11
 110.436
  21
 84.8472
  31
0.0
   0
LINE
   8
LEVEL001
   6
CONTINUOUS
  62
3
  10
 95.6943
  20
 97.1145
  30
0.0
  11
 96.0111
  21
 93.4930
  31
0.0
   0
LINE
   8
LEVEL001
   6
CONTINUOUS
  62
3
  10
 96.7152
  20
 85.4454
  30
0.0
  11
 97.0320
  21
 81.8239
  31
0.0
   0
LINE
   8
LEVEL001
   6
CONTINUOUS
  62
7
  10
 99.2124
  20
 98.3950
  30
0.0
  11
 99.5913
  21
 94.0646
  31
0.0
   0
LINE
   8
LEVEL001
   6
CONTINUOUS
  62
7
  10
 100.340
  20
 85.5042
  30
0.0
  11
 100.719
  21
 81.1738
  31
0.0
   0
LINE
   8
LEVEL001
   6
CONTINUOUS
  62
3
  10
 124.509
  20
 78.8820
  30
0.0
  11
 135.467
  21
 79.8407
  31
0.0
   0
LINE
   8
LEVEL001
   6
CONTINUOUS
  62
3
  10
 124.335
  20
 80.8744
  30
0.0
  11
 135.293
  21
 81.8331
  31
0.0
   0
LINE
   8
LEVEL001
   6
CONTINUOUS
  62
3
  10
 124.161
  20
 82.8668
  30
0.0
  11
 135.119
  21
 83.8255
  31
0.0
   0
LINE
   8
LEVEL001
   6
CONTINUOUS
  62
3
  10
 123.986
  20
 84.8592
  30
0.0
  11
 134.945
  21
 85.8179
  31
0.0
   0
LINE
   8
LEVEL001
   6
CONTINUOUS
  62
3
  10
 123.812
  20
 86.8516
  30
0.0
  11
 134.770
  21
 87.8103
  31
0.0
   0
LINE
   8
LEVEL001
   6
CONTINUOUS
  62
3
  10
 123.638
  20
 88.8440
  30
0.0
  11
 134.596
  21
 89.8027
  31
0.0
   0
LINE
   8
LEVEL001
   6
CONTINUOUS
  62
3
  10
 123.463
  20
 90.8364
  30
0.0
  11
 134.422
  21
 91.7951
  31
0.0
   0
LINE
   8
LEVEL001
   6
CONTINUOUS
  62
3
  10
 123.289
  20
 92.8287
  30
0.0
  11
 134.247
  21
 93.7875
  31
0.0
   0
LINE
   8
LEVEL001
   6
CONTINUOUS
  62
3
  10
 123.115
  20
 94.8211
  30
0.0
  11
 134.073
  21
 95.7798
  31
0.0
   0
LINE
   8
LEVEL001
   6
CONTINUOUS
  62
3
  10
 122.941
  20
 96.8135
  30
0.0
  11
 133.899
  21
 97.7722
  31
0.0
   0
LINE
   8
LEVEL001
   6
CONTINUOUS
  62
3
  10
 122.766
  20
 98.8059
  30
0.0
  11
 133.724
  21
 99.7646
  31
0.0
   0
LINE
   8
LEVEL001
   6
CONTINUOUS
  62
3
  10
 122.592
  20
 100.798
  30
0.0
  11
 133.550
  21
 101.757
  31
0.0
   0
LINE
   8
LEVEL001
   6
CONTINUOUS
  62
3
  10
 122.418
  20
 102.791
  30
0.0
  11
 133.376
  21
 103.749
  31
0.0
   0
LINE
   8
LEVEL001
   6
CONTINUOUS
  62
3
  10
 122.243
  20
 104.783
  30
0.0
  11
 133.201
  21
 105.742
  31
0.0
   0
LINE
   8
LEVEL001
   6
CONTINUOUS
  62
7
  10
 96.3330
  20
 85.4120
  30
0.0
  11
 95.6289
  21
 93.4596
  31
0.0
   0
LINE
   8
LEVEL001
   6
CONTINUOUS
  62
7
  10
 95.6289
  20
 93.4596
  30
0.0
  11
 99.5913
  21
 94.0646
  31
0.0
   0
LINE
   8
LEVEL001
   6
CONTINUOUS
  62
7
  10
 99.5913
  20
 94.0646
  30
0.0
  11
 100.935
  21
 95.7225
  31
0.0
   0
LINE
   8
LEVEL001
   6
CONTINUOUS
  62
7
  10
 100.935
  20
 95.7225
  30
0.0
  11
 109.419
  21
 96.4647
  31
0.0
   0
LINE
   8
LEVEL001
   6
CONTINUOUS
  62
7
  10
 109.419
  20
 96.4647
  30
0.0
  11
 110.436
  21
 84.8472
  31
0.0
   0
LINE
   8
LEVEL001
   6
CONTINUOUS
  62
7
  10
 110.436
  20
 84.8472
  30
0.0
  11
 101.952
  21
 84.1049
  31
0.0
   0
LINE
   8
LEVEL001
   6
CONTINUOUS
  62
7
  10
 101.952
  20
 84.1049
  30
0.0
  11
 100.340
  21
 85.5042
  31
0.0
   0
LINE
   8
LEVEL001
   6
CONTINUOUS
  62
7
  10
 100.340
  20
 85.5042
  30
0.0
  11
 96.3330
  21
 85.4120
  31
0.0
   0
LINE
   8
LEVEL001
   6
CONTINUOUS
  62
7
  10
 124.684
  20
 76.8896
  30
0.0
  11
 122.069
  21
 106.775
  31
0.0
   0
LINE
   8
LEVEL001
   6
CONTINUOUS
  62
7
  10
 122.069
  20
 106.775
  30
0.0
  11
 133.027
  21
 107.734
  31
0.0
   0
LINE
   8
LEVEL001
   6
CONTINUOUS
  62
7
  10
 133.027
  20
 107.734
  30
0.0
  11
 135.642
  21
 77.8483
  31
0.0
   0
LINE
   8
LEVEL001
   6
CONTINUOUS
  62
7
  10
 135.642
  20
 77.8483
  30
0.0
  11
 124.684
  21
 76.8896
  31
0.0
   0
LINE
   8
LEVEL001
   6
CONTINUOUS
  62
7
  10
 88.7500
  20
 279.000
  30
0.0
  11
 89.7500
  21
 278.000
  31
0.0
   0
LINE
   8
LEVEL001
   6
CONTINUOUS
  62
7
  10
 89.7500
  20
 278.000
  30
0.0
  11
 89.7500
  21
 276.000
  31
0.0
   0
LINE
   8
LEVEL001
   6
CONTINUOUS
  62
7
  10
 90.2500
  20
 276.000
  30
0.0
  11
 91.0000
  21
 275.250
  31
0.0
   0
LINE
   8
LEVEL001
   6
CONTINUOUS
  62
7
  10
 91.0000
  20
 275.250
  30
0.0
  11
 91.0000
  21
 253.201
  31
0.0
   0
LINE
   8
LEVEL001
   6
CONTINUOUS
  62
7
  10
 81.5000
  20
 284.000
  30
0.0
  11
 82.5000
  21
 283.000
  31
0.0
   0
LINE
   8
LEVEL001
   6
CONTINUOUS
  62
7
  10
 82.5000
  20
 283.000
  30
0.0
  11
 82.5000
  21
 279.000
  31
0.0
   0
LINE
   8
LEVEL001
   6
CONTINUOUS
  62
7
  10
 51.2500
  20
 279.000
  30
0.0
  11
 50.2500
  21
 278.000
  31
0.0
   0
LINE
   8
LEVEL001
   6
CONTINUOUS
  62
7
  10
 50.2500
  20
 278.000
  30
0.0
  11
 50.2500
  21
 276.000
  31
0.0
   0
LINE
   8
LEVEL001
   6
CONTINUOUS
  62
7
  10
 49.0000
  20
 253.201
  30
0.0
  11
 49.0000
  21
 71.0000
  31
0.0
   0
LINE
   8
LEVEL001
   6
CONTINUOUS
  62
7
  10
 49.7500
  20
 276.000
  30
0.0
  11
 49.0000
  21
 275.250
  31
0.0
   0
LINE
   8
LEVEL001
   6
CONTINUOUS
  62
7
  10
 49.0000
  20
 275.250
  30
0.0
  11
 49.0000
  21
 253.201
  31
0.0
   0
LINE
   8
LEVEL001
   6
CONTINUOUS
  62
3
  10
 49.7500
  20
 256.000
  30
0.0
  11
 49.0000
  21
 253.201
  31
0.0
   0
LINE
   8
LEVEL001
   6
CONTINUOUS
  62
7
  10
 58.5000
  20
 284.000
  30
0.0
  11
 57.5000
  21
 283.000
  31
0.0
   0
LINE
   8
LEVEL001
   6
CONTINUOUS
  62
7
  10
 57.5000
  20
 283.000
  30
0.0
  11
 57.5000
  21
 279.000
  31
0.0
   0
LINE
   8
LEVEL001
   6
CONTINUOUS
  62
7
  10
 61.0000
  20
 276.000
  30
0.0
  11
 61.2500
  21
 276.000
  31
0.0
   0
LINE
   8
LEVEL001
   6
CONTINUOUS
  62
7
  10
 58.5000
  20
 284.000
  30
0.0
  11
 81.5000
  21
 284.000
  31
0.0
   0
LINE
   8
LEVEL001
   6
DASHDOT
  62
1
  10
 94.0000
  20
 276.000
  30
0.0
  11
 94.0000
  21
 256.000
  31
0.0
   0
LINE
   8
LEVEL001
   6
DASHDOT
  62
1
  10
 94.0000
  20
 276.000
  30
0.0
  11
 90.2500
  21
 276.000
  31
0.0
   0
LINE
   8
LEVEL001
   6
DASHDOT
  62
1
  10
 46.0000
  20
 276.000
  30
0.0
  11
 46.0000
  21
 256.000
  31
0.0
   0
LINE
   8
LEVEL001
   6
DASHDOT
  62
1
  10
 46.0000
  20
 276.000
  30
0.0
  11
 49.7500
  21
 276.000
  31
0.0
   0
LINE
   8
LEVEL001
   6
DASHDOT
  62
1
  10
 46.0000
  20
 256.000
  30
0.0
  11
 49.0000
  21
 256.000
  31
0.0
   0
LINE
   8
LEVEL001
   6
DASHDOT
  62
1
  10
 91.0000
  20
 256.000
  30
0.0
  11
 94.0000
  21
 256.000
  31
0.0
   0
LINE
   8
LEVEL001
   6
CONTINUOUS
  62
3
  10
 90.2500
  20
 276.000
  30
0.0
  11
 90.2500
  21
 256.000
  31
0.0
   0
LINE
   8
LEVEL001
   6
CONTINUOUS
  62
3
  10
 90.2500
  20
 256.000
  30
0.0
  11
 91.0000
  21
 253.201
  31
0.0
   0
LINE
   8
LEVEL001
   6
DASHDOT
  62
1
  10
 70.0000
  20
 65.0000
  30
0.0
  11
 70.0000
  21
 155.000
  31
0.0
   0
LINE
   8
LEVEL001
   6
DASHDOT
  62
1
  10
 70.0000
  20
 180.000
  30
0.0
  11
 70.0000
  21
 287.000
  31
0.0
   0
LINE
   8
LEVEL001
   6
DASHDOT
  62
1
  10
 70.0000
  20
 160.000
  30
0.0
  11
 70.0000
  21
 165.000
  31
0.0
   0
LINE
   8
LEVEL001
   6
DASHDOT
  62
1
  10
 70.0000
  20
 170.000
  30
0.0
  11
 70.0000
  21
 175.000
  31
0.0
   0
LINE
   8
LEVEL001
   6
CONTINUOUS
  62
7
  10
 91.0000
  20
 71.0000
  30
0.0
  11
 90.0000
  21
 70.0000
  31
0.0
   0
LINE
   8
LEVEL001
   6
CONTINUOUS
  62
7
  10
 49.0000
  20
 71.0000
  30
0.0
  11
 50.0000
  21
 70.0000
  31
0.0
   0
LINE
   8
LEVEL001
   6
CONTINUOUS
  62
7
  10
 90.0000
  20
 70.0000
  30
0.0
  11
 50.0000
  21
 70.0000
  31
0.0
   0
LINE
   8
LEVEL001
   6
DASHDOT
  62
1
  10
 84.0000
  20
 67.0000
  30
0.0
  11
 84.0000
  21
 80.0000
  31
0.0
   0
ARC
   8
LEVEL001
   6
CONTINUOUS
  62
7
  10
 118.504
  20
 38.0000
  30
0.0
  40
 1.50000
  50
 90.0000
  51
 180.000
   0
LINE
   8
LEVEL001
   6
CONTINUOUS
  62
7
  10
 118.504
  20
 39.5000
  30
0.0
  11
 123.504
  21
 39.5000
  31
0.0
   0
LINE
   8
LEVEL001
   6
CONTINUOUS
  62
7
  10
 117.004
  20
 12.0000
  30
0.0
  11
 117.004
  21
 38.0000
  31
0.0
   0
ARC
   8
LEVEL001
   6
CONTINUOUS
  62
7
  10
 139.504
  20
 38.0000
  30
0.0
  40
 1.50000
  50
0.0
  51
 90.0000
   0
LINE
   8
LEVEL001
   6
CONTINUOUS
  62
7
  10
 134.504
  20
 39.5000
  30
0.0
  11
 139.504
  21
 39.5000
  31
0.0
   0
LINE
   8
LEVEL001
   6
CONTINUOUS
  62
7
  10
 141.004
  20
 38.0000
  30
0.0
  11
 141.004
  21
 12.0000
  31
0.0
   0
ARC
   8
LEVEL001
   6
DASHDOT
  62
1
  10
 150.004
  20
 38.0000
  30
0.0
  40
 1.00000
  50
0.0
  51
 90.0000
   0
LINE
   8
LEVEL001
   6
DASHDOT
  62
1
  10
 142.004
  20
 39.0000
  30
0.0
  11
 150.004
  21
 39.0000
  31
0.0
   0
LINE
   8
LEVEL001
   6
DASHDOT
  62
1
  10
 151.004
  20
 38.0000
  30
0.0
  11
 151.004
  21
 12.0000
  31
0.0
   0
ARC
   8
LEVEL001
   6
DASHDOT
  62
1
  10
 142.004
  20
 38.0000
  30
0.0
  40
 1.00000
  50
 90.0000
  51
 180.000
   0
LINE
   8
LEVEL001
   6
CONTINUOUS
  62
3
  10
 123.504
  20
 38.0000
  30
0.0
  11
 134.504
  21
 38.0000
  31
0.0
   0
LINE
   8
LEVEL001
   6
CONTINUOUS
  62
7
  10
 123.504
  20
 10.0000
  30
0.0
  11
 123.504
  21
 40.0000
  31
0.0
   0
LINE
   8
LEVEL001
   6
CONTINUOUS
  62
7
  10
 123.504
  20
 40.0000
  30
0.0
  11
 134.504
  21
 40.0000
  31
0.0
   0
LINE
   8
LEVEL001
   6
CONTINUOUS
  62
7
  10
 134.504
  20
 40.0000
  30
0.0
  11
 134.504
  21
 10.0000
  31
0.0
   0
LINE
   8
LEVEL001
   6
CONTINUOUS
  62
7
  10
 134.504
  20
 10.0000
  30
0.0
  11
 123.504
  21
 10.0000
  31
0.0
   0
ARC
   8
LEVEL001
   6
CONTINUOUS
  62
7
  10
 139.504
  20
 12.0000
  30
0.0
  40
 1.50000
  50
 270.000
  51
0.0
   0
LINE
   8
LEVEL001
   6
CONTINUOUS
  62
7
  10
 134.504
  20
 10.5000
  30
0.0
  11
 139.504
  21
 10.5000
  31
0.0
   0
ARC
   8
LEVEL001
   6
DASHDOT
  62
1
  10
 150.004
  20
 12.0000
  30
0.0
  40
 1.00000
  50
 270.000
  51
 0.170987E-9
   0
LINE
   8
LEVEL001
   6
DASHDOT
  62
1
  10
 142.004
  20
 11.0000
  30
0.0
  11
 150.004
  21
 11.0000
  31
0.0
   0
ARC
   8
LEVEL001
   6
DASHDOT
  62
1
  10
 142.004
  20
 12.0000
  30
0.0
  40
 1.00000
  50
 180.000
  51
 270.000
   0
LINE
   8
LEVEL001
   6
CONTINUOUS
  62
3
  10
 123.504
  20
 12.0000
  30
0.0
  11
 134.504
  21
 12.0000
  31
0.0
   0
LINE
   8
LEVEL001
   6
CONTINUOUS
  62
3
  10
 123.504
  20
 14.0000
  30
0.0
  11
 134.504
  21
 14.0000
  31
0.0
   0
LINE
   8
LEVEL001
   6
CONTINUOUS
  62
3
  10
 123.504
  20
 16.0000
  30
0.0
  11
 134.504
  21
 16.0000
  31
0.0
   0
LINE
   8
LEVEL001
   6
CONTINUOUS
  62
3
  10
 123.504
  20
 18.0000
  30
0.0
  11
 134.504
  21
 18.0000
  31
0.0
   0
LINE
   8
LEVEL001
   6
CONTINUOUS
  62
3
  10
 123.504
  20
 20.0000
  30
0.0
  11
 134.504
  21
 20.0000
  31
0.0
   0
LINE
   8
LEVEL001
   6
CONTINUOUS
  62
3
  10
 123.504
  20
 22.0000
  30
0.0
  11
 134.504
  21
 22.0000
  31
0.0
   0
LINE
   8
LEVEL001
   6
CONTINUOUS
  62
3
  10
 123.504
  20
 24.0000
  30
0.0
  11
 134.504
  21
 24.0000
  31
0.0
   0
LINE
   8
LEVEL001
   6
CONTINUOUS
  62
3
  10
 123.504
  20
 26.0000
  30
0.0
  11
 134.504
  21
 26.0000
  31
0.0
   0
LINE
   8
LEVEL001
   6
CONTINUOUS
  62
3
  10
 123.504
  20
 28.0000
  30
0.0
  11
 134.504
  21
 28.0000
  31
0.0
   0
LINE
   8
LEVEL001
   6
CONTINUOUS
  62
3
  10
 123.504
  20
 30.0000
  30
0.0
  11
 134.504
  21
 30.0000
  31
0.0
   0
LINE
   8
LEVEL001
   6
CONTINUOUS
  62
3
  10
 123.504
  20
 32.0000
  30
0.0
  11
 134.504
  21
 32.0000
  31
0.0
   0
LINE
   8
LEVEL001
   6
CONTINUOUS
  62
3
  10
 123.504
  20
 34.0000
  30
0.0
  11
 134.504
  21
 34.0000
  31
0.0
   0
LINE
   8
LEVEL001
   6
CONTINUOUS
  62
3
  10
 123.504
  20
 36.0000
  30
0.0
  11
 134.504
  21
 36.0000
  31
0.0
   0
LINE
   8
LEVEL001
   6
DASHDOT
  62
1
  10
 151.004
  20
 27.0000
  30
0.0
  11
 157.004
  21
 27.0000
  31
0.0
   0
LINE
   8
LEVEL001
   6
DASHDOT
  62
1
  10
 157.004
  20
 27.0000
  30
0.0
  11
 157.004
  21
 23.0000
  31
0.0
   0
LINE
   8
LEVEL001
   6
DASHDOT
  62
1
  10
 157.004
  20
 23.0000
  30
0.0
  11
 151.004
  21
 23.0000
  31
0.0
   0
LINE
   8
LEVEL001
   6
CONTINUOUS
  62
7
  10
 118.504
  20
 10.5000
  30
0.0
  11
 123.504
  21
 10.5000
  31
0.0
   0
ARC
   8
LEVEL001
   6
CONTINUOUS
  62
7
  10
 118.504
  20
 12.0000
  30
0.0
  40
 1.50000
  50
 180.000
  51
 270.000
   0
LINE
   8
LEVEL001
   6
CONTINUOUS
  62
7
  10
 96.0038
  20
 33.5185
  30
0.0
  11
 96.0038
  21
 32.5000
  31
0.0
   0
LINE
   8
LEVEL001
   6
CONTINUOUS
  62
7
  10
 96.0038
  20
 32.5000
  30
0.0
  11
 110.004
  21
 32.5000
  31
0.0
   0
LINE
   8
LEVEL001
   6
CONTINUOUS
  62
7
  10
 110.004
  20
 32.5000
  30
0.0
  11
 110.004
  21
 34.5000
  31
0.0
   0
LINE
   8
LEVEL001
   6
CONTINUOUS
  62
7
  10
 110.004
  20
 34.5000
  30
0.0
  11
 117.004
  21
 34.5000
  31
0.0
   0
LINE
   8
LEVEL001
   6
CONTINUOUS
  62
7
  10
 96.0038
  20
 16.4815
  30
0.0
  11
 96.0038
  21
 17.5000
  31
0.0
   0
LINE
   8
LEVEL001
   6
CONTINUOUS
  62
7
  10
 96.0038
  20
 17.5000
  30
0.0
  11
 110.004
  21
 17.5000
  31
0.0
   0
LINE
   8
LEVEL001
   6
CONTINUOUS
  62
7
  10
 110.004
  20
 17.5000
  30
0.0
  11
 110.004
  21
 15.5000
  31
0.0
   0
LINE
   8
LEVEL001
   6
CONTINUOUS
  62
7
  10
 110.004
  20
 15.5000
  30
0.0
  11
 117.004
  21
 15.5000
  31
0.0
   0
LINE
   8
LEVEL001
   6
DASHDOT
  62
1
  10
 160.004
  20
 25.0000
  30
0.0
  11
 45.0000
  21
 25.0000
  31
0.0
   0
LINE
   8
LEVEL001
   6
DOT
  62
3
  10
 79.0000
  20
 276.000
  30
0.0
  11
 78.7500
  21
 276.000
  31
0.0
   0
LINE
   8
LEVEL001
   6
CONTINUOUS
  62
7
  10
 91.0000
  20
 253.201
  30
0.0
  11
 91.0000
  21
 71.0000
  31
0.0
   0
LINE
   8
LEVEL001
   6
CONTINUOUS
  62
7
  10
 100.719
  20
 81.1738
  30
0.0
  11
 91.0000
  21
 80.6287
  31
0.0
   0
LINE
   8
LEVEL001
   6
CONTINUOUS
  62
3
  10
 95.6943
  20
 97.1145
  30
0.0
  11
 91.0000
  21
 96.5556
  31
0.0
   0
LINE
   8
LEVEL001
   6
CONTINUOUS
  62
7
  10
 99.2124
  20
 98.3950
  30
0.0
  11
 91.0000
  21
 97.4172
  31
0.0
   0
LINE
   8
LEVEL001
   6
CONTINUOUS
  62
3
  10
 97.0320
  20
 81.8239
  30
0.0
  11
 91.0000
  21
 81.4856
  31
0.0
   0
LINE
   8
LEVEL001
   6
DASHDOT
  62
1
  10
 159.737
  20
 95.0137
  30
0.0
  11
 85.1324
  21
 88.4866
  31
0.0
   0
LINE
   8
LEVEL001
   6
CONTINUOUS
  62
7
  10
 88.7500
  20
 279.000
  30
0.0
  11
 51.2500
  21
 279.000
  31
0.0
   0
LINE
   8
LEVEL001
   6
CONTINUOUS
  62
7
  10
 57.5000
  20
 283.000
  30
0.0
  11
 82.5000
  21
 283.000
  31
0.0
   0
LINE
   8
LEVEL001
   6
CONTINUOUS
  62
7
  10
 50.2500
  20
 278.000
  30
0.0
  11
 89.7500
  21
 278.000
  31
0.0
   0
LINE
   8
LEVEL001
   6
CONTINUOUS
  62
7
  10
 90.2500
  20
 276.000
  30
0.0
  11
 49.7500
  21
 276.000
  31
0.0
   0
LINE
   8
LEVEL001
   6
CONTINUOUS
  62
3
  10
 49.7500
  20
 276.000
  30
0.0
  11
 49.7500
  21
 256.000
  31
0.0
   0
LINE
   8
LEVEL001
   6
CONTINUOUS
  62
3
  10
 49.0000
  20
 256.000
  30
0.0
  11
 91.0000
  21
 256.000
  31
0.0
   0
LINE
   8
LEVEL001
   6
CONTINUOUS
  62
7
  10
 49.0000
  20
 253.201
  30
0.0
  11
 91.0000
  21
 253.201
  31
0.0
   0
LINE
   8
LEVEL001
   6
CONTINUOUS
  62
3
  10
 49.0000
  20
 275.250
  30
0.0
  11
 91.0000
  21
 275.250
  31
0.0
   0
TEXT
   8
LEVEL003
  62
3
  10
 12.0000
  20
 55.0000
  30
0.0
  40
 4.00000
   1
２－Ｍ６×１０Ｌ
   7
STANDARD
   0
LINE
   8
LEVEL003
   6
CONTINUOUS
  62
3
  10
 50.0000
  20
 55.0000
  30
0.0
  11
 12.4149
  21
 55.0000
  31
0.0
   0
LINE
   8
LEVEL003
   6
CONTINUOUS
  62
3
  10
 102.000
  20
 60.0000
  30
0.0
  11
 129.814
  21
 60.0000
  31
0.0
   0
CIRCLE
   8
LEVEL004
   6
CONTINUOUS
  62
7
  10
 173.596
  20
 18.3231
  30
0.0
  40
 3.00000
   0
LINE
   8
LEVEL004
   6
CONTINUOUS
  62
7
  10
 179.484
  20
 21.3231
  30
0.0
  11
 175.675
  21
 14.7231
  31
0.0
   0
LINE
   8
LEVEL004
   6
CONTINUOUS
  62
7
  10
 175.675
  20
 14.7231
  30
0.0
  11
 168.054
  21
 14.7231
  31
0.0
   0
LINE
   8
LEVEL004
   6
CONTINUOUS
  62
7
  10
 167.187
  20
 13.2231
  30
0.0
  11
 180.808
  21
 13.2231
  31
0.0
   0
LINE
   8
LEVEL004
   6
CONTINUOUS
  62
7
  10
 180.808
  20
 13.2231
  30
0.0
  11
 185.484
  21
 21.3231
  31
0.0
   0
LINE
   8
LEVEL004
   6
CONTINUOUS
  62
7
  10
 185.484
  20
 21.3231
  30
0.0
  11
 179.484
  21
 21.3231
  31
0.0
   0
LINE
   8
LEVEL004
   6
CONTINUOUS
  62
7
  10
 168.054
  20
 14.7231
  30
0.0
  11
 167.187
  21
 13.2231
  31
0.0
   0
TEXT
   8
LEVEL004
  62
7
  10
 185.569
  20
 11.2724
  30
0.0
  40
 10.0000
   1
ＯＳＡＫＡ ＪＡＣＫ
   7
STANDARD
   0
TEXT
   8
LEVEL004
  62
7
  10
 188.480
  20
 28.1658
  30
0.0
  40
 6.00000
   1
Model : Ｅ５Ｓ１２.７
   7
STANDARD
   0
LINE
   8
LEVEL001
   6
CONTINUOUS
  62
7
  10
 70.0000
  20
 29.6188
  30
0.0
  11
 74.0000
  21
 27.3094
  31
0.0
   0
LINE
   8
LEVEL001
   6
CONTINUOUS
  62
7
  10
 74.0000
  20
 27.3094
  30
0.0
  11
 74.0000
  21
 22.6906
  31
0.0
   0
LINE
   8
LEVEL001
   6
CONTINUOUS
  62
7
  10
 74.0000
  20
 22.6906
  30
0.0
  11
 70.0000
  21
 20.3812
  31
0.0
   0
LINE
   8
LEVEL001
   6
CONTINUOUS
  62
7
  10
 70.0000
  20
 20.3812
  30
0.0
  11
 66.0000
  21
 22.6906
  31
0.0
   0
LINE
   8
LEVEL001
   6
CONTINUOUS
  62
7
  10
 66.0000
  20
 22.6906
  30
0.0
  11
 66.0000
  21
 27.3094
  31
0.0
   0
LINE
   8
LEVEL001
   6
CONTINUOUS
  62
7
  10
 66.0000
  20
 27.3094
  30
0.0
  11
 70.0000
  21
 29.6188
  31
0.0
   0
CIRCLE
   8
LEVEL001
   6
CONTINUOUS
  62
7
  10
 70.0000
  20
 25.0000
  30
0.0
  40
 8.33100
   0
CIRCLE
   8
LEVEL001
   6
CONTINUOUS
  62
3
  10
 70.0000
  20
 25.0000
  30
0.0
  40
 7.47500
   0
LINE
   8
LEVEL003
   6
CONTINUOUS
  62
3
  10
 89.7500
  20
 279.000
  30
0.0
  11
 112.000
  21
 279.000
  31
0.0
   0
LINE
   8
LEVEL003
   6
CONTINUOUS
  62
3
  10
 91.2500
  20
 276.000
  30
0.0
  11
 112.000
  21
 276.000
  31
0.0
   0
LINE
   8
LEVEL003
   6
CONTINUOUS
  62
3
  10
 110.000
  20
 279.000
  30
0.0
  11
 110.000
  21
 276.000
  31
0.0
   0
LINE
   8
LEVEL003
   6
CONTINUOUS
  62
3
  10
 110.000
  20
 276.000
  30
0.0
  11
 110.000
  21
 272.000
  31
0.0
   0
LINE
   8
LEVEL003
   6
CONTINUOUS
  62
3
  10
 110.000
  20
 279.000
  30
0.0
  11
 110.529
  21
 282.000
  31
0.0
   0
LINE
   8
LEVEL003
   6
CONTINUOUS
  62
3
  10
 110.000
  20
 279.000
  30
0.0
  11
 109.471
  21
 282.000
  31
0.0
   0
LINE
   8
LEVEL003
   6
CONTINUOUS
  62
3
  10
 110.000
  20
 276.000
  30
0.0
  11
 109.471
  21
 273.000
  31
0.0
   0
LINE
   8
LEVEL003
   6
CONTINUOUS
  62
3
  10
 110.000
  20
 276.000
  30
0.0
  11
 110.529
  21
 273.000
  31
0.0
   0
LINE
   8
LEVEL003
   6
CONTINUOUS
  62
3
  10
 110.000
  20
 279.000
  30
0.0
  11
 110.000
  21
 282.750
  31
0.0
   0
LINE
   8
LEVEL003
   6
CONTINUOUS
  62
3
  10
 110.000
  20
 276.000
  30
0.0
  11
 110.000
  21
 272.000
  31
0.0
   0
TEXT
   8
LEVEL003
  62
3
  10
 109.200
  20
 272.000
  30
0.0
  40
 4.00000
   1
3
  50
 90.0000
   7
STANDARD
  72
1
  11
 109.200
  21
 274.000
  31
0.0
   0
LINE
   8
LEVEL003
   6
CONTINUOUS
  62
3
  10
 89.7500
  20
 279.000
  30
0.0
  11
 122.000
  21
 279.000
  31
0.0
   0
LINE
   8
LEVEL003
   6
CONTINUOUS
  62
3
  10
 92.0000
  20
 256.000
  30
0.0
  11
 122.000
  21
 256.000
  31
0.0
   0
LINE
   8
LEVEL003
   6
CONTINUOUS
  62
3
  10
 120.000
  20
 279.000
  30
0.0
  11
 120.000
  21
 256.000
  31
0.0
   0
LINE
   8
LEVEL003
   6
CONTINUOUS
  62
3
  10
 120.000
  20
 279.000
  30
0.0
  11
 119.471
  21
 276.000
  31
0.0
   0
LINE
   8
LEVEL003
   6
CONTINUOUS
  62
3
  10
 120.000
  20
 279.000
  30
0.0
  11
 120.529
  21
 276.000
  31
0.0
   0
LINE
   8
LEVEL003
   6
CONTINUOUS
  62
3
  10
 120.000
  20
 256.000
  30
0.0
  11
 120.529
  21
 259.000
  31
0.0
   0
LINE
   8
LEVEL003
   6
CONTINUOUS
  62
3
  10
 120.000
  20
 256.000
  30
0.0
  11
 119.471
  21
 259.000
  31
0.0
   0
TEXT
   8
LEVEL003
  62
3
  10
 119.200
  20
 263.500
  30
0.0
  40
 4.00000
   1
23
  50
 90.0000
   7
STANDARD
  72
1
  11
 119.200
  21
 267.500
  31
0.0
   0
LINE
   8
LEVEL003
   6
CONTINUOUS
  62
3
  10
 89.7500
  20
 279.000
  30
0.0
  11
 102.000
  21
 279.000
  31
0.0
   0
LINE
   8
LEVEL003
   6
CONTINUOUS
  62
3
  10
 76.0000
  20
 265.500
  30
0.0
  11
 102.000
  21
 265.500
  31
0.0
   0
LINE
   8
LEVEL003
   6
CONTINUOUS
  62
3
  10
 100.000
  20
 279.000
  30
0.0
  11
 100.000
  21
 265.500
  31
0.0
   0
LINE
   8
LEVEL003
   6
CONTINUOUS
  62
3
  10
 100.000
  20
 279.000
  30
0.0
  11
 99.4710
  21
 276.000
  31
0.0
   0
LINE
   8
LEVEL003
   6
CONTINUOUS
  62
3
  10
 100.000
  20
 279.000
  30
0.0
  11
 100.529
  21
 276.000
  31
0.0
   0
LINE
   8
LEVEL003
   6
CONTINUOUS
  62
3
  10
 100.000
  20
 265.500
  30
0.0
  11
 100.529
  21
 268.500
  31
0.0
   0
LINE
   8
LEVEL003
   6
CONTINUOUS
  62
3
  10
 100.000
  20
 265.500
  30
0.0
  11
 99.4710
  21
 268.500
  31
0.0
   0
TEXT
   8
LEVEL003
  62
3
  10
 99.2000
  20
 268.250
  30
0.0
  40
 4.00000
   1
13
  50
 90.0000
   7
STANDARD
  72
1
  11
 99.2000
  21
 272.250
  31
0.0
   0
LINE
   8
LEVEL003
   6
CONTINUOUS
  62
3
  10
 82.5000
  20
 284.000
  30
0.0
  11
 122.000
  21
 284.000
  31
0.0
   0
LINE
   8
LEVEL003
   6
CONTINUOUS
  62
3
  10
 89.7500
  20
 279.000
  30
0.0
  11
 122.000
  21
 279.000
  31
0.0
   0
LINE
   8
LEVEL003
   6
CONTINUOUS
  62
3
  10
 120.000
  20
 284.000
  30
0.0
  11
 120.000
  21
 279.000
  31
0.0
   0
LINE
   8
LEVEL003
   6
CONTINUOUS
  62
3
  10
 120.000
  20
 284.000
  30
0.0
  11
 120.529
  21
 287.000
  31
0.0
   0
LINE
   8
LEVEL003
   6
CONTINUOUS
  62
3
  10
 120.000
  20
 284.000
  30
0.0
  11
 119.471
  21
 287.000
  31
0.0
   0
LINE
   8
LEVEL003
   6
CONTINUOUS
  62
3
  10
 120.000
  20
 279.000
  30
0.0
  11
 119.471
  21
 276.000
  31
0.0
   0
LINE
   8
LEVEL003
   6
CONTINUOUS
  62
3
  10
 120.000
  20
 279.000
  30
0.0
  11
 120.529
  21
 276.000
  31
0.0
   0
LINE
   8
LEVEL003
   6
CONTINUOUS
  62
3
  10
 120.000
  20
 284.000
  30
0.0
  11
 120.000
  21
 287.750
  31
0.0
   0
LINE
   8
LEVEL003
   6
CONTINUOUS
  62
3
  10
 120.000
  20
 279.000
  30
0.0
  11
 120.000
  21
 275.250
  31
0.0
   0
TEXT
   8
LEVEL003
  62
3
  10
 119.200
  20
 279.500
  30
0.0
  40
 4.00000
   1
5
  50
 90.0000
   7
STANDARD
  72
1
  11
 119.200
  21
 281.500
  31
0.0
   0
LINE
   8
LEVEL003
   6
CONTINUOUS
  62
3
  10
 110.000
  20
 245.000
  30
0.0
  11
 143.960
  21
 245.000
  31
0.0
   0
LINE
   8
LEVEL003
   6
CONTINUOUS
  62
3
  10
 110.000
  20
 290.000
  30
0.0
  11
 134.739
  21
 290.000
  31
0.0
   0
ENDSEC
   0
EOF
