   0
SECTION
   2
HEADER
   9
$LIMMIN
  10
0.0
  20
0.0
   9
$LIMMAX
  10
 420.000
  20
 360.000
   9
$EXTMIN
  10
0.0
  20
0.0
   9
$EXTMAX
  10
 420.000
  20
 360.000
   9
$LTSCALE
  40
 8.40000
   0
ENDSEC
   0
SECTION
   2
TABLES
  0
TABLE
  2
LTYPE
 70
    25
  0
LTYPE
  2
CONTINUOUS
 70
    64
  3
Solid line
 72
    65
 73
     0
 40
0.0
  0
LTYPE
  2
BORDER
 70
    64
  3
__ __ . __ __ . __ __ . __ __ . __ __ . __ __ .
 72
    65
 73
     6
 40
1.75
 49
0.5
 49
-0.25
 49
0.5
 49
-0.25
 49
0.0
 49
-0.25
  0
LTYPE
  2
BORDER2
 70
    64
  3
__.__.__.__.__.__.__.__.__.__.__.__.__.__.__.__
 72
    65
 73
     6
 40
0.875
 49
0.25
 49
-0.125
 49
0.25
 49
-0.125
 49
0.0
 49
-0.125
  0
LTYPE
  2
BORDERX2
 70
    64
  3
____  ____  .  ____  ____  .  ____  ____  .  __
 72
    65
 73
     6
 40
3.5
 49
1.0
 49
-0.5
 49
1.0
 49
-0.5
 49
0.0
 49
-0.5
  0
LTYPE
  2
CENTER
 70
    64
  3
____ _ ____ _ ____ _ ____ _ ____ _ ____ _ ____ 
 72
    65
 73
     4
 40
2.0
 49
1.25
 49
-0.25
 49
0.25
 49
-0.25
  0
LTYPE
  2
CENTER2
 70
    64
  3
___ _ ___ _ ___ _ ___ _ ___ _ ___ _ ___ _ ___ _
 72
    65
 73
     4
 40
1.125
 49
0.75
 49
-0.125
 49
0.125
 49
-0.125
  0
LTYPE
  2
CENTERX2
 70
    64
  3
________  __  ________  __  ________  __  _____
 72
    65
 73
     4
 40
4.0
 49
2.5
 49
-0.5
 49
0.5
 49
-0.5
  0
LTYPE
  2
DASHDOT
 70
    64
  3
__ . __ . __ . __ . __ . __ . __ . __ . __ . __
 72
    65
 73
     4
 40
1.0
 49
0.5
 49
-0.25
 49
0.0
 49
-0.25
  0
LTYPE
  2
DASHDOT2
 70
    64
  3
_._._._._._._._._._._._._._._._._._._._._._._._
 72
    65
 73
     4
 40
0.5
 49
0.25
 49
-0.125
 49
0.0
 49
-0.125
  0
LTYPE
  2
DASHDOTX2
 70
    64
  3
____  .  ____  .  ____  .  ____  .  ____  .  __
 72
    65
 73
     4
 40
2.0
 49
1.0
 49
-0.5
 49
0.0
 49
-0.5
  0
LTYPE
  2
DASHED
 70
    64
  3
__ __ __ __ __ __ __ __ __ __ __ __ __ __ __ __
 72
    65
 73
     2
 40
0.75
 49
0.5
 49
-0.25
  0
LTYPE
  2
DASHED2
 70
    64
  3
_ _ _ _ _ _ _ _ _ _ _ _ _ _ _ _ _ _ _ _ _ _ _ _
 72
    65
 73
     2
 40
0.375
 49
0.25
 49
-0.125
  0
LTYPE
  2
DASHEDX2
 70
    64
  3
____  ____  ____  ____  ____  ____  ____  ____ 
 72
    65
 73
     2
 40
1.5
 49
1.0
 49
-0.5
  0
LTYPE
  2
DIVIDE
 70
    64
  3
____ . . ____ . . ____ . . ____ . . ____ . . __
 72
    65
 73
     6
 40
1.25
 49
0.5
 49
-0.25
 49
0.0
 49
-0.25
 49
0.0
 49
-0.25
  0
LTYPE
  2
DIVIDE2
 70
    64
  3
__..__..__..__..__..__..__..__..__..__..__..__.
 72
    65
 73
     6
 40
0.625
 49
0.25
 49
-0.125
 49
0.0
 49
-0.125
 49
0.0
 49
-0.125
  0
LTYPE
  2
DIVIDEX2
 70
    64
  3
________  .  .  ________  .  .  ________  .  . 
 72
    65
 73
     6
 40
2.5
 49
1.0
 49
-0.5
 49
0.0
 49
-0.5
 49
0.0
 49
-0.5
  0
LTYPE
  2
DOT
 70
    64
  3
. . . . . . . . . . . . . . . . . . . . . . . .
 72
    65
 73
     2
 40
0.25
 49
0.0
 49
-0.25
  0
LTYPE
  2
DOT2
 70
    64
  3
...............................................
 72
    65
 73
     2
 40
0.125
 49
0.0
 49
-0.125
  0
LTYPE
  2
DOTX2
 70
    64
  3
.  .  .  .  .  .  .  .  .  .  .  .  .  .  .  . 
 72
    65
 73
     2
 40
0.5
 49
0.0
 49
-0.5
  0
LTYPE
  2
HIDDEN
 70
    64
  3
__ __ __ __ __ __ __ __ __ __ __ __ __ __ __ __
 72
    65
 73
     2
 40
0.375
 49
0.25
 49
-0.125
  0
LTYPE
  2
HIDDEN2
 70
    64
  3
_ _ _ _ _ _ _ _ _ _ _ _ _ _ _ _ _ _ _ _ _ _ _ _
 72
    65
 73
     2
 40
0.1875
 49
0.125
 49
-0.0625
  0
LTYPE
  2
HIDDENX2
 70
    64
  3
____ ____ ____ ____ ____ ____ ____ ____ ____ __
 72
    65
 73
     2
 40
0.75
 49
0.5
 49
-0.25
  0
LTYPE
  2
PHANTOM
 70
    64
  3
______  __  __  ______  __  __  ______  __  __ 
 72
    65
 73
     6
 40
2.5
 49
1.25
 49
-0.25
 49
0.25
 49
-0.25
 49
0.25
 49
-0.25
  0
LTYPE
  2
PHANTOM2
 70
    64
  3
___ _ _ ___ _ _ ___ _ _ ___ _ _ ___ _ _ ___ _ _
 72
    65
 73
     6
 40
1.25
 49
0.625
 49
-0.125
 49
0.125
 49
-0.125
 49
0.125
 49
-0.125
  0
LTYPE
  2
PHANTOMX2
 70
    64
  3
____________    ____    ____    ____________   
 72
    65
 73
     6
 40
5.0
 49
2.5
 49
-0.5
 49
0.5
 49
-0.5
 49
0.5
 49
-0.5
  0
ENDTAB
  0
TABLE
  2
STYLE
 70
     2
  0
STYLE
  2
STANDARD
 70
0
 40
0.0
 41
1.0
 50
0.0
 71
0
 42
0.2
  3
TXT
  4
BIGFONT
  0
STYLE
  2
STANDARD1
 70
     4
 40
0.0
 41
1.0
 50
0.0
 71
     0
 42
0.2
  3
TXT
  4
BIGFONT
  0
ENDTAB
   0
TABLE
   2
LAYER
  70
4
   0
LAYER
   2
0
  70
0
  62
7
   6
CONTINUOUS
   0
LAYER
   2
LEVEL001
  70
0
  62
7
   6
CONTINUOUS
   0
LAYER
   2
LEVEL003
  70
0
  62
7
   6
CONTINUOUS
   0
LAYER
   2
LEVEL004
  70
0
  62
7
   6
CONTINUOUS
   0
ENDTAB
   0
ENDSEC
   0
SECTION
   2
ENTITIES
   0
POINT
   8
LEVEL001
  62
7
  10
 95.0038
  20
 98.9128
  30
0.0
   0
LINE
   8
LEVEL003
   6
CONTINUOUS
  62
3
  10
 61.0000
  20
 76.0000
  30
0.0
  11
 61.0000
  21
 63.0000
  31
0.0
   0
LINE
   8
LEVEL003
   6
CONTINUOUS
  62
3
  10
 89.0000
  20
 76.0000
  30
0.0
  11
 89.0000
  21
 63.0000
  31
0.0
   0
LINE
   8
LEVEL003
   6
CONTINUOUS
  62
3
  10
 61.0000
  20
 65.0000
  30
0.0
  11
 89.0000
  21
 65.0000
  31
0.0
   0
LINE
   8
LEVEL003
   6
CONTINUOUS
  62
3
  10
 61.0000
  20
 65.0000
  30
0.0
  11
 64.0000
  21
 64.4710
  31
0.0
   0
LINE
   8
LEVEL003
   6
CONTINUOUS
  62
3
  10
 61.0000
  20
 65.0000
  30
0.0
  11
 64.0000
  21
 65.5290
  31
0.0
   0
LINE
   8
LEVEL003
   6
CONTINUOUS
  62
3
  10
 89.0000
  20
 65.0000
  30
0.0
  11
 86.0000
  21
 65.5290
  31
0.0
   0
LINE
   8
LEVEL003
   6
CONTINUOUS
  62
3
  10
 89.0000
  20
 65.0000
  30
0.0
  11
 86.0000
  21
 64.4710
  31
0.0
   0
TEXT
   8
LEVEL003
  62
3
  10
 71.0000
  20
 65.8000
  30
0.0
  40
 4.00000
   1
%%c28
   7
STANDARD
  72
1
  11
 75.0000
  21
 65.8000
  31
0.0
   0
LINE
   8
LEVEL003
   6
CONTINUOUS
  62
3
  10
 62.0000
  20
 185.000
  30
0.0
  11
 88.0000
  21
 185.000
  31
0.0
   0
LINE
   8
LEVEL003
   6
CONTINUOUS
  62
3
  10
 62.0000
  20
 185.000
  30
0.0
  11
 65.0000
  21
 184.471
  31
0.0
   0
LINE
   8
LEVEL003
   6
CONTINUOUS
  62
3
  10
 62.0000
  20
 185.000
  30
0.0
  11
 65.0000
  21
 185.529
  31
0.0
   0
LINE
   8
LEVEL003
   6
CONTINUOUS
  62
3
  10
 88.0000
  20
 185.000
  30
0.0
  11
 85.0000
  21
 185.529
  31
0.0
   0
LINE
   8
LEVEL003
   6
CONTINUOUS
  62
3
  10
 88.0000
  20
 185.000
  30
0.0
  11
 85.0000
  21
 184.471
  31
0.0
   0
TEXT
   8
LEVEL003
  62
3
  10
 71.0000
  20
 185.800
  30
0.0
  40
 4.00000
   1
%%c26
   7
STANDARD
  72
1
  11
 75.0000
  21
 185.800
  31
0.0
   0
LINE
   8
LEVEL003
   6
CONTINUOUS
  62
3
  10
 60.0000
  20
 175.000
  30
0.0
  11
 90.0000
  21
 175.000
  31
0.0
   0
LINE
   8
LEVEL003
   6
CONTINUOUS
  62
3
  10
 60.0000
  20
 175.000
  30
0.0
  11
 63.0000
  21
 174.471
  31
0.0
   0
LINE
   8
LEVEL003
   6
CONTINUOUS
  62
3
  10
 60.0000
  20
 175.000
  30
0.0
  11
 63.0000
  21
 175.529
  31
0.0
   0
LINE
   8
LEVEL003
   6
CONTINUOUS
  62
3
  10
 90.0000
  20
 175.000
  30
0.0
  11
 87.0000
  21
 175.529
  31
0.0
   0
LINE
   8
LEVEL003
   6
CONTINUOUS
  62
3
  10
 90.0000
  20
 175.000
  30
0.0
  11
 87.0000
  21
 174.471
  31
0.0
   0
TEXT
   8
LEVEL003
  62
3
  10
 71.0000
  20
 175.800
  30
0.0
  40
 4.00000
   1
%%c30
   7
STANDARD
  72
1
  11
 75.0000
  21
 175.800
  31
0.0
   0
LINE
   8
LEVEL003
   6
CONTINUOUS
  62
3
  10
 54.0000
  20
 165.000
  30
0.0
  11
 96.0000
  21
 165.000
  31
0.0
   0
LINE
   8
LEVEL003
   6
CONTINUOUS
  62
3
  10
 54.0000
  20
 165.000
  30
0.0
  11
 57.0000
  21
 164.471
  31
0.0
   0
LINE
   8
LEVEL003
   6
CONTINUOUS
  62
3
  10
 54.0000
  20
 165.000
  30
0.0
  11
 57.0000
  21
 165.529
  31
0.0
   0
LINE
   8
LEVEL003
   6
CONTINUOUS
  62
3
  10
 96.0000
  20
 165.000
  30
0.0
  11
 93.0000
  21
 165.529
  31
0.0
   0
LINE
   8
LEVEL003
   6
CONTINUOUS
  62
3
  10
 96.0000
  20
 165.000
  30
0.0
  11
 93.0000
  21
 164.471
  31
0.0
   0
TEXT
   8
LEVEL003
  62
3
  10
 71.0000
  20
 165.800
  30
0.0
  40
 4.00000
   1
%%c42
   7
STANDARD
  72
1
  11
 75.0000
  21
 165.800
  31
0.0
   0
LINE
   8
LEVEL001
   6
CONTINUOUS
  62
3
  10
 104.212
  20
 108.395
  30
0.0
  11
 100.694
  21
 107.115
  31
0.0
   0
LINE
   8
LEVEL001
   6
CONTINUOUS
  62
3
  10
 105.719
  20
 91.1738
  30
0.0
  11
 102.032
  21
 91.8239
  31
0.0
   0
LINE
   8
LEVEL001
   6
CONTINUOUS
  62
7
  10
 104.212
  20
 108.395
  30
0.0
  11
 105.616
  21
 109.378
  31
0.0
   0
LINE
   8
LEVEL001
   6
CONTINUOUS
  62
7
  10
 121.073
  20
 110.730
  30
0.0
  11
 105.616
  21
 109.378
  31
0.0
   0
LINE
   8
LEVEL001
   6
CONTINUOUS
  62
7
  10
 105.719
  20
 91.1738
  30
0.0
  11
 107.272
  21
 90.4498
  31
0.0
   0
LINE
   8
LEVEL001
   6
CONTINUOUS
  62
7
  10
 122.729
  20
 91.8022
  30
0.0
  11
 107.272
  21
 90.4498
  31
0.0
   0
ARC
   8
LEVEL001
   6
CONTINUOUS
  62
7
  10
 122.262
  20
 114.347
  30
0.0
  40
 1.50000
  50
 95.0001
  51
 185.000
   0
LINE
   8
LEVEL001
   6
CONTINUOUS
  62
7
  10
 122.132
  20
 115.842
  30
0.0
  11
 127.113
  21
 116.277
  31
0.0
   0
ARC
   8
LEVEL001
   6
CONTINUOUS
  62
7
  10
 124.528
  20
 88.4462
  30
0.0
  40
 1.50000
  50
 185.000
  51
 275.000
   0
LINE
   8
LEVEL001
   6
CONTINUOUS
  62
7
  10
 123.034
  20
 88.3155
  30
0.0
  11
 120.768
  21
 114.217
  31
0.0
   0
LINE
   8
LEVEL001
   6
CONTINUOUS
  62
7
  10
 124.659
  20
 86.9520
  30
0.0
  11
 129.640
  21
 87.3877
  31
0.0
   0
ARC
   8
LEVEL001
   6
CONTINUOUS
  62
7
  10
 143.182
  20
 116.178
  30
0.0
  40
 1.50000
  50
 5.00008
  51
 95.0002
   0
LINE
   8
LEVEL001
   6
CONTINUOUS
  62
7
  10
 138.071
  20
 117.236
  30
0.0
  11
 143.052
  21
 117.672
  31
0.0
   0
ARC
   8
LEVEL001
   6
CONTINUOUS
  62
7
  10
 145.448
  20
 90.2765
  30
0.0
  40
 1.50000
  50
 275.000
  51
 5.00005
   0
LINE
   8
LEVEL001
   6
CONTINUOUS
  62
7
  10
 140.598
  20
 88.3464
  30
0.0
  11
 145.579
  21
 88.7822
  31
0.0
   0
LINE
   8
LEVEL001
   6
CONTINUOUS
  62
7
  10
 144.677
  20
 116.308
  30
0.0
  11
 146.943
  21
 90.4072
  31
0.0
   0
ARC
   8
LEVEL001
   6
DASHDOT
  62
1
  10
 153.642
  20
 117.093
  30
0.0
  40
 1.00000
  50
 4.99976
  51
 95.0005
   0
LINE
   8
LEVEL001
   6
DASHDOT
  62
1
  10
 145.586
  20
 117.392
  30
0.0
  11
 153.555
  21
 118.089
  31
0.0
   0
ARC
   8
LEVEL001
   6
DASHDOT
  62
1
  10
 155.909
  20
 91.1916
  30
0.0
  40
 1.00000
  50
 275.000
  51
 4.99980
   0
LINE
   8
LEVEL001
   6
DASHDOT
  62
1
  10
 148.026
  20
 89.4982
  30
0.0
  11
 155.996
  21
 90.1955
  31
0.0
   0
LINE
   8
LEVEL001
   6
DASHDOT
  62
1
  10
 154.639
  20
 117.180
  30
0.0
  11
 156.905
  21
 91.2788
  31
0.0
   0
CIRCLE
   8
LEVEL001
   6
DASHDOT
  62
1
  10
 158.760
  20
 104.491
  30
0.0
  40
 1.50000
   0
ARC
   8
LEVEL001
   6
DASHDOT
  62
1
  10
 147.939
  20
 90.4944
  30
0.0
  40
 1.00000
  50
 185.000
  51
 275.000
   0
ARC
   8
LEVEL001
   6
DASHDOT
  62
1
  10
 145.673
  20
 116.395
  30
0.0
  40
 1.00000
  50
 95.0007
  51
 185.000
   0
ARC
   8
LEVEL001
   6
DASHDOT
  62
1
  10
 157.285
  20
 109.883
  30
0.0
  40
 2.00000
  50
 185.000
  51
 275.000
   0
ARC
   8
LEVEL001
   6
DASHDOT
  62
1
  10
 158.243
  20
 98.9246
  30
0.0
  40
 2.00000
  50
 95.0002
  51
 185.000
   0
LINE
   8
LEVEL001
   6
DASHDOT
  62
1
  10
 157.459
  20
 107.890
  30
0.0
  11
 157.957
  21
 107.934
  31
0.0
   0
LINE
   8
LEVEL001
   6
DASHDOT
  62
1
  10
 158.069
  20
 100.917
  30
0.0
  11
 158.567
  21
 100.961
  31
0.0
   0
ARC
   8
LEVEL001
   6
DASHDOT
  62
1
  10
 158.262
  20
 104.447
  30
0.0
  40
 3.50000
  50
 275.000
  51
 95.0000
   0
LINE
   8
LEVEL001
   6
CONTINUOUS
  62
7
  10
 107.272
  20
 90.4498
  30
0.0
  11
 106.952
  21
 94.1049
  31
0.0
   0
LINE
   8
LEVEL001
   6
CONTINUOUS
  62
7
  10
 105.935
  20
 105.722
  30
0.0
  11
 105.616
  21
 109.378
  31
0.0
   0
LINE
   8
LEVEL001
   6
CONTINUOUS
  62
7
  10
 101.333
  20
 95.4120
  30
0.0
  11
 114.420
  21
 106.465
  31
0.0
   0
LINE
   8
LEVEL001
   6
CONTINUOUS
  62
7
  10
 100.629
  20
 103.460
  30
0.0
  11
 115.436
  21
 94.8472
  31
0.0
   0
LINE
   8
LEVEL001
   6
CONTINUOUS
  62
3
  10
 100.694
  20
 107.115
  30
0.0
  11
 101.011
  21
 103.493
  31
0.0
   0
LINE
   8
LEVEL001
   6
CONTINUOUS
  62
3
  10
 101.715
  20
 95.4454
  30
0.0
  11
 102.032
  21
 91.8239
  31
0.0
   0
LINE
   8
LEVEL001
   6
CONTINUOUS
  62
7
  10
 104.212
  20
 108.395
  30
0.0
  11
 104.591
  21
 104.065
  31
0.0
   0
LINE
   8
LEVEL001
   6
CONTINUOUS
  62
7
  10
 105.340
  20
 95.5042
  30
0.0
  11
 105.719
  21
 91.1738
  31
0.0
   0
LINE
   8
LEVEL001
   6
CONTINUOUS
  62
3
  10
 129.509
  20
 88.8820
  30
0.0
  11
 140.467
  21
 89.8407
  31
0.0
   0
LINE
   8
LEVEL001
   6
CONTINUOUS
  62
3
  10
 129.335
  20
 90.8744
  30
0.0
  11
 140.293
  21
 91.8331
  31
0.0
   0
LINE
   8
LEVEL001
   6
CONTINUOUS
  62
3
  10
 129.161
  20
 92.8668
  30
0.0
  11
 140.119
  21
 93.8255
  31
0.0
   0
LINE
   8
LEVEL001
   6
CONTINUOUS
  62
3
  10
 128.986
  20
 94.8592
  30
0.0
  11
 139.945
  21
 95.8179
  31
0.0
   0
LINE
   8
LEVEL001
   6
CONTINUOUS
  62
3
  10
 128.812
  20
 96.8516
  30
0.0
  11
 139.770
  21
 97.8103
  31
0.0
   0
LINE
   8
LEVEL001
   6
CONTINUOUS
  62
3
  10
 128.638
  20
 98.8440
  30
0.0
  11
 139.596
  21
 99.8027
  31
0.0
   0
LINE
   8
LEVEL001
   6
CONTINUOUS
  62
3
  10
 128.464
  20
 100.836
  30
0.0
  11
 139.422
  21
 101.795
  31
0.0
   0
LINE
   8
LEVEL001
   6
CONTINUOUS
  62
3
  10
 128.289
  20
 102.829
  30
0.0
  11
 139.247
  21
 103.787
  31
0.0
   0
LINE
   8
LEVEL001
   6
CONTINUOUS
  62
3
  10
 128.115
  20
 104.821
  30
0.0
  11
 139.073
  21
 105.780
  31
0.0
   0
LINE
   8
LEVEL001
   6
CONTINUOUS
  62
3
  10
 127.941
  20
 106.814
  30
0.0
  11
 138.899
  21
 107.772
  31
0.0
   0
LINE
   8
LEVEL001
   6
CONTINUOUS
  62
3
  10
 127.766
  20
 108.806
  30
0.0
  11
 138.724
  21
 109.765
  31
0.0
   0
LINE
   8
LEVEL001
   6
CONTINUOUS
  62
3
  10
 127.592
  20
 110.798
  30
0.0
  11
 138.550
  21
 111.757
  31
0.0
   0
LINE
   8
LEVEL001
   6
CONTINUOUS
  62
3
  10
 127.418
  20
 112.791
  30
0.0
  11
 138.376
  21
 113.749
  31
0.0
   0
LINE
   8
LEVEL001
   6
CONTINUOUS
  62
3
  10
 127.243
  20
 114.783
  30
0.0
  11
 138.201
  21
 115.742
  31
0.0
   0
LINE
   8
LEVEL001
   6
CONTINUOUS
  62
7
  10
 101.333
  20
 95.4120
  30
0.0
  11
 100.629
  21
 103.460
  31
0.0
   0
LINE
   8
LEVEL001
   6
CONTINUOUS
  62
7
  10
 100.629
  20
 103.460
  30
0.0
  11
 104.591
  21
 104.065
  31
0.0
   0
LINE
   8
LEVEL001
   6
CONTINUOUS
  62
7
  10
 104.591
  20
 104.065
  30
0.0
  11
 105.935
  21
 105.722
  31
0.0
   0
LINE
   8
LEVEL001
   6
CONTINUOUS
  62
7
  10
 105.935
  20
 105.722
  30
0.0
  11
 114.420
  21
 106.465
  31
0.0
   0
LINE
   8
LEVEL001
   6
CONTINUOUS
  62
7
  10
 114.420
  20
 106.465
  30
0.0
  11
 115.436
  21
 94.8472
  31
0.0
   0
LINE
   8
LEVEL001
   6
CONTINUOUS
  62
7
  10
 115.436
  20
 94.8472
  30
0.0
  11
 106.952
  21
 94.1049
  31
0.0
   0
LINE
   8
LEVEL001
   6
CONTINUOUS
  62
7
  10
 106.952
  20
 94.1049
  30
0.0
  11
 105.340
  21
 95.5042
  31
0.0
   0
LINE
   8
LEVEL001
   6
CONTINUOUS
  62
7
  10
 105.340
  20
 95.5042
  30
0.0
  11
 101.333
  21
 95.4120
  31
0.0
   0
LINE
   8
LEVEL001
   6
CONTINUOUS
  62
7
  10
 129.684
  20
 86.8896
  30
0.0
  11
 127.069
  21
 116.775
  31
0.0
   0
LINE
   8
LEVEL001
   6
CONTINUOUS
  62
7
  10
 127.069
  20
 116.775
  30
0.0
  11
 138.027
  21
 117.734
  31
0.0
   0
LINE
   8
LEVEL001
   6
CONTINUOUS
  62
7
  10
 138.027
  20
 117.734
  30
0.0
  11
 140.642
  21
 87.8483
  31
0.0
   0
LINE
   8
LEVEL001
   6
CONTINUOUS
  62
7
  10
 140.642
  20
 87.8483
  30
0.0
  11
 129.684
  21
 86.8896
  31
0.0
   0
LINE
   8
LEVEL003
   6
CONTINUOUS
  62
3
  10
 99.1749
  20
 90.8067
  30
0.0
  11
 110.000
  21
 70.0000
  31
0.0
   0
LINE
   8
LEVEL003
   6
CONTINUOUS
  62
3
  10
 110.000
  20
 70.0000
  30
0.0
  11
 135.000
  21
 70.0000
  31
0.0
   0
LINE
   8
LEVEL003
   6
CONTINUOUS
  62
3
  10
 99.1749
  20
 90.8067
  30
0.0
  11
 100.090
  21
 87.9012
  31
0.0
   0
LINE
   8
LEVEL003
   6
CONTINUOUS
  62
3
  10
 99.1749
  20
 90.8067
  30
0.0
  11
 101.029
  21
 88.3895
  31
0.0
   0
TEXT
   8
LEVEL003
  62
3
  10
 110.000
  20
 70.0000
  30
0.0
  40
 4.00000
   1
ＮＰＴ３／８
   7
STANDARD
   0
LINE
   8
LEVEL001
   6
DASHDOT
  62
1
  10
 75.0000
  20
 180.000
  30
0.0
  11
 75.0000
  21
 185.000
  31
0.0
   0
LINE
   8
LEVEL001
   6
DASHDOT
  62
1
  10
 75.0000
  20
 75.0000
  30
0.0
  11
 75.0000
  21
 165.000
  31
0.0
   0
LINE
   8
LEVEL001
   6
DASHDOT
  62
1
  10
 75.0000
  20
 170.000
  30
0.0
  11
 75.0000
  21
 175.000
  31
0.0
   0
LINE
   8
LEVEL001
   6
CONTINUOUS
  62
7
  10
 95.0000
  20
 80.0000
  30
0.0
  11
 55.0000
  21
 80.0000
  31
0.0
   0
LINE
   8
LEVEL001
   6
CONTINUOUS
  62
7
  10
 54.0000
  20
 81.0000
  30
0.0
  11
 55.0000
  21
 80.0000
  31
0.0
   0
LINE
   8
LEVEL001
   6
CONTINUOUS
  62
7
  10
 96.0000
  20
 81.0000
  30
0.0
  11
 95.0000
  21
 80.0000
  31
0.0
   0
LINE
   8
LEVEL003
   6
CONTINUOUS
  62
3
  10
 62.5000
  20
 347.000
  30
0.0
  11
 62.5000
  21
 357.000
  31
0.0
   0
LINE
   8
LEVEL003
   6
CONTINUOUS
  62
3
  10
 87.5000
  20
 347.000
  30
0.0
  11
 87.5000
  21
 357.000
  31
0.0
   0
LINE
   8
LEVEL003
   6
CONTINUOUS
  62
3
  10
 62.5000
  20
 355.000
  30
0.0
  11
 87.5000
  21
 355.000
  31
0.0
   0
LINE
   8
LEVEL003
   6
CONTINUOUS
  62
3
  10
 62.5000
  20
 355.000
  30
0.0
  11
 65.5000
  21
 354.471
  31
0.0
   0
LINE
   8
LEVEL003
   6
CONTINUOUS
  62
3
  10
 62.5000
  20
 355.000
  30
0.0
  11
 65.5000
  21
 355.529
  31
0.0
   0
LINE
   8
LEVEL003
   6
CONTINUOUS
  62
3
  10
 87.5000
  20
 355.000
  30
0.0
  11
 84.5000
  21
 355.529
  31
0.0
   0
LINE
   8
LEVEL003
   6
CONTINUOUS
  62
3
  10
 87.5000
  20
 355.000
  30
0.0
  11
 84.5000
  21
 354.471
  31
0.0
   0
TEXT
   8
LEVEL003
  62
3
  10
 71.0000
  20
 355.800
  30
0.0
  40
 4.00000
   1
%%c25
   7
STANDARD
  72
1
  11
 75.0000
  21
 355.800
  31
0.0
   0
TEXT
   8
LEVEL003
  62
3
  10
 115.000
  20
 353.000
  30
0.0
  40
 4.00000
   1
Ｍ２０×２
   7
STANDARD
   0
LINE
   8
LEVEL003
   6
CONTINUOUS
  62
3
  10
 85.0000
  20
 333.000
  30
0.0
  11
 115.000
  21
 353.000
  31
0.0
   0
LINE
   8
LEVEL003
   6
CONTINUOUS
  62
3
  10
 85.0000
  20
 333.000
  30
0.0
  11
 87.7896
  21
 334.224
  31
0.0
   0
LINE
   8
LEVEL003
   6
CONTINUOUS
  62
3
  10
 85.0000
  20
 333.000
  30
0.0
  11
 87.2027
  21
 335.104
  31
0.0
   0
TEXT
   8
LEVEL003
  62
3
  10
 115.000
  20
 308.000
  30
0.0
  40
 4.00000
   1
Ｍ４２×１．５
   7
STANDARD
   0
LINE
   8
LEVEL003
   6
CONTINUOUS
  62
3
  10
 96.0000
  20
 323.000
  30
0.0
  11
 115.000
  21
 308.000
  31
0.0
   0
LINE
   8
LEVEL003
   6
CONTINUOUS
  62
3
  10
 96.0000
  20
 323.000
  30
0.0
  11
 98.0269
  21
 320.726
  31
0.0
   0
LINE
   8
LEVEL003
   6
CONTINUOUS
  62
3
  10
 96.0000
  20
 323.000
  30
0.0
  11
 98.6824
  21
 321.556
  31
0.0
   0
LINE
   8
LEVEL001
   6
CONTINUOUS
  62
7
  10
 93.7500
  20
 342.000
  30
0.0
  11
 94.7500
  21
 341.000
  31
0.0
   0
LINE
   8
LEVEL001
   6
CONTINUOUS
  62
7
  10
 94.7500
  20
 341.000
  30
0.0
  11
 94.7500
  21
 339.000
  31
0.0
   0
LINE
   8
LEVEL001
   6
CONTINUOUS
  62
7
  10
 95.2500
  20
 339.000
  30
0.0
  11
 96.0000
  21
 338.250
  31
0.0
   0
LINE
   8
LEVEL001
   6
CONTINUOUS
  62
7
  10
 96.0000
  20
 338.250
  30
0.0
  11
 96.0000
  21
 316.201
  31
0.0
   0
LINE
   8
LEVEL001
   6
CONTINUOUS
  62
7
  10
 86.5000
  20
 347.000
  30
0.0
  11
 87.5000
  21
 346.000
  31
0.0
   0
LINE
   8
LEVEL001
   6
CONTINUOUS
  62
7
  10
 87.5000
  20
 346.000
  30
0.0
  11
 87.5000
  21
 342.000
  31
0.0
   0
LINE
   8
LEVEL001
   6
CONTINUOUS
  62
7
  10
 56.2500
  20
 342.000
  30
0.0
  11
 55.2500
  21
 341.000
  31
0.0
   0
LINE
   8
LEVEL001
   6
CONTINUOUS
  62
7
  10
 55.2500
  20
 341.000
  30
0.0
  11
 55.2500
  21
 339.000
  31
0.0
   0
LINE
   8
LEVEL001
   6
CONTINUOUS
  62
7
  10
 54.7500
  20
 339.000
  30
0.0
  11
 54.0000
  21
 338.250
  31
0.0
   0
LINE
   8
LEVEL001
   6
CONTINUOUS
  62
7
  10
 54.0000
  20
 338.250
  30
0.0
  11
 54.0000
  21
 316.201
  31
0.0
   0
LINE
   8
LEVEL001
   6
CONTINUOUS
  62
3
  10
 54.7500
  20
 319.000
  30
0.0
  11
 54.0000
  21
 316.201
  31
0.0
   0
LINE
   8
LEVEL001
   6
CONTINUOUS
  62
7
  10
 63.5000
  20
 347.000
  30
0.0
  11
 62.5000
  21
 346.000
  31
0.0
   0
LINE
   8
LEVEL001
   6
CONTINUOUS
  62
7
  10
 62.5000
  20
 346.000
  30
0.0
  11
 62.5000
  21
 342.000
  31
0.0
   0
LINE
   8
LEVEL001
   6
CONTINUOUS
  62
7
  10
 63.5000
  20
 347.000
  30
0.0
  11
 86.5000
  21
 347.000
  31
0.0
   0
LINE
   8
LEVEL001
   6
DASHDOT
  62
1
  10
 99.0000
  20
 339.000
  30
0.0
  11
 99.0000
  21
 319.000
  31
0.0
   0
LINE
   8
LEVEL001
   6
DASHDOT
  62
1
  10
 99.0000
  20
 339.000
  30
0.0
  11
 95.2500
  21
 339.000
  31
0.0
   0
LINE
   8
LEVEL001
   6
DASHDOT
  62
1
  10
 51.0000
  20
 339.000
  30
0.0
  11
 51.0000
  21
 319.000
  31
0.0
   0
LINE
   8
LEVEL001
   6
DASHDOT
  62
1
  10
 51.0000
  20
 339.000
  30
0.0
  11
 54.7500
  21
 339.000
  31
0.0
   0
LINE
   8
LEVEL001
   6
DASHDOT
  62
1
  10
 51.0000
  20
 319.000
  30
0.0
  11
 54.0000
  21
 319.000
  31
0.0
   0
LINE
   8
LEVEL001
   6
DASHDOT
  62
1
  10
 96.0000
  20
 319.000
  30
0.0
  11
 99.0000
  21
 319.000
  31
0.0
   0
LINE
   8
LEVEL001
   6
CONTINUOUS
  62
3
  10
 95.2500
  20
 339.000
  30
0.0
  11
 95.2500
  21
 319.000
  31
0.0
   0
LINE
   8
LEVEL001
   6
CONTINUOUS
  62
3
  10
 95.2500
  20
 319.000
  30
0.0
  11
 96.0000
  21
 316.201
  31
0.0
   0
LINE
   8
LEVEL001
   6
DASHDOT
  62
1
  10
 75.0000
  20
 190.000
  30
0.0
  11
 75.0000
  21
 350.000
  31
0.0
   0
LINE
   8
LEVEL003
   6
CONTINUOUS
  62
3
  10
 87.5000
  20
 347.000
  30
0.0
  11
 197.000
  21
 347.000
  31
0.0
   0
LINE
   8
LEVEL003
   6
CONTINUOUS
  62
3
  10
 96.0000
  20
 80.0000
  30
0.0
  11
 197.000
  21
 80.0000
  31
0.0
   0
LINE
   8
LEVEL003
   6
CONTINUOUS
  62
3
  10
 195.000
  20
 347.000
  30
0.0
  11
 195.000
  21
 80.0000
  31
0.0
   0
LINE
   8
LEVEL003
   6
CONTINUOUS
  62
3
  10
 195.000
  20
 347.000
  30
0.0
  11
 194.471
  21
 344.000
  31
0.0
   0
LINE
   8
LEVEL003
   6
CONTINUOUS
  62
3
  10
 195.000
  20
 347.000
  30
0.0
  11
 195.529
  21
 344.000
  31
0.0
   0
LINE
   8
LEVEL003
   6
CONTINUOUS
  62
3
  10
 195.000
  20
 80.0000
  30
0.0
  11
 195.529
  21
 83.0000
  31
0.0
   0
LINE
   8
LEVEL003
   6
CONTINUOUS
  62
3
  10
 195.000
  20
 80.0000
  30
0.0
  11
 194.471
  21
 83.0000
  31
0.0
   0
TEXT
   8
LEVEL003
  62
3
  10
 194.200
  20
 210.500
  30
0.0
  40
 4.00000
   1
267
  50
 90.0000
  41
 0.500000
   7
STANDARD
  72
1
  11
 194.200
  21
 213.500
  31
0.0
   0
LINE
   8
LEVEL001
   6
CONTINUOUS
  62
7
  10
 54.0000
  20
 316.201
  30
0.0
  11
 54.0000
  21
 81.0000
  31
0.0
   0
LINE
   8
LEVEL001
   6
CONTINUOUS
  62
7
  10
 104.212
  20
 108.395
  30
0.0
  11
 96.0000
  21
 107.417
  31
0.0
   0
LINE
   8
LEVEL001
   6
CONTINUOUS
  62
7
  10
 105.719
  20
 91.1738
  30
0.0
  11
 96.0000
  21
 90.6287
  31
0.0
   0
LINE
   8
LEVEL001
   6
CONTINUOUS
  62
7
  10
 96.0000
  20
 316.201
  30
0.0
  11
 96.0000
  21
 81.0000
  31
0.0
   0
LINE
   8
LEVEL001
   6
CONTINUOUS
  62
3
  10
 102.032
  20
 91.8239
  30
0.0
  11
 96.0000
  21
 91.4856
  31
0.0
   0
LINE
   8
LEVEL001
   6
CONTINUOUS
  62
3
  10
 100.694
  20
 107.115
  30
0.0
  11
 96.0000
  21
 106.556
  31
0.0
   0
LINE
   8
LEVEL001
   6
DOT
  62
3
  10
 66.0000
  20
 339.000
  30
0.0
  11
 66.2500
  21
 339.000
  31
0.0
   0
LINE
   8
LEVEL001
   6
DOT
  62
3
  10
 84.0000
  20
 339.000
  30
0.0
  11
 83.7500
  21
 339.000
  31
0.0
   0
CIRCLE
   8
LEVEL001
   6
CONTINUOUS
  62
7
  10
 75.0000
  20
 35.0000
  30
0.0
  40
 21.0000
   0
LINE
   8
LEVEL001
   6
DASHDOT
  62
1
  10
 75.0000
  20
 60.0000
  30
0.0
  11
 75.0000
  21
 10.0000
  31
0.0
   0
LINE
   8
LEVEL001
   6
CONTINUOUS
  62
7
  10
 75.0000
  20
 39.6188
  30
0.0
  11
 79.0000
  21
 37.3094
  31
0.0
   0
LINE
   8
LEVEL001
   6
CONTINUOUS
  62
7
  10
 79.0000
  20
 37.3094
  30
0.0
  11
 79.0000
  21
 32.6906
  31
0.0
   0
LINE
   8
LEVEL001
   6
CONTINUOUS
  62
7
  10
 79.0000
  20
 32.6906
  30
0.0
  11
 75.0000
  21
 30.3812
  31
0.0
   0
LINE
   8
LEVEL001
   6
CONTINUOUS
  62
7
  10
 75.0000
  20
 30.3812
  30
0.0
  11
 71.0000
  21
 32.6906
  31
0.0
   0
LINE
   8
LEVEL001
   6
CONTINUOUS
  62
7
  10
 71.0000
  20
 32.6906
  30
0.0
  11
 71.0000
  21
 37.3094
  31
0.0
   0
LINE
   8
LEVEL001
   6
CONTINUOUS
  62
7
  10
 71.0000
  20
 37.3094
  30
0.0
  11
 75.0000
  21
 39.6188
  31
0.0
   0
CIRCLE
   8
LEVEL001
   6
CONTINUOUS
  62
7
  10
 75.0000
  20
 35.0000
  30
0.0
  40
 8.33100
   0
CIRCLE
   8
LEVEL001
   6
CONTINUOUS
  62
3
  10
 75.0000
  20
 35.0000
  30
0.0
  40
 7.47500
   0
CIRCLE
   8
LEVEL001
   6
CONTINUOUS
  62
7
  10
 75.0000
  20
 35.0000
  30
0.0
  40
 20.0038
   0
LINE
   8
LEVEL001
   6
CONTINUOUS
  62
3
  10
 101.387
  20
 42.5000
  30
0.0
  11
 101.387
  21
 27.5000
  31
0.0
   0
LINE
   8
LEVEL001
   6
CONTINUOUS
  62
7
  10
 105.004
  20
 42.5000
  30
0.0
  11
 105.004
  21
 27.5000
  31
0.0
   0
LINE
   8
LEVEL001
   6
CONTINUOUS
  62
7
  10
 106.487
  20
 27.5000
  30
0.0
  11
 106.487
  21
 42.5000
  31
0.0
   0
LINE
   8
LEVEL001
   6
CONTINUOUS
  62
3
  10
 101.004
  20
 42.6625
  30
0.0
  11
 94.6290
  21
 42.4633
  31
0.0
   0
LINE
   8
LEVEL001
   6
CONTINUOUS
  62
7
  10
 101.004
  20
 43.5185
  30
0.0
  11
 94.2865
  21
 43.3086
  31
0.0
   0
LINE
   8
LEVEL001
   6
CONTINUOUS
  62
7
  10
 101.004
  20
 26.4815
  30
0.0
  11
 94.2865
  21
 26.6914
  31
0.0
   0
LINE
   8
LEVEL001
   6
CONTINUOUS
  62
3
  10
 100.999
  20
 27.3376
  30
0.0
  11
 94.6290
  21
 27.5367
  31
0.0
   0
CIRCLE
   8
LEVEL001
   6
CONTINUOUS
  62
7
  10
 75.0000
  20
 49.0000
  30
0.0
  40
 2.50000
   0
CIRCLE
   8
LEVEL001
   6
CONTINUOUS
  62
3
  10
 75.0000
  20
 49.0000
  30
0.0
  40
 3.00000
   0
LINE
   8
LEVEL001
   6
DASHDOT
  62
1
  10
 81.0000
  20
 49.0000
  30
0.0
  11
 69.0000
  21
 49.0000
  31
0.0
   0
CIRCLE
   8
LEVEL001
   6
CONTINUOUS
  62
7
  10
 75.0000
  20
 21.0000
  30
0.0
  40
 2.50000
   0
CIRCLE
   8
LEVEL001
   6
CONTINUOUS
  62
3
  10
 75.0000
  20
 21.0000
  30
0.0
  40
 3.00000
   0
LINE
   8
LEVEL001
   6
DASHDOT
  62
1
  10
 81.0000
  20
 21.0000
  30
0.0
  11
 69.0000
  21
 21.0000
  31
0.0
   0
ARC
   8
LEVEL001
   6
CONTINUOUS
  62
7
  10
 123.504
  20
 48.0000
  30
0.0
  40
 1.50000
  50
 90.0000
  51
 180.000
   0
LINE
   8
LEVEL001
   6
CONTINUOUS
  62
7
  10
 123.504
  20
 49.5000
  30
0.0
  11
 128.504
  21
 49.5000
  31
0.0
   0
ARC
   8
LEVEL001
   6
CONTINUOUS
  62
7
  10
 123.504
  20
 22.0000
  30
0.0
  40
 1.50000
  50
 180.000
  51
 270.000
   0
LINE
   8
LEVEL001
   6
CONTINUOUS
  62
7
  10
 122.004
  20
 22.0000
  30
0.0
  11
 122.004
  21
 48.0000
  31
0.0
   0
LINE
   8
LEVEL001
   6
CONTINUOUS
  62
7
  10
 123.504
  20
 20.5000
  30
0.0
  11
 128.504
  21
 20.5000
  31
0.0
   0
ARC
   8
LEVEL001
   6
CONTINUOUS
  62
7
  10
 144.504
  20
 48.0000
  30
0.0
  40
 1.50000
  50
0.0
  51
 90.0000
   0
LINE
   8
LEVEL001
   6
CONTINUOUS
  62
7
  10
 139.504
  20
 49.5000
  30
0.0
  11
 144.504
  21
 49.5000
  31
0.0
   0
ARC
   8
LEVEL001
   6
CONTINUOUS
  62
7
  10
 144.504
  20
 22.0000
  30
0.0
  40
 1.50000
  50
 270.000
  51
 0.287692E-10
   0
LINE
   8
LEVEL001
   6
CONTINUOUS
  62
7
  10
 139.504
  20
 20.5000
  30
0.0
  11
 144.504
  21
 20.5000
  31
0.0
   0
LINE
   8
LEVEL001
   6
CONTINUOUS
  62
7
  10
 146.004
  20
 48.0000
  30
0.0
  11
 146.004
  21
 22.0000
  31
0.0
   0
ARC
   8
LEVEL001
   6
DASHDOT
  62
1
  10
 155.004
  20
 48.0000
  30
0.0
  40
 1.00000
  50
0.0
  51
 90.0000
   0
LINE
   8
LEVEL001
   6
DASHDOT
  62
1
  10
 147.004
  20
 49.0000
  30
0.0
  11
 155.004
  21
 49.0000
  31
0.0
   0
ARC
   8
LEVEL001
   6
DASHDOT
  62
1
  10
 155.004
  20
 22.0000
  30
0.0
  40
 1.00000
  50
 270.000
  51
0.0
   0
LINE
   8
LEVEL001
   6
DASHDOT
  62
1
  10
 147.004
  20
 21.0000
  30
0.0
  11
 155.004
  21
 21.0000
  31
0.0
   0
LINE
   8
LEVEL001
   6
DASHDOT
  62
1
  10
 156.004
  20
 48.0000
  30
0.0
  11
 156.004
  21
 22.0000
  31
0.0
   0
ARC
   8
LEVEL001
   6
DASHDOT
  62
1
  10
 147.004
  20
 22.0000
  30
0.0
  40
 1.00000
  50
 180.000
  51
 270.000
   0
ARC
   8
LEVEL001
   6
DASHDOT
  62
1
  10
 147.004
  20
 48.0000
  30
0.0
  40
 1.00000
  50
 90.0000
  51
 180.000
   0
LINE
   8
LEVEL001
   6
CONTINUOUS
  62
3
  10
 128.504
  20
 22.0000
  30
0.0
  11
 139.504
  21
 22.0000
  31
0.0
   0
LINE
   8
LEVEL001
   6
CONTINUOUS
  62
3
  10
 128.504
  20
 24.0000
  30
0.0
  11
 139.504
  21
 24.0000
  31
0.0
   0
LINE
   8
LEVEL001
   6
CONTINUOUS
  62
3
  10
 128.504
  20
 26.0000
  30
0.0
  11
 139.504
  21
 26.0000
  31
0.0
   0
LINE
   8
LEVEL001
   6
CONTINUOUS
  62
3
  10
 128.504
  20
 28.0000
  30
0.0
  11
 139.504
  21
 28.0000
  31
0.0
   0
LINE
   8
LEVEL001
   6
CONTINUOUS
  62
3
  10
 128.504
  20
 30.0000
  30
0.0
  11
 139.504
  21
 30.0000
  31
0.0
   0
LINE
   8
LEVEL001
   6
CONTINUOUS
  62
3
  10
 128.504
  20
 32.0000
  30
0.0
  11
 139.504
  21
 32.0000
  31
0.0
   0
LINE
   8
LEVEL001
   6
CONTINUOUS
  62
3
  10
 128.504
  20
 34.0000
  30
0.0
  11
 139.504
  21
 34.0000
  31
0.0
   0
LINE
   8
LEVEL001
   6
CONTINUOUS
  62
3
  10
 128.504
  20
 36.0000
  30
0.0
  11
 139.504
  21
 36.0000
  31
0.0
   0
LINE
   8
LEVEL001
   6
CONTINUOUS
  62
3
  10
 128.504
  20
 38.0000
  30
0.0
  11
 139.504
  21
 38.0000
  31
0.0
   0
LINE
   8
LEVEL001
   6
CONTINUOUS
  62
3
  10
 128.504
  20
 40.0000
  30
0.0
  11
 139.504
  21
 40.0000
  31
0.0
   0
LINE
   8
LEVEL001
   6
CONTINUOUS
  62
3
  10
 128.504
  20
 42.0000
  30
0.0
  11
 139.504
  21
 42.0000
  31
0.0
   0
LINE
   8
LEVEL001
   6
CONTINUOUS
  62
3
  10
 128.504
  20
 44.0000
  30
0.0
  11
 139.504
  21
 44.0000
  31
0.0
   0
LINE
   8
LEVEL001
   6
CONTINUOUS
  62
3
  10
 128.504
  20
 46.0000
  30
0.0
  11
 139.504
  21
 46.0000
  31
0.0
   0
LINE
   8
LEVEL001
   6
CONTINUOUS
  62
3
  10
 128.504
  20
 48.0000
  30
0.0
  11
 139.504
  21
 48.0000
  31
0.0
   0
LINE
   8
LEVEL001
   6
DASHDOT
  62
1
  10
 156.004
  20
 37.0000
  30
0.0
  11
 162.004
  21
 37.0000
  31
0.0
   0
LINE
   8
LEVEL001
   6
DASHDOT
  62
1
  10
 162.004
  20
 37.0000
  30
0.0
  11
 162.004
  21
 33.0000
  31
0.0
   0
LINE
   8
LEVEL001
   6
DASHDOT
  62
1
  10
 162.004
  20
 33.0000
  30
0.0
  11
 156.004
  21
 33.0000
  31
0.0
   0
LINE
   8
LEVEL001
   6
CONTINUOUS
  62
7
  10
 101.004
  20
 43.5185
  30
0.0
  11
 101.004
  21
 42.5000
  31
0.0
   0
LINE
   8
LEVEL001
   6
CONTINUOUS
  62
7
  10
 101.004
  20
 42.5000
  30
0.0
  11
 115.004
  21
 42.5000
  31
0.0
   0
LINE
   8
LEVEL001
   6
CONTINUOUS
  62
7
  10
 115.004
  20
 42.5000
  30
0.0
  11
 115.004
  21
 44.5000
  31
0.0
   0
LINE
   8
LEVEL001
   6
CONTINUOUS
  62
7
  10
 115.004
  20
 44.5000
  30
0.0
  11
 122.004
  21
 44.5000
  31
0.0
   0
LINE
   8
LEVEL001
   6
CONTINUOUS
  62
7
  10
 101.004
  20
 26.4815
  30
0.0
  11
 101.004
  21
 27.5000
  31
0.0
   0
LINE
   8
LEVEL001
   6
CONTINUOUS
  62
7
  10
 101.004
  20
 27.5000
  30
0.0
  11
 115.004
  21
 27.5000
  31
0.0
   0
LINE
   8
LEVEL001
   6
CONTINUOUS
  62
7
  10
 115.004
  20
 27.5000
  30
0.0
  11
 115.004
  21
 25.5000
  31
0.0
   0
LINE
   8
LEVEL001
   6
CONTINUOUS
  62
7
  10
 115.004
  20
 25.5000
  30
0.0
  11
 122.004
  21
 25.5000
  31
0.0
   0
LINE
   8
LEVEL001
   6
CONTINUOUS
  62
7
  10
 128.504
  20
 20.0000
  30
0.0
  11
 128.504
  21
 50.0000
  31
0.0
   0
LINE
   8
LEVEL001
   6
CONTINUOUS
  62
7
  10
 128.504
  20
 50.0000
  30
0.0
  11
 139.504
  21
 50.0000
  31
0.0
   0
LINE
   8
LEVEL001
   6
CONTINUOUS
  62
7
  10
 139.504
  20
 50.0000
  30
0.0
  11
 139.504
  21
 20.0000
  31
0.0
   0
LINE
   8
LEVEL001
   6
CONTINUOUS
  62
7
  10
 139.504
  20
 20.0000
  30
0.0
  11
 128.504
  21
 20.0000
  31
0.0
   0
LINE
   8
LEVEL001
   6
DASHDOT
  62
1
  10
 165.004
  20
 35.0000
  30
0.0
  11
 50.0000
  21
 35.0000
  31
0.0
   0
TEXT
   8
LEVEL003
  62
3
  10
 22.0000
  20
 65.0000
  30
0.0
  40
 4.00000
   1
２－Ｍ６×１０Ｌ
   7
STANDARD
   0
LINE
   8
LEVEL003
   6
CONTINUOUS
  62
3
  10
 61.0000
  20
 80.0000
  30
0.0
  11
 55.0000
  21
 65.0000
  31
0.0
   0
LINE
   8
LEVEL003
   6
CONTINUOUS
  62
3
  10
 55.0000
  20
 65.0000
  30
0.0
  11
 20.0000
  21
 65.0000
  31
0.0
   0
LINE
   8
LEVEL003
   6
CONTINUOUS
  62
3
  10
 61.0000
  20
 80.0000
  30
0.0
  11
 59.3947
  21
 77.4110
  31
0.0
   0
LINE
   8
LEVEL003
   6
CONTINUOUS
  62
3
  10
 61.0000
  20
 80.0000
  30
0.0
  11
 60.3770
  21
 77.0181
  31
0.0
   0
LINE
   8
LEVEL001
   6
CONTINUOUS
  62
3
  10
 54.7500
  20
 339.000
  30
0.0
  11
 54.7500
  21
 319.000
  31
0.0
   0
LINE
   8
LEVEL001
   6
CONTINUOUS
  62
3
  10
 54.0000
  20
 319.000
  30
0.0
  11
 96.0000
  21
 319.000
  31
0.0
   0
LINE
   8
LEVEL001
   6
CONTINUOUS
  62
7
  10
 54.0000
  20
 316.201
  30
0.0
  11
 96.0000
  21
 316.201
  31
0.0
   0
LINE
   8
LEVEL001
   6
CONTINUOUS
  62
7
  10
 95.2500
  20
 339.000
  30
0.0
  11
 54.7500
  21
 339.000
  31
0.0
   0
LINE
   8
LEVEL001
   6
CONTINUOUS
  62
7
  10
 94.7500
  20
 341.000
  30
0.0
  11
 55.2500
  21
 341.000
  31
0.0
   0
LINE
   8
LEVEL001
   6
CONTINUOUS
  62
7
  10
 62.5000
  20
 346.000
  30
0.0
  11
 87.5000
  21
 346.000
  31
0.0
   0
LINE
   8
LEVEL001
   6
CONTINUOUS
  62
7
  10
 93.7500
  20
 342.000
  30
0.0
  11
 56.2500
  21
 342.000
  31
0.0
   0
LINE
   8
LEVEL001
   6
DASHDOT
  62
1
  10
 164.737
  20
 105.014
  30
0.0
  11
 90.1324
  21
 98.4866
  31
0.0
   0
ARC
   8
LEVEL004
   6
DOT
  62
3
  10
 66.0000
  20
 347.000
  30
0.0
  40
 1.00000
  50
 180.000
  51
0.0
   0
ARC
   8
LEVEL004
   6
DOT
  62
3
  10
 71.0000
  20
 347.000
  30
0.0
  40
 1.00000
  50
 180.000
  51
0.0
   0
ARC
   8
LEVEL004
   6
DOT
  62
3
  10
 84.0000
  20
 347.000
  30
0.0
  40
 1.00000
  50
 180.000
  51
0.0
   0
ARC
   8
LEVEL004
   6
DOT
  62
3
  10
 79.0000
  20
 347.000
  30
0.0
  40
 1.00000
  50
 180.000
  51
0.0
   0
LINE
   8
LEVEL004
   6
DOT
  62
3
  10
 85.0000
  20
 341.500
  30
0.0
  11
 85.0000
  21
 339.990
  31
0.0
   0
ARC
   8
LEVEL004
   6
DOT
  62
3
  10
 85.2500
  20
 340.500
  30
0.0
  40
 1.50000
  50
 90.0000
  51
 180.000
   0
LINE
   8
LEVEL004
   6
DOT
  62
3
  10
 83.7500
  20
 330.000
  30
0.0
  11
 83.7500
  21
 340.500
  31
0.0
   0
LINE
   8
LEVEL004
   6
DOT
  62
3
  10
 85.0000
  20
 339.990
  30
0.0
  11
 83.7500
  21
 339.990
  31
0.0
   0
LINE
   8
LEVEL004
   6
DOT
  62
3
  10
 85.0000
  20
 340.000
  30
0.0
  11
 85.0000
  21
 328.000
  31
0.0
   0
LINE
   8
LEVEL004
   6
DOT
  62
3
  10
 85.0000
  20
 328.000
  30
0.0
  11
 84.0000
  21
 328.000
  31
0.0
   0
LINE
   8
LEVEL004
   6
DOT
  62
3
  10
 85.0000
  20
 340.000
  30
0.0
  11
 84.0000
  21
 339.000
  31
0.0
   0
LINE
   8
LEVEL004
   6
DOT
  62
3
  10
 84.0000
  20
 339.000
  30
0.0
  11
 84.0000
  21
 324.268
  31
0.0
   0
LINE
   8
LEVEL004
   6
DOT
  62
3
  10
 85.0000
  20
 341.500
  30
0.0
  11
 85.5000
  21
 342.000
  31
0.0
   0
LINE
   8
LEVEL004
   6
DOT
  62
3
  10
 65.0000
  20
 341.500
  30
0.0
  11
 64.5000
  21
 342.000
  31
0.0
   0
LINE
   8
LEVEL004
   6
DOT
  62
3
  10
 65.0000
  20
 341.500
  30
0.0
  11
 65.0000
  21
 339.990
  31
0.0
   0
ARC
   8
LEVEL004
   6
DOT
  62
3
  10
 64.7500
  20
 340.500
  30
0.0
  40
 1.50000
  50
0.0
  51
 90.0000
   0
LINE
   8
LEVEL004
   6
DOT
  62
3
  10
 65.0000
  20
 339.990
  30
0.0
  11
 66.2500
  21
 339.990
  31
0.0
   0
LINE
   8
LEVEL004
   6
DOT
  62
3
  10
 66.2500
  20
 335.964
  30
0.0
  11
 66.2500
  21
 340.500
  31
0.0
   0
LINE
   8
LEVEL004
   6
DOT
  62
3
  10
 65.0000
  20
 340.000
  30
0.0
  11
 66.0000
  21
 339.000
  31
0.0
   0
LINE
   8
LEVEL004
   6
DOT
  62
3
  10
 66.0000
  20
 339.000
  30
0.0
  11
 66.0000
  21
 324.268
  31
0.0
   0
LINE
   8
LEVEL004
   6
DOT
  62
3
  10
 65.0000
  20
 340.000
  30
0.0
  11
 65.0000
  21
 328.000
  31
0.0
   0
LINE
   8
LEVEL004
   6
DOT
  62
3
  10
 65.0000
  20
 328.000
  30
0.0
  11
 66.0000
  21
 328.000
  31
0.0
   0
LINE
   8
LEVEL004
   6
DASHDOT
  62
1
  10
 78.5387
  20
 333.500
  30
0.0
  11
 78.0760
  21
 336.500
  31
0.0
   0
LINE
   8
LEVEL004
   6
DASHDOT
  62
1
  10
 78.0760
  20
 336.500
  30
0.0
  11
 77.6132
  21
 333.500
  31
0.0
   0
LINE
   8
LEVEL004
   6
DASHDOT
  62
1
  10
 77.6132
  20
 333.500
  30
0.0
  11
 77.1504
  21
 336.500
  31
0.0
   0
LINE
   8
LEVEL004
   6
DASHDOT
  62
1
  10
 77.1504
  20
 336.500
  30
0.0
  11
 76.6877
  21
 333.500
  31
0.0
   0
LINE
   8
LEVEL004
   6
DASHDOT
  62
1
  10
 76.6877
  20
 333.500
  30
0.0
  11
 76.2249
  21
 336.500
  31
0.0
   0
LINE
   8
LEVEL004
   6
DASHDOT
  62
1
  10
 76.2249
  20
 336.500
  30
0.0
  11
 75.7622
  21
 333.500
  31
0.0
   0
LINE
   8
LEVEL004
   6
DASHDOT
  62
1
  10
 75.7622
  20
 333.500
  30
0.0
  11
 75.2994
  21
 336.500
  31
0.0
   0
LINE
   8
LEVEL004
   6
DASHDOT
  62
1
  10
 75.2994
  20
 336.500
  30
0.0
  11
 74.8366
  21
 333.500
  31
0.0
   0
LINE
   8
LEVEL004
   6
DASHDOT
  62
1
  10
 74.8366
  20
 333.500
  30
0.0
  11
 74.3739
  21
 336.500
  31
0.0
   0
LINE
   8
LEVEL004
   6
DASHDOT
  62
1
  10
 74.3739
  20
 336.500
  30
0.0
  11
 73.9111
  21
 333.500
  31
0.0
   0
LINE
   8
LEVEL004
   6
DASHDOT
  62
1
  10
 73.9111
  20
 333.500
  30
0.0
  11
 73.4484
  21
 336.500
  31
0.0
   0
LINE
   8
LEVEL004
   6
DASHDOT
  62
1
  10
 73.4484
  20
 336.500
  30
0.0
  11
 72.9856
  21
 333.500
  31
0.0
   0
LINE
   8
LEVEL004
   6
DASHDOT
  62
1
  10
 72.9856
  20
 333.500
  30
0.0
  11
 72.5229
  21
 336.500
  31
0.0
   0
LINE
   8
LEVEL004
   6
DASHDOT
  62
1
  10
 72.5229
  20
 336.500
  30
0.0
  11
 72.0601
  21
 333.500
  31
0.0
   0
LINE
   8
LEVEL004
   6
DASHDOT
  62
1
  10
 72.0601
  20
 333.500
  30
0.0
  11
 71.5973
  21
 336.500
  31
0.0
   0
LINE
   8
LEVEL004
   6
DASHDOT
  62
1
  10
 71.5973
  20
 336.500
  30
0.0
  11
 71.1346
  21
 333.500
  31
0.0
   0
LINE
   8
LEVEL004
   6
DASHDOT
  62
1
  10
 71.1346
  20
 333.500
  30
0.0
  11
 70.6718
  21
 336.500
  31
0.0
   0
LINE
   8
LEVEL004
   6
DASHDOT
  62
1
  10
 70.6718
  20
 336.500
  30
0.0
  11
 70.2091
  21
 333.500
  31
0.0
   0
LINE
   8
LEVEL004
   6
DASHDOT
  62
1
  10
 70.2091
  20
 333.500
  30
0.0
  11
 69.7463
  21
 336.500
  31
0.0
   0
CIRCLE
   8
LEVEL004
   6
DOT
  62
3
  10
 67.9844
  20
 335.000
  30
0.0
  40
 1.98438
   0
LINE
   8
LEVEL004
   6
DOT
  62
3
  10
 66.2500
  20
 333.000
  30
0.0
  11
 78.2500
  21
 333.000
  31
0.0
   0
LINE
   8
LEVEL004
   6
DOT
  62
3
  10
 78.2500
  20
 333.000
  30
0.0
  11
 79.4047
  21
 335.000
  31
0.0
   0
LINE
   8
LEVEL004
   6
DOT
  62
3
  10
 79.4047
  20
 335.000
  30
0.0
  11
 78.2500
  21
 337.000
  31
0.0
   0
LINE
   8
LEVEL004
   6
DOT
  62
3
  10
 78.2500
  20
 337.000
  30
0.0
  11
 66.2500
  21
 337.000
  31
0.0
   0
LINE
   8
LEVEL004
   6
DOT
  62
3
  10
 78.2500
  20
 337.000
  30
0.0
  11
 78.2500
  21
 333.000
  31
0.0
   0
LINE
   8
LEVEL004
   6
DASHDOT
  62
1
  10
 63.2500
  20
 335.000
  30
0.0
  11
 82.4047
  21
 335.000
  31
0.0
   0
LINE
   8
LEVEL004
   6
DOT
  62
3
  10
 67.2500
  20
 329.000
  30
0.0
  11
 82.7500
  21
 329.000
  31
0.0
   0
LINE
   8
LEVEL004
   6
DOT
  62
3
  10
 66.2500
  20
 330.000
  30
0.0
  11
 67.2500
  21
 329.000
  31
0.0
   0
LINE
   8
LEVEL004
   6
DOT
  62
3
  10
 66.2500
  20
 330.000
  30
0.0
  11
 66.2500
  21
 334.036
  31
0.0
   0
LINE
   8
LEVEL004
   6
DOT
  62
3
  10
 66.0000
  20
 324.268
  30
0.0
  11
 66.0000
  21
 316.000
  31
0.0
   0
LINE
   8
LEVEL004
   6
DOT
  62
3
  10
 65.0000
  20
 328.000
  30
0.0
  11
 66.0000
  21
 324.268
  31
0.0
   0
LINE
   8
LEVEL004
   6
DOT
  62
3
  10
 69.2265
  20
 324.268
  30
0.0
  11
 66.0000
  21
 324.268
  31
0.0
   0
LINE
   8
LEVEL004
   6
DOT
  62
3
  10
 69.2265
  20
 328.000
  30
0.0
  11
 66.0000
  21
 328.000
  31
0.0
   0
LINE
   8
LEVEL004
   6
DOT
  62
3
  10
 70.0000
  20
 328.500
  30
0.0
  11
 69.2265
  21
 328.053
  31
0.0
   0
LINE
   8
LEVEL004
   6
DOT
  62
3
  10
 69.2265
  20
 328.053
  30
0.0
  11
 69.2265
  21
 315.947
  31
0.0
   0
LINE
   8
LEVEL004
   6
CONTINUOUS
  62
3
  10
 84.0000
  20
 328.000
  30
0.0
  11
 80.7735
  21
 328.000
  31
0.0
   0
LINE
   8
LEVEL004
   6
DOT
  62
3
  10
 83.7500
  20
 330.000
  30
0.0
  11
 82.7500
  21
 329.000
  31
0.0
   0
LINE
   8
LEVEL004
   6
DOT
  62
3
  10
 70.0000
  20
 328.500
  30
0.0
  11
 80.0000
  21
 328.500
  31
0.0
   0
LINE
   8
LEVEL004
   6
DOT
  62
3
  10
 80.0000
  20
 328.500
  30
0.0
  11
 80.7735
  21
 328.053
  31
0.0
   0
LINE
   8
LEVEL004
   6
DOT
  62
3
  10
 84.0000
  20
 324.268
  30
0.0
  11
 84.0000
  21
 316.000
  31
0.0
   0
LINE
   8
LEVEL004
   6
DOT
  62
3
  10
 85.0000
  20
 328.000
  30
0.0
  11
 84.0000
  21
 324.268
  31
0.0
   0
LINE
   8
LEVEL004
   6
DOT
  62
3
  10
 84.0000
  20
 324.268
  30
0.0
  11
 80.7735
  21
 324.268
  31
0.0
   0
LINE
   8
LEVEL004
   6
DOT
  62
3
  10
 80.7735
  20
 328.053
  30
0.0
  11
 80.7735
  21
 315.947
  31
0.0
   0
LINE
   8
LEVEL004
   6
DOT
  62
3
  10
 88.0000
  20
 139.000
  30
0.0
  11
 88.0000
  21
 340.000
  31
0.0
   0
LINE
   8
LEVEL004
   6
DOT
  62
3
  10
 62.0000
  20
 139.000
  30
0.0
  11
 62.0000
  21
 340.000
  31
0.0
   0
LINE
   8
LEVEL004
   6
DOT
  62
3
  10
 60.0000
  20
 312.000
  30
0.0
  11
 60.0000
  21
 112.600
  31
0.0
   0
LINE
   8
LEVEL004
   6
DOT
  62
3
  10
 90.0000
  20
 312.000
  30
0.0
  11
 90.0000
  21
 112.600
  31
0.0
   0
LINE
   8
LEVEL004
   6
DASHDOT
  62
1
  10
 61.0000
  20
 77.0000
  30
0.0
  11
 61.0000
  21
 95.0000
  31
0.0
   0
LINE
   8
LEVEL004
   6
DOT
  62
3
  10
 64.0000
  20
 80.0000
  30
0.0
  11
 63.5000
  21
 80.5000
  31
0.0
   0
LINE
   8
LEVEL004
   6
DOT
  62
3
  10
 63.5000
  20
 80.5000
  30
0.0
  11
 63.5000
  21
 91.8660
  31
0.0
   0
LINE
   8
LEVEL004
   6
DOT
  62
3
  10
 63.5000
  20
 91.8660
  30
0.0
  11
 61.0000
  21
 93.3094
  31
0.0
   0
LINE
   8
LEVEL004
   6
DOT
  62
3
  10
 61.0000
  20
 93.3094
  30
0.0
  11
 58.5000
  21
 91.8660
  31
0.0
   0
LINE
   8
LEVEL004
   6
DOT
  62
3
  10
 58.5000
  20
 91.8660
  30
0.0
  11
 58.5000
  21
 80.5000
  31
0.0
   0
LINE
   8
LEVEL004
   6
DOT
  62
3
  10
 58.5000
  20
 80.5000
  30
0.0
  11
 58.0000
  21
 80.0000
  31
0.0
   0
LINE
   8
LEVEL004
   6
DOT
  62
3
  10
 63.5000
  20
 80.5000
  30
0.0
  11
 58.5000
  21
 80.5000
  31
0.0
   0
LINE
   8
LEVEL004
   6
DOT
  62
3
  10
 63.5000
  20
 91.8660
  30
0.0
  11
 58.5000
  21
 91.8660
  31
0.0
   0
LINE
   8
LEVEL004
   6
DOT
  62
3
  10
 64.0000
  20
 80.0000
  30
0.0
  11
 64.0000
  21
 90.0000
  31
0.0
   0
LINE
   8
LEVEL004
   6
DOT
  62
3
  10
 64.0000
  20
 90.0000
  30
0.0
  11
 63.5000
  21
 91.8660
  31
0.0
   0
LINE
   8
LEVEL004
   6
DOT
  62
3
  10
 58.5000
  20
 91.8660
  30
0.0
  11
 58.0000
  21
 90.0000
  31
0.0
   0
LINE
   8
LEVEL004
   6
DOT
  62
3
  10
 58.0000
  20
 90.0000
  30
0.0
  11
 58.0000
  21
 80.0000
  31
0.0
   0
LINE
   8
LEVEL004
   6
DOT
  62
3
  10
 64.0000
  20
 90.0000
  30
0.0
  11
 58.0000
  21
 90.0000
  31
0.0
   0
LINE
   8
LEVEL004
   6
DASHDOT
  62
1
  10
 89.0000
  20
 77.0000
  30
0.0
  11
 89.0000
  21
 90.0000
  31
0.0
   0
CIRCLE
   8
LEVEL004
   6
CONTINUOUS
  62
7
  10
 175.853
  20
 26.9083
  30
0.0
  40
 3.00000
   0
LINE
   8
LEVEL004
   6
CONTINUOUS
  62
7
  10
 181.741
  20
 29.9083
  30
0.0
  11
 177.932
  21
 23.3083
  31
0.0
   0
LINE
   8
LEVEL004
   6
CONTINUOUS
  62
7
  10
 177.932
  20
 23.3083
  30
0.0
  11
 170.311
  21
 23.3083
  31
0.0
   0
LINE
   8
LEVEL004
   6
CONTINUOUS
  62
7
  10
 169.444
  20
 21.8083
  30
0.0
  11
 183.065
  21
 21.8083
  31
0.0
   0
LINE
   8
LEVEL004
   6
CONTINUOUS
  62
7
  10
 183.065
  20
 21.8083
  30
0.0
  11
 187.741
  21
 29.9083
  31
0.0
   0
LINE
   8
LEVEL004
   6
CONTINUOUS
  62
7
  10
 187.741
  20
 29.9083
  30
0.0
  11
 181.741
  21
 29.9083
  31
0.0
   0
LINE
   8
LEVEL004
   6
CONTINUOUS
  62
7
  10
 170.311
  20
 23.3083
  30
0.0
  11
 169.444
  21
 21.8083
  31
0.0
   0
TEXT
   8
LEVEL004
  62
7
  10
 187.826
  20
 19.8576
  30
0.0
  40
 10.0000
   1
ＯＳＡＫＡ ＪＡＣＫ
   7
STANDARD
   0
TEXT
   8
LEVEL004
  62
7
  10
 190.737
  20
 36.7510
  30
0.0
  40
 6.00000
   1
Model : Ｅ５Ｓ１８
   7
STANDARD
   0
LINE
   8
LEVEL003
   6
CONTINUOUS
  62
3
  10
 115.000
  20
 308.000
  30
0.0
  11
 147.622
  21
 308.000
  31
0.0
   0
LINE
   8
LEVEL003
   6
CONTINUOUS
  62
3
  10
 115.000
  20
 353.000
  30
0.0
  11
 138.468
  21
 353.000
  31
0.0
   0
LINE
   8
LEVEL003
   6
CONTINUOUS
  62
3
  10
 94.7500
  20
 342.000
  30
0.0
  11
 127.000
  21
 342.000
  31
0.0
   0
LINE
   8
LEVEL003
   6
CONTINUOUS
  62
3
  10
 97.0000
  20
 319.000
  30
0.0
  11
 127.000
  21
 319.000
  31
0.0
   0
LINE
   8
LEVEL003
   6
CONTINUOUS
  62
3
  10
 125.000
  20
 342.000
  30
0.0
  11
 125.000
  21
 319.000
  31
0.0
   0
LINE
   8
LEVEL003
   6
CONTINUOUS
  62
3
  10
 125.000
  20
 342.000
  30
0.0
  11
 124.471
  21
 339.000
  31
0.0
   0
LINE
   8
LEVEL003
   6
CONTINUOUS
  62
3
  10
 125.000
  20
 342.000
  30
0.0
  11
 125.529
  21
 339.000
  31
0.0
   0
LINE
   8
LEVEL003
   6
CONTINUOUS
  62
3
  10
 125.000
  20
 319.000
  30
0.0
  11
 125.529
  21
 322.000
  31
0.0
   0
LINE
   8
LEVEL003
   6
CONTINUOUS
  62
3
  10
 125.000
  20
 319.000
  30
0.0
  11
 124.471
  21
 322.000
  31
0.0
   0
TEXT
   8
LEVEL003
  62
3
  10
 124.200
  20
 326.500
  30
0.0
  40
 4.00000
   1
23
  50
 90.0000
   7
STANDARD
  72
1
  11
 124.200
  21
 330.500
  31
0.0
   0
LINE
   8
LEVEL003
   6
CONTINUOUS
  62
3
  10
 87.5000
  20
 347.000
  30
0.0
  11
 127.000
  21
 347.000
  31
0.0
   0
LINE
   8
LEVEL003
   6
CONTINUOUS
  62
3
  10
 94.7500
  20
 342.000
  30
0.0
  11
 127.000
  21
 342.000
  31
0.0
   0
LINE
   8
LEVEL003
   6
CONTINUOUS
  62
3
  10
 125.000
  20
 347.000
  30
0.0
  11
 125.000
  21
 342.000
  31
0.0
   0
LINE
   8
LEVEL003
   6
CONTINUOUS
  62
3
  10
 125.000
  20
 347.000
  30
0.0
  11
 125.529
  21
 350.000
  31
0.0
   0
LINE
   8
LEVEL003
   6
CONTINUOUS
  62
3
  10
 125.000
  20
 347.000
  30
0.0
  11
 124.471
  21
 350.000
  31
0.0
   0
LINE
   8
LEVEL003
   6
CONTINUOUS
  62
3
  10
 125.000
  20
 342.000
  30
0.0
  11
 124.471
  21
 339.000
  31
0.0
   0
LINE
   8
LEVEL003
   6
CONTINUOUS
  62
3
  10
 125.000
  20
 342.000
  30
0.0
  11
 125.529
  21
 339.000
  31
0.0
   0
LINE
   8
LEVEL003
   6
CONTINUOUS
  62
3
  10
 125.000
  20
 347.000
  30
0.0
  11
 125.000
  21
 350.750
  31
0.0
   0
LINE
   8
LEVEL003
   6
CONTINUOUS
  62
3
  10
 125.000
  20
 342.000
  30
0.0
  11
 125.000
  21
 338.250
  31
0.0
   0
TEXT
   8
LEVEL003
  62
3
  10
 124.200
  20
 342.500
  30
0.0
  40
 4.00000
   1
5
  50
 90.0000
   7
STANDARD
  72
1
  11
 124.200
  21
 344.500
  31
0.0
   0
LINE
   8
LEVEL003
   6
CONTINUOUS
  62
3
  10
 94.7500
  20
 342.000
  30
0.0
  11
 117.000
  21
 342.000
  31
0.0
   0
LINE
   8
LEVEL003
   6
CONTINUOUS
  62
3
  10
 96.2500
  20
 339.000
  30
0.0
  11
 117.000
  21
 339.000
  31
0.0
   0
LINE
   8
LEVEL003
   6
CONTINUOUS
  62
3
  10
 115.000
  20
 342.000
  30
0.0
  11
 115.000
  21
 339.000
  31
0.0
   0
LINE
   8
LEVEL003
   6
CONTINUOUS
  62
3
  10
 115.000
  20
 339.000
  30
0.0
  11
 115.000
  21
 335.000
  31
0.0
   0
LINE
   8
LEVEL003
   6
CONTINUOUS
  62
3
  10
 115.000
  20
 342.000
  30
0.0
  11
 115.529
  21
 345.000
  31
0.0
   0
LINE
   8
LEVEL003
   6
CONTINUOUS
  62
3
  10
 115.000
  20
 342.000
  30
0.0
  11
 114.471
  21
 345.000
  31
0.0
   0
LINE
   8
LEVEL003
   6
CONTINUOUS
  62
3
  10
 115.000
  20
 339.000
  30
0.0
  11
 114.471
  21
 336.000
  31
0.0
   0
LINE
   8
LEVEL003
   6
CONTINUOUS
  62
3
  10
 115.000
  20
 339.000
  30
0.0
  11
 115.529
  21
 336.000
  31
0.0
   0
LINE
   8
LEVEL003
   6
CONTINUOUS
  62
3
  10
 115.000
  20
 342.000
  30
0.0
  11
 115.000
  21
 345.750
  31
0.0
   0
LINE
   8
LEVEL003
   6
CONTINUOUS
  62
3
  10
 115.000
  20
 339.000
  30
0.0
  11
 115.000
  21
 335.000
  31
0.0
   0
TEXT
   8
LEVEL003
  62
3
  10
 114.200
  20
 335.000
  30
0.0
  40
 4.00000
   1
3
  50
 90.0000
   7
STANDARD
  72
1
  11
 114.200
  21
 337.000
  31
0.0
   0
LINE
   8
LEVEL003
   6
CONTINUOUS
  62
3
  10
 94.7500
  20
 342.000
  30
0.0
  11
 107.000
  21
 342.000
  31
0.0
   0
LINE
   8
LEVEL003
   6
CONTINUOUS
  62
3
  10
 81.0000
  20
 328.500
  30
0.0
  11
 107.000
  21
 328.500
  31
0.0
   0
LINE
   8
LEVEL003
   6
CONTINUOUS
  62
3
  10
 105.000
  20
 342.000
  30
0.0
  11
 105.000
  21
 328.500
  31
0.0
   0
LINE
   8
LEVEL003
   6
CONTINUOUS
  62
3
  10
 105.000
  20
 342.000
  30
0.0
  11
 104.471
  21
 339.000
  31
0.0
   0
LINE
   8
LEVEL003
   6
CONTINUOUS
  62
3
  10
 105.000
  20
 342.000
  30
0.0
  11
 105.529
  21
 339.000
  31
0.0
   0
LINE
   8
LEVEL003
   6
CONTINUOUS
  62
3
  10
 105.000
  20
 328.500
  30
0.0
  11
 105.529
  21
 331.500
  31
0.0
   0
LINE
   8
LEVEL003
   6
CONTINUOUS
  62
3
  10
 105.000
  20
 328.500
  30
0.0
  11
 104.471
  21
 331.500
  31
0.0
   0
TEXT
   8
LEVEL003
  62
3
  10
 104.200
  20
 331.250
  30
0.0
  40
 4.00000
   1
13
  50
 90.0000
   7
STANDARD
  72
1
  11
 104.200
  21
 335.250
  31
0.0
   0
ENDSEC
   0
EOF
