   0
SECTION
   2
HEADER
   9
$LIMMIN
  10
0.0
  20
0.0
   9
$LIMMAX
  10
 420.000
  20
 297.000
   9
$EXTMIN
  10
0.0
  20
0.0
   9
$EXTMAX
  10
 420.000
  20
 297.000
   9
$LTSCALE
  40
 8.40000
   0
ENDSEC
   0
SECTION
   2
TABLES
  0
TABLE
  2
LTYPE
 70
    25
  0
LTYPE
  2
CONTINUOUS
 70
    64
  3
Solid line
 72
    65
 73
     0
 40
0.0
  0
LTYPE
  2
BORDER
 70
    64
  3
__ __ . __ __ . __ __ . __ __ . __ __ . __ __ .
 72
    65
 73
     6
 40
1.75
 49
0.5
 49
-0.25
 49
0.5
 49
-0.25
 49
0.0
 49
-0.25
  0
LTYPE
  2
BORDER2
 70
    64
  3
__.__.__.__.__.__.__.__.__.__.__.__.__.__.__.__
 72
    65
 73
     6
 40
0.875
 49
0.25
 49
-0.125
 49
0.25
 49
-0.125
 49
0.0
 49
-0.125
  0
LTYPE
  2
BORDERX2
 70
    64
  3
____  ____  .  ____  ____  .  ____  ____  .  __
 72
    65
 73
     6
 40
3.5
 49
1.0
 49
-0.5
 49
1.0
 49
-0.5
 49
0.0
 49
-0.5
  0
LTYPE
  2
CENTER
 70
    64
  3
____ _ ____ _ ____ _ ____ _ ____ _ ____ _ ____ 
 72
    65
 73
     4
 40
2.0
 49
1.25
 49
-0.25
 49
0.25
 49
-0.25
  0
LTYPE
  2
CENTER2
 70
    64
  3
___ _ ___ _ ___ _ ___ _ ___ _ ___ _ ___ _ ___ _
 72
    65
 73
     4
 40
1.125
 49
0.75
 49
-0.125
 49
0.125
 49
-0.125
  0
LTYPE
  2
CENTERX2
 70
    64
  3
________  __  ________  __  ________  __  _____
 72
    65
 73
     4
 40
4.0
 49
2.5
 49
-0.5
 49
0.5
 49
-0.5
  0
LTYPE
  2
DASHDOT
 70
    64
  3
__ . __ . __ . __ . __ . __ . __ . __ . __ . __
 72
    65
 73
     4
 40
1.0
 49
0.5
 49
-0.25
 49
0.0
 49
-0.25
  0
LTYPE
  2
DASHDOT2
 70
    64
  3
_._._._._._._._._._._._._._._._._._._._._._._._
 72
    65
 73
     4
 40
0.5
 49
0.25
 49
-0.125
 49
0.0
 49
-0.125
  0
LTYPE
  2
DASHDOTX2
 70
    64
  3
____  .  ____  .  ____  .  ____  .  ____  .  __
 72
    65
 73
     4
 40
2.0
 49
1.0
 49
-0.5
 49
0.0
 49
-0.5
  0
LTYPE
  2
DASHED
 70
    64
  3
__ __ __ __ __ __ __ __ __ __ __ __ __ __ __ __
 72
    65
 73
     2
 40
0.75
 49
0.5
 49
-0.25
  0
LTYPE
  2
DASHED2
 70
    64
  3
_ _ _ _ _ _ _ _ _ _ _ _ _ _ _ _ _ _ _ _ _ _ _ _
 72
    65
 73
     2
 40
0.375
 49
0.25
 49
-0.125
  0
LTYPE
  2
DASHEDX2
 70
    64
  3
____  ____  ____  ____  ____  ____  ____  ____ 
 72
    65
 73
     2
 40
1.5
 49
1.0
 49
-0.5
  0
LTYPE
  2
DIVIDE
 70
    64
  3
____ . . ____ . . ____ . . ____ . . ____ . . __
 72
    65
 73
     6
 40
1.25
 49
0.5
 49
-0.25
 49
0.0
 49
-0.25
 49
0.0
 49
-0.25
  0
LTYPE
  2
DIVIDE2
 70
    64
  3
__..__..__..__..__..__..__..__..__..__..__..__.
 72
    65
 73
     6
 40
0.625
 49
0.25
 49
-0.125
 49
0.0
 49
-0.125
 49
0.0
 49
-0.125
  0
LTYPE
  2
DIVIDEX2
 70
    64
  3
________  .  .  ________  .  .  ________  .  . 
 72
    65
 73
     6
 40
2.5
 49
1.0
 49
-0.5
 49
0.0
 49
-0.5
 49
0.0
 49
-0.5
  0
LTYPE
  2
DOT
 70
    64
  3
. . . . . . . . . . . . . . . . . . . . . . . .
 72
    65
 73
     2
 40
0.25
 49
0.0
 49
-0.25
  0
LTYPE
  2
DOT2
 70
    64
  3
...............................................
 72
    65
 73
     2
 40
0.125
 49
0.0
 49
-0.125
  0
LTYPE
  2
DOTX2
 70
    64
  3
.  .  .  .  .  .  .  .  .  .  .  .  .  .  .  . 
 72
    65
 73
     2
 40
0.5
 49
0.0
 49
-0.5
  0
LTYPE
  2
HIDDEN
 70
    64
  3
__ __ __ __ __ __ __ __ __ __ __ __ __ __ __ __
 72
    65
 73
     2
 40
0.375
 49
0.25
 49
-0.125
  0
LTYPE
  2
HIDDEN2
 70
    64
  3
_ _ _ _ _ _ _ _ _ _ _ _ _ _ _ _ _ _ _ _ _ _ _ _
 72
    65
 73
     2
 40
0.1875
 49
0.125
 49
-0.0625
  0
LTYPE
  2
HIDDENX2
 70
    64
  3
____ ____ ____ ____ ____ ____ ____ ____ ____ __
 72
    65
 73
     2
 40
0.75
 49
0.5
 49
-0.25
  0
LTYPE
  2
PHANTOM
 70
    64
  3
______  __  __  ______  __  __  ______  __  __ 
 72
    65
 73
     6
 40
2.5
 49
1.25
 49
-0.25
 49
0.25
 49
-0.25
 49
0.25
 49
-0.25
  0
LTYPE
  2
PHANTOM2
 70
    64
  3
___ _ _ ___ _ _ ___ _ _ ___ _ _ ___ _ _ ___ _ _
 72
    65
 73
     6
 40
1.25
 49
0.625
 49
-0.125
 49
0.125
 49
-0.125
 49
0.125
 49
-0.125
  0
LTYPE
  2
PHANTOMX2
 70
    64
  3
____________    ____    ____    ____________   
 72
    65
 73
     6
 40
5.0
 49
2.5
 49
-0.5
 49
0.5
 49
-0.5
 49
0.5
 49
-0.5
  0
ENDTAB
  0
TABLE
  2
STYLE
 70
     2
  0
STYLE
  2
STANDARD
 70
0
 40
0.0
 41
1.0
 50
0.0
 71
0
 42
0.2
  3
TXT
  4
BIGFONT
  0
STYLE
  2
STANDARD1
 70
     4
 40
0.0
 41
1.0
 50
0.0
 71
     0
 42
0.2
  3
TXT
  4
BIGFONT
  0
ENDTAB
   0
TABLE
   2
LAYER
  70
4
   0
LAYER
   2
0
  70
0
  62
7
   6
CONTINUOUS
   0
LAYER
   2
LEVEL001
  70
0
  62
7
   6
CONTINUOUS
   0
LAYER
   2
LEVEL003
  70
0
  62
7
   6
CONTINUOUS
   0
LAYER
   2
LEVEL004
  70
0
  62
7
   6
CONTINUOUS
   0
ENDTAB
   0
ENDSEC
   0
SECTION
   2
ENTITIES
   0
CIRCLE
   8
LEVEL001
   6
CONTINUOUS
  62
7
  10
 75.0000
  20
 35.0000
  30
0.0
  40
 21.0000
   0
LINE
   8
LEVEL001
   6
DASHDOT
  62
1
  10
 164.737
  20
 35.0000
  30
0.0
  11
 50.0000
  21
 35.0000
  31
0.0
   0
LINE
   8
LEVEL001
   6
DASHDOT
  62
1
  10
 75.0000
  20
 60.0000
  30
0.0
  11
 75.0000
  21
 10.0000
  31
0.0
   0
LINE
   8
LEVEL001
   6
CONTINUOUS
  62
7
  10
 75.0000
  20
 39.6188
  30
0.0
  11
 79.0000
  21
 37.3094
  31
0.0
   0
LINE
   8
LEVEL001
   6
CONTINUOUS
  62
7
  10
 79.0000
  20
 37.3094
  30
0.0
  11
 79.0000
  21
 32.6906
  31
0.0
   0
LINE
   8
LEVEL001
   6
CONTINUOUS
  62
7
  10
 79.0000
  20
 32.6906
  30
0.0
  11
 75.0000
  21
 30.3812
  31
0.0
   0
LINE
   8
LEVEL001
   6
CONTINUOUS
  62
7
  10
 75.0000
  20
 30.3812
  30
0.0
  11
 71.0000
  21
 32.6906
  31
0.0
   0
LINE
   8
LEVEL001
   6
CONTINUOUS
  62
7
  10
 71.0000
  20
 32.6906
  30
0.0
  11
 71.0000
  21
 37.3094
  31
0.0
   0
LINE
   8
LEVEL001
   6
CONTINUOUS
  62
7
  10
 71.0000
  20
 37.3094
  30
0.0
  11
 75.0000
  21
 39.6188
  31
0.0
   0
CIRCLE
   8
LEVEL001
   6
CONTINUOUS
  62
7
  10
 75.0000
  20
 35.0000
  30
0.0
  40
 8.33100
   0
CIRCLE
   8
LEVEL001
   6
CONTINUOUS
  62
3
  10
 75.0000
  20
 35.0000
  30
0.0
  40
 7.47500
   0
CIRCLE
   8
LEVEL001
   6
CONTINUOUS
  62
7
  10
 75.0000
  20
 35.0000
  30
0.0
  40
 10.0038
   0
CIRCLE
   8
LEVEL001
   6
CONTINUOUS
  62
7
  10
 75.0000
  20
 35.0000
  30
0.0
  40
 20.0038
   0
ARC
   8
LEVEL001
   6
CONTINUOUS
  62
7
  10
 123.504
  20
 48.0000
  30
0.0
  40
 1.50000
  50
 90.0000
  51
 180.000
   0
LINE
   8
LEVEL001
   6
CONTINUOUS
  62
7
  10
 123.504
  20
 49.5000
  30
0.0
  11
 128.504
  21
 49.5000
  31
0.0
   0
ARC
   8
LEVEL001
   6
CONTINUOUS
  62
7
  10
 123.504
  20
 22.0000
  30
0.0
  40
 1.50000
  50
 180.000
  51
 270.000
   0
LINE
   8
LEVEL001
   6
CONTINUOUS
  62
7
  10
 122.004
  20
 22.0000
  30
0.0
  11
 122.004
  21
 48.0000
  31
0.0
   0
LINE
   8
LEVEL001
   6
CONTINUOUS
  62
7
  10
 123.504
  20
 20.5000
  30
0.0
  11
 128.504
  21
 20.5000
  31
0.0
   0
ARC
   8
LEVEL001
   6
CONTINUOUS
  62
7
  10
 144.504
  20
 48.0000
  30
0.0
  40
 1.50000
  50
 0.542815E-12
  51
 90.0000
   0
LINE
   8
LEVEL001
   6
CONTINUOUS
  62
7
  10
 139.504
  20
 49.5000
  30
0.0
  11
 144.504
  21
 49.5000
  31
0.0
   0
ARC
   8
LEVEL001
   6
CONTINUOUS
  62
7
  10
 144.504
  20
 22.0000
  30
0.0
  40
 1.50000
  50
 270.000
  51
 0.279550E-10
   0
LINE
   8
LEVEL001
   6
CONTINUOUS
  62
7
  10
 139.504
  20
 20.5000
  30
0.0
  11
 144.504
  21
 20.5000
  31
0.0
   0
LINE
   8
LEVEL001
   6
CONTINUOUS
  62
7
  10
 146.004
  20
 48.0000
  30
0.0
  11
 146.004
  21
 22.0000
  31
0.0
   0
ARC
   8
LEVEL001
   6
DASHDOT
  62
1
  10
 155.004
  20
 48.0000
  30
0.0
  40
 1.00000
  50
0.0
  51
 90.0000
   0
LINE
   8
LEVEL001
   6
DASHDOT
  62
1
  10
 147.004
  20
 49.0000
  30
0.0
  11
 155.004
  21
 49.0000
  31
0.0
   0
ARC
   8
LEVEL001
   6
DASHDOT
  62
1
  10
 155.004
  20
 22.0000
  30
0.0
  40
 1.00000
  50
 270.000
  51
0.0
   0
LINE
   8
LEVEL001
   6
DASHDOT
  62
1
  10
 147.004
  20
 21.0000
  30
0.0
  11
 155.004
  21
 21.0000
  31
0.0
   0
LINE
   8
LEVEL001
   6
DASHDOT
  62
1
  10
 156.004
  20
 48.0000
  30
0.0
  11
 156.004
  21
 22.0000
  31
0.0
   0
ARC
   8
LEVEL001
   6
DASHDOT
  62
1
  10
 147.004
  20
 22.0000
  30
0.0
  40
 1.00000
  50
 180.000
  51
 270.000
   0
ARC
   8
LEVEL001
   6
DASHDOT
  62
1
  10
 147.004
  20
 48.0000
  30
0.0
  40
 1.00000
  50
 90.0000
  51
 180.000
   0
LINE
   8
LEVEL001
   6
CONTINUOUS
  62
3
  10
 101.388
  20
 42.5000
  30
0.0
  11
 101.387
  21
 27.5000
  31
0.0
   0
LINE
   8
LEVEL001
   6
CONTINUOUS
  62
7
  10
 105.004
  20
 42.5000
  30
0.0
  11
 105.004
  21
 27.5000
  31
0.0
   0
LINE
   8
LEVEL001
   6
CONTINUOUS
  62
7
  10
 106.487
  20
 27.5000
  30
0.0
  11
 106.487
  21
 42.5000
  31
0.0
   0
LINE
   8
LEVEL001
   6
CONTINUOUS
  62
3
  10
 128.504
  20
 22.0000
  30
0.0
  11
 139.504
  21
 22.0000
  31
0.0
   0
LINE
   8
LEVEL001
   6
CONTINUOUS
  62
3
  10
 128.504
  20
 24.0000
  30
0.0
  11
 139.504
  21
 24.0000
  31
0.0
   0
LINE
   8
LEVEL001
   6
CONTINUOUS
  62
3
  10
 128.504
  20
 26.0000
  30
0.0
  11
 139.504
  21
 26.0000
  31
0.0
   0
LINE
   8
LEVEL001
   6
CONTINUOUS
  62
3
  10
 128.504
  20
 28.0000
  30
0.0
  11
 139.504
  21
 28.0000
  31
0.0
   0
LINE
   8
LEVEL001
   6
CONTINUOUS
  62
3
  10
 128.504
  20
 30.0000
  30
0.0
  11
 139.504
  21
 30.0000
  31
0.0
   0
LINE
   8
LEVEL001
   6
CONTINUOUS
  62
3
  10
 128.504
  20
 32.0000
  30
0.0
  11
 139.504
  21
 32.0000
  31
0.0
   0
LINE
   8
LEVEL001
   6
CONTINUOUS
  62
3
  10
 128.504
  20
 34.0000
  30
0.0
  11
 139.504
  21
 34.0000
  31
0.0
   0
LINE
   8
LEVEL001
   6
CONTINUOUS
  62
3
  10
 128.504
  20
 36.0000
  30
0.0
  11
 139.504
  21
 36.0000
  31
0.0
   0
LINE
   8
LEVEL001
   6
CONTINUOUS
  62
3
  10
 128.504
  20
 38.0000
  30
0.0
  11
 139.504
  21
 38.0000
  31
0.0
   0
LINE
   8
LEVEL001
   6
CONTINUOUS
  62
3
  10
 128.504
  20
 40.0000
  30
0.0
  11
 139.504
  21
 40.0000
  31
0.0
   0
LINE
   8
LEVEL001
   6
CONTINUOUS
  62
3
  10
 128.504
  20
 42.0000
  30
0.0
  11
 139.504
  21
 42.0000
  31
0.0
   0
LINE
   8
LEVEL001
   6
CONTINUOUS
  62
3
  10
 128.504
  20
 44.0000
  30
0.0
  11
 139.504
  21
 44.0000
  31
0.0
   0
LINE
   8
LEVEL001
   6
CONTINUOUS
  62
3
  10
 128.504
  20
 46.0000
  30
0.0
  11
 139.504
  21
 46.0000
  31
0.0
   0
LINE
   8
LEVEL001
   6
CONTINUOUS
  62
3
  10
 128.504
  20
 48.0000
  30
0.0
  11
 139.504
  21
 48.0000
  31
0.0
   0
LINE
   8
LEVEL001
   6
DASHDOT
  62
1
  10
 156.004
  20
 37.0000
  30
0.0
  11
 162.004
  21
 37.0000
  31
0.0
   0
LINE
   8
LEVEL001
   6
DASHDOT
  62
1
  10
 162.004
  20
 37.0000
  30
0.0
  11
 162.004
  21
 33.0000
  31
0.0
   0
LINE
   8
LEVEL001
   6
DASHDOT
  62
1
  10
 162.004
  20
 33.0000
  30
0.0
  11
 156.004
  21
 33.0000
  31
0.0
   0
LINE
   8
LEVEL001
   6
CONTINUOUS
  62
7
  10
 101.004
  20
 43.5185
  30
0.0
  11
 101.004
  21
 42.5000
  31
0.0
   0
LINE
   8
LEVEL001
   6
CONTINUOUS
  62
7
  10
 101.004
  20
 42.5000
  30
0.0
  11
 115.004
  21
 42.5000
  31
0.0
   0
LINE
   8
LEVEL001
   6
CONTINUOUS
  62
7
  10
 115.004
  20
 42.5000
  30
0.0
  11
 115.004
  21
 44.5000
  31
0.0
   0
LINE
   8
LEVEL001
   6
CONTINUOUS
  62
7
  10
 115.004
  20
 44.5000
  30
0.0
  11
 122.004
  21
 44.5000
  31
0.0
   0
LINE
   8
LEVEL001
   6
CONTINUOUS
  62
7
  10
 101.004
  20
 26.4815
  30
0.0
  11
 101.004
  21
 27.5000
  31
0.0
   0
LINE
   8
LEVEL001
   6
CONTINUOUS
  62
7
  10
 101.004
  20
 27.5000
  30
0.0
  11
 115.004
  21
 27.5000
  31
0.0
   0
LINE
   8
LEVEL001
   6
CONTINUOUS
  62
7
  10
 115.004
  20
 27.5000
  30
0.0
  11
 115.004
  21
 25.5000
  31
0.0
   0
LINE
   8
LEVEL001
   6
CONTINUOUS
  62
7
  10
 115.004
  20
 25.5000
  30
0.0
  11
 122.004
  21
 25.5000
  31
0.0
   0
LINE
   8
LEVEL001
   6
CONTINUOUS
  62
7
  10
 128.504
  20
 20.0000
  30
0.0
  11
 128.504
  21
 50.0000
  31
0.0
   0
LINE
   8
LEVEL001
   6
CONTINUOUS
  62
7
  10
 128.504
  20
 50.0000
  30
0.0
  11
 139.504
  21
 50.0000
  31
0.0
   0
LINE
   8
LEVEL001
   6
CONTINUOUS
  62
7
  10
 139.504
  20
 50.0000
  30
0.0
  11
 139.504
  21
 20.0000
  31
0.0
   0
LINE
   8
LEVEL001
   6
CONTINUOUS
  62
7
  10
 139.504
  20
 20.0000
  30
0.0
  11
 128.504
  21
 20.0000
  31
0.0
   0
LINE
   8
LEVEL001
   6
CONTINUOUS
  62
3
  10
 101.004
  20
 42.6625
  30
0.0
  11
 94.6290
  21
 42.4633
  31
0.0
   0
LINE
   8
LEVEL001
   6
CONTINUOUS
  62
7
  10
 101.004
  20
 43.5185
  30
0.0
  11
 94.2865
  21
 43.3086
  31
0.0
   0
LINE
   8
LEVEL001
   6
CONTINUOUS
  62
7
  10
 101.004
  20
 26.4815
  30
0.0
  11
 94.2865
  21
 26.6914
  31
0.0
   0
LINE
   8
LEVEL001
   6
CONTINUOUS
  62
3
  10
 100.999
  20
 27.3376
  30
0.0
  11
 94.6290
  21
 27.5367
  31
0.0
   0
CIRCLE
   8
LEVEL001
   6
CONTINUOUS
  62
7
  10
 75.0000
  20
 49.0000
  30
0.0
  40
 2.50000
   0
CIRCLE
   8
LEVEL001
   6
CONTINUOUS
  62
3
  10
 75.0000
  20
 49.0000
  30
0.0
  40
 3.00000
   0
LINE
   8
LEVEL001
   6
DASHDOT
  62
1
  10
 81.0000
  20
 49.0000
  30
0.0
  11
 69.0000
  21
 49.0000
  31
0.0
   0
CIRCLE
   8
LEVEL001
   6
CONTINUOUS
  62
7
  10
 75.0000
  20
 21.0000
  30
0.0
  40
 2.50000
   0
CIRCLE
   8
LEVEL001
   6
CONTINUOUS
  62
3
  10
 75.0000
  20
 21.0000
  30
0.0
  40
 3.00000
   0
LINE
   8
LEVEL001
   6
DASHDOT
  62
1
  10
 81.0000
  20
 21.0000
  30
0.0
  11
 69.0000
  21
 21.0000
  31
0.0
   0
CIRCLE
   8
LEVEL003
   6
CONTINUOUS
  62
7
  10
 179.718
  20
 17.2707
  30
0.0
  40
 3.00000
   0
LINE
   8
LEVEL003
   6
CONTINUOUS
  62
7
  10
 185.606
  20
 20.2707
  30
0.0
  11
 181.797
  21
 13.6707
  31
0.0
   0
LINE
   8
LEVEL003
   6
CONTINUOUS
  62
7
  10
 181.797
  20
 13.6707
  30
0.0
  11
 174.176
  21
 13.6707
  31
0.0
   0
LINE
   8
LEVEL003
   6
CONTINUOUS
  62
7
  10
 173.309
  20
 12.1707
  30
0.0
  11
 186.930
  21
 12.1707
  31
0.0
   0
LINE
   8
LEVEL003
   6
CONTINUOUS
  62
7
  10
 186.930
  20
 12.1707
  30
0.0
  11
 191.606
  21
 20.2707
  31
0.0
   0
LINE
   8
LEVEL003
   6
CONTINUOUS
  62
7
  10
 191.606
  20
 20.2707
  30
0.0
  11
 185.606
  21
 20.2707
  31
0.0
   0
LINE
   8
LEVEL003
   6
CONTINUOUS
  62
7
  10
 174.176
  20
 13.6707
  30
0.0
  11
 173.309
  21
 12.1707
  31
0.0
   0
TEXT
   8
LEVEL003
  62
7
  10
 191.691
  20
 10.2200
  30
0.0
  40
 10.0000
   1
ＯＳＡＫＡ ＪＡＣＫ
   7
STANDARD
   0
TEXT
   8
LEVEL003
  62
7
  10
 194.602
  20
 27.1134
  30
0.0
  40
 6.00000
   1
Model : Ｅ５Ｓ２.５
   7
STANDARD
   0
LINE
   8
LEVEL001
   6
CONTINUOUS
  62
3
  10
 104.212
  20
 119.399
  30
0.0
  11
 100.694
  21
 118.119
  31
0.0
   0
LINE
   8
LEVEL001
   6
CONTINUOUS
  62
3
  10
 105.719
  20
 102.178
  30
0.0
  11
 102.032
  21
 102.828
  31
0.0
   0
LINE
   8
LEVEL001
   6
CONTINUOUS
  62
7
  10
 104.212
  20
 119.399
  30
0.0
  11
 105.616
  21
 120.382
  31
0.0
   0
LINE
   8
LEVEL001
   6
CONTINUOUS
  62
7
  10
 121.073
  20
 121.734
  30
0.0
  11
 105.616
  21
 120.382
  31
0.0
   0
LINE
   8
LEVEL001
   6
CONTINUOUS
  62
7
  10
 105.719
  20
 102.178
  30
0.0
  11
 107.272
  21
 101.454
  31
0.0
   0
LINE
   8
LEVEL001
   6
CONTINUOUS
  62
7
  10
 122.729
  20
 102.806
  30
0.0
  11
 107.272
  21
 101.454
  31
0.0
   0
ARC
   8
LEVEL001
   6
CONTINUOUS
  62
7
  10
 122.262
  20
 125.351
  30
0.0
  40
 1.50000
  50
 95.0001
  51
 185.000
   0
LINE
   8
LEVEL001
   6
CONTINUOUS
  62
7
  10
 122.132
  20
 126.846
  30
0.0
  11
 127.113
  21
 127.281
  31
0.0
   0
ARC
   8
LEVEL001
   6
CONTINUOUS
  62
7
  10
 124.528
  20
 99.4500
  30
0.0
  40
 1.50000
  50
 185.000
  51
 275.000
   0
LINE
   8
LEVEL001
   6
CONTINUOUS
  62
7
  10
 123.034
  20
 99.3193
  30
0.0
  11
 120.768
  21
 125.221
  31
0.0
   0
LINE
   8
LEVEL001
   6
CONTINUOUS
  62
7
  10
 124.659
  20
 97.9558
  30
0.0
  11
 129.640
  21
 98.3915
  31
0.0
   0
ARC
   8
LEVEL001
   6
CONTINUOUS
  62
7
  10
 143.182
  20
 127.182
  30
0.0
  40
 1.50000
  50
 5.00008
  51
 95.0002
   0
LINE
   8
LEVEL001
   6
CONTINUOUS
  62
7
  10
 138.071
  20
 128.240
  30
0.0
  11
 143.052
  21
 128.676
  31
0.0
   0
ARC
   8
LEVEL001
   6
CONTINUOUS
  62
7
  10
 145.448
  20
 101.280
  30
0.0
  40
 1.50000
  50
 275.000
  51
 4.99990
   0
LINE
   8
LEVEL001
   6
CONTINUOUS
  62
7
  10
 140.598
  20
 99.3502
  30
0.0
  11
 145.579
  21
 99.7860
  31
0.0
   0
LINE
   8
LEVEL001
   6
CONTINUOUS
  62
7
  10
 144.677
  20
 127.312
  30
0.0
  11
 146.943
  21
 101.411
  31
0.0
   0
ARC
   8
LEVEL001
   6
DASHDOT
  62
1
  10
 153.642
  20
 128.097
  30
0.0
  40
 1.00000
  50
 4.99976
  51
 95.0005
   0
LINE
   8
LEVEL001
   6
DASHDOT
  62
1
  10
 145.586
  20
 128.396
  30
0.0
  11
 153.555
  21
 129.093
  31
0.0
   0
ARC
   8
LEVEL001
   6
DASHDOT
  62
1
  10
 155.909
  20
 102.195
  30
0.0
  40
 1.00000
  50
 275.000
  51
 5.00002
   0
LINE
   8
LEVEL001
   6
DASHDOT
  62
1
  10
 148.026
  20
 100.502
  30
0.0
  11
 155.996
  21
 101.199
  31
0.0
   0
LINE
   8
LEVEL001
   6
DASHDOT
  62
1
  10
 154.639
  20
 128.184
  30
0.0
  11
 156.905
  21
 102.283
  31
0.0
   0
CIRCLE
   8
LEVEL001
   6
DASHDOT
  62
1
  10
 158.760
  20
 115.495
  30
0.0
  40
 1.50000
   0
ARC
   8
LEVEL001
   6
DASHDOT
  62
1
  10
 147.939
  20
 101.498
  30
0.0
  40
 1.00000
  50
 185.000
  51
 275.000
   0
ARC
   8
LEVEL001
   6
DASHDOT
  62
1
  10
 145.673
  20
 127.399
  30
0.0
  40
 1.00000
  50
 95.0006
  51
 185.001
   0
ARC
   8
LEVEL001
   6
DASHDOT
  62
1
  10
 157.285
  20
 120.887
  30
0.0
  40
 2.00000
  50
 185.000
  51
 275.000
   0
ARC
   8
LEVEL001
   6
DASHDOT
  62
1
  10
 158.243
  20
 109.928
  30
0.0
  40
 2.00000
  50
 95.0002
  51
 185.000
   0
LINE
   8
LEVEL001
   6
DASHDOT
  62
1
  10
 157.459
  20
 118.894
  30
0.0
  11
 157.957
  21
 118.938
  31
0.0
   0
LINE
   8
LEVEL001
   6
DASHDOT
  62
1
  10
 158.069
  20
 111.921
  30
0.0
  11
 158.567
  21
 111.964
  31
0.0
   0
ARC
   8
LEVEL001
   6
DASHDOT
  62
1
  10
 158.258
  20
 115.451
  30
0.0
  40
 3.50000
  50
 275.065
  51
 94.9347
   0
LINE
   8
LEVEL001
   6
CONTINUOUS
  62
7
  10
 107.272
  20
 101.454
  30
0.0
  11
 106.952
  21
 105.109
  31
0.0
   0
LINE
   8
LEVEL001
   6
CONTINUOUS
  62
7
  10
 105.935
  20
 116.726
  30
0.0
  11
 105.616
  21
 120.382
  31
0.0
   0
LINE
   8
LEVEL001
   6
CONTINUOUS
  62
7
  10
 101.333
  20
 106.416
  30
0.0
  11
 114.420
  21
 117.469
  31
0.0
   0
LINE
   8
LEVEL001
   6
CONTINUOUS
  62
7
  10
 100.629
  20
 114.463
  30
0.0
  11
 115.436
  21
 105.851
  31
0.0
   0
LINE
   8
LEVEL001
   6
CONTINUOUS
  62
3
  10
 100.694
  20
 118.119
  30
0.0
  11
 101.011
  21
 114.497
  31
0.0
   0
LINE
   8
LEVEL001
   6
CONTINUOUS
  62
3
  10
 101.715
  20
 106.449
  30
0.0
  11
 102.032
  21
 102.828
  31
0.0
   0
LINE
   8
LEVEL001
   6
CONTINUOUS
  62
7
  10
 104.212
  20
 119.399
  30
0.0
  11
 104.591
  21
 115.068
  31
0.0
   0
LINE
   8
LEVEL001
   6
CONTINUOUS
  62
7
  10
 105.340
  20
 106.508
  30
0.0
  11
 105.719
  21
 102.178
  31
0.0
   0
LINE
   8
LEVEL001
   6
CONTINUOUS
  62
3
  10
 129.509
  20
 99.8858
  30
0.0
  11
 140.467
  21
 100.845
  31
0.0
   0
LINE
   8
LEVEL001
   6
CONTINUOUS
  62
3
  10
 129.335
  20
 101.878
  30
0.0
  11
 140.293
  21
 102.837
  31
0.0
   0
LINE
   8
LEVEL001
   6
CONTINUOUS
  62
3
  10
 129.161
  20
 103.871
  30
0.0
  11
 140.119
  21
 104.829
  31
0.0
   0
LINE
   8
LEVEL001
   6
CONTINUOUS
  62
3
  10
 128.986
  20
 105.863
  30
0.0
  11
 139.945
  21
 106.822
  31
0.0
   0
LINE
   8
LEVEL001
   6
CONTINUOUS
  62
3
  10
 128.812
  20
 107.855
  30
0.0
  11
 139.770
  21
 108.814
  31
0.0
   0
LINE
   8
LEVEL001
   6
CONTINUOUS
  62
3
  10
 128.638
  20
 109.848
  30
0.0
  11
 139.596
  21
 110.806
  31
0.0
   0
LINE
   8
LEVEL001
   6
CONTINUOUS
  62
3
  10
 128.464
  20
 111.840
  30
0.0
  11
 139.422
  21
 112.799
  31
0.0
   0
LINE
   8
LEVEL001
   6
CONTINUOUS
  62
3
  10
 128.289
  20
 113.832
  30
0.0
  11
 139.247
  21
 114.791
  31
0.0
   0
LINE
   8
LEVEL001
   6
CONTINUOUS
  62
3
  10
 128.115
  20
 115.825
  30
0.0
  11
 139.073
  21
 116.784
  31
0.0
   0
LINE
   8
LEVEL001
   6
CONTINUOUS
  62
3
  10
 127.941
  20
 117.818
  30
0.0
  11
 138.899
  21
 118.776
  31
0.0
   0
LINE
   8
LEVEL001
   6
CONTINUOUS
  62
3
  10
 127.766
  20
 119.810
  30
0.0
  11
 138.724
  21
 120.769
  31
0.0
   0
LINE
   8
LEVEL001
   6
CONTINUOUS
  62
3
  10
 127.592
  20
 121.802
  30
0.0
  11
 138.550
  21
 122.761
  31
0.0
   0
LINE
   8
LEVEL001
   6
CONTINUOUS
  62
3
  10
 127.418
  20
 123.795
  30
0.0
  11
 138.376
  21
 124.753
  31
0.0
   0
LINE
   8
LEVEL001
   6
CONTINUOUS
  62
3
  10
 127.243
  20
 125.787
  30
0.0
  11
 138.201
  21
 126.746
  31
0.0
   0
LINE
   8
LEVEL001
   6
CONTINUOUS
  62
7
  10
 101.333
  20
 106.416
  30
0.0
  11
 100.629
  21
 114.463
  31
0.0
   0
LINE
   8
LEVEL001
   6
CONTINUOUS
  62
7
  10
 100.629
  20
 114.463
  30
0.0
  11
 104.591
  21
 115.068
  31
0.0
   0
LINE
   8
LEVEL001
   6
CONTINUOUS
  62
7
  10
 104.591
  20
 115.068
  30
0.0
  11
 105.935
  21
 116.726
  31
0.0
   0
LINE
   8
LEVEL001
   6
CONTINUOUS
  62
7
  10
 105.935
  20
 116.726
  30
0.0
  11
 114.420
  21
 117.469
  31
0.0
   0
LINE
   8
LEVEL001
   6
CONTINUOUS
  62
7
  10
 114.420
  20
 117.469
  30
0.0
  11
 115.436
  21
 105.851
  31
0.0
   0
LINE
   8
LEVEL001
   6
CONTINUOUS
  62
7
  10
 115.436
  20
 105.851
  30
0.0
  11
 106.952
  21
 105.109
  31
0.0
   0
LINE
   8
LEVEL001
   6
CONTINUOUS
  62
7
  10
 106.952
  20
 105.109
  30
0.0
  11
 105.340
  21
 106.508
  31
0.0
   0
LINE
   8
LEVEL001
   6
CONTINUOUS
  62
7
  10
 105.340
  20
 106.508
  30
0.0
  11
 101.333
  21
 106.416
  31
0.0
   0
LINE
   8
LEVEL001
   6
CONTINUOUS
  62
7
  10
 129.684
  20
 97.8934
  30
0.0
  11
 127.069
  21
 127.779
  31
0.0
   0
LINE
   8
LEVEL001
   6
CONTINUOUS
  62
7
  10
 127.069
  20
 127.779
  30
0.0
  11
 138.027
  21
 128.738
  31
0.0
   0
LINE
   8
LEVEL001
   6
CONTINUOUS
  62
7
  10
 138.027
  20
 128.738
  30
0.0
  11
 140.642
  21
 98.8521
  31
0.0
   0
LINE
   8
LEVEL001
   6
CONTINUOUS
  62
7
  10
 140.642
  20
 98.8521
  30
0.0
  11
 129.684
  21
 97.8934
  31
0.0
   0
LINE
   8
LEVEL001
   6
CONTINUOUS
  62
7
  10
 96.0000
  20
 92.0038
  30
0.0
  11
 95.0000
  21
 91.0038
  31
0.0
   0
LINE
   8
LEVEL001
   6
CONTINUOUS
  62
7
  10
 54.0000
  20
 92.0038
  30
0.0
  11
 55.0000
  21
 91.0038
  31
0.0
   0
LINE
   8
LEVEL001
   6
CONTINUOUS
  62
7
  10
 54.0000
  20
 157.205
  30
0.0
  11
 54.0000
  21
 92.0038
  31
0.0
   0
LINE
   8
LEVEL001
   6
CONTINUOUS
  62
7
  10
 95.0000
  20
 91.0038
  30
0.0
  11
 55.0000
  21
 91.0038
  31
0.0
   0
LINE
   8
LEVEL001
   6
CONTINUOUS
  62
7
  10
 56.2500
  20
 183.004
  30
0.0
  11
 55.2500
  21
 182.004
  31
0.0
   0
LINE
   8
LEVEL001
   6
CONTINUOUS
  62
7
  10
 55.2500
  20
 182.004
  30
0.0
  11
 55.2500
  21
 180.004
  31
0.0
   0
LINE
   8
LEVEL001
   6
CONTINUOUS
  62
7
  10
 54.7500
  20
 180.004
  30
0.0
  11
 54.0000
  21
 179.254
  31
0.0
   0
LINE
   8
LEVEL001
   6
CONTINUOUS
  62
7
  10
 54.0000
  20
 179.254
  30
0.0
  11
 54.0000
  21
 157.205
  31
0.0
   0
LINE
   8
LEVEL001
   6
CONTINUOUS
  62
3
  10
 54.7500
  20
 160.004
  30
0.0
  11
 54.0000
  21
 157.205
  31
0.0
   0
LINE
   8
LEVEL001
   6
CONTINUOUS
  62
7
  10
 63.5000
  20
 188.004
  30
0.0
  11
 62.5000
  21
 187.004
  31
0.0
   0
LINE
   8
LEVEL001
   6
CONTINUOUS
  62
7
  10
 62.5000
  20
 187.004
  30
0.0
  11
 62.5000
  21
 183.004
  31
0.0
   0
LINE
   8
LEVEL001
   6
CONTINUOUS
  62
7
  10
 63.5000
  20
 188.004
  30
0.0
  11
 86.5000
  21
 188.004
  31
0.0
   0
LINE
   8
LEVEL001
   6
DASHDOT
  62
1
  10
 51.0000
  20
 180.004
  30
0.0
  11
 51.0000
  21
 160.004
  31
0.0
   0
LINE
   8
LEVEL001
   6
DASHDOT
  62
1
  10
 51.0000
  20
 180.004
  30
0.0
  11
 54.7500
  21
 180.004
  31
0.0
   0
LINE
   8
LEVEL001
   6
DASHDOT
  62
1
  10
 51.0000
  20
 160.004
  30
0.0
  11
 54.0000
  21
 160.004
  31
0.0
   0
LINE
   8
LEVEL001
   6
CONTINUOUS
  62
7
  10
 93.7500
  20
 183.004
  30
0.0
  11
 94.7500
  21
 182.004
  31
0.0
   0
LINE
   8
LEVEL001
   6
CONTINUOUS
  62
7
  10
 94.7500
  20
 182.004
  30
0.0
  11
 94.7500
  21
 180.004
  31
0.0
   0
LINE
   8
LEVEL001
   6
CONTINUOUS
  62
7
  10
 95.2500
  20
 180.004
  30
0.0
  11
 96.0000
  21
 179.254
  31
0.0
   0
LINE
   8
LEVEL001
   6
CONTINUOUS
  62
7
  10
 96.0000
  20
 179.254
  30
0.0
  11
 96.0000
  21
 157.205
  31
0.0
   0
LINE
   8
LEVEL001
   6
CONTINUOUS
  62
3
  10
 95.2500
  20
 160.004
  30
0.0
  11
 96.0000
  21
 157.205
  31
0.0
   0
LINE
   8
LEVEL001
   6
CONTINUOUS
  62
7
  10
 86.5000
  20
 188.004
  30
0.0
  11
 87.5000
  21
 187.004
  31
0.0
   0
LINE
   8
LEVEL001
   6
CONTINUOUS
  62
7
  10
 87.5000
  20
 187.004
  30
0.0
  11
 87.5000
  21
 183.004
  31
0.0
   0
LINE
   8
LEVEL001
   6
DASHDOT
  62
1
  10
 99.0000
  20
 180.004
  30
0.0
  11
 99.0000
  21
 160.004
  31
0.0
   0
LINE
   8
LEVEL001
   6
DASHDOT
  62
1
  10
 99.0000
  20
 180.004
  30
0.0
  11
 95.2500
  21
 180.004
  31
0.0
   0
LINE
   8
LEVEL001
   6
DASHDOT
  62
1
  10
 99.0000
  20
 160.004
  30
0.0
  11
 96.0000
  21
 160.004
  31
0.0
   0
LINE
   8
LEVEL001
   6
DASHDOT
  62
1
  10
 75.0000
  20
 86.0038
  30
0.0
  11
 75.0000
  21
 191.004
  31
0.0
   0
LINE
   8
LEVEL001
   6
CONTINUOUS
  62
7
  10
 105.719
  20
 102.178
  30
0.0
  11
 96.0000
  21
 101.632
  31
0.0
   0
LINE
   8
LEVEL001
   6
CONTINUOUS
  62
7
  10
 104.212
  20
 119.399
  30
0.0
  11
 96.0000
  21
 118.421
  31
0.0
   0
LINE
   8
LEVEL001
   6
CONTINUOUS
  62
3
  10
 100.694
  20
 118.119
  30
0.0
  11
 96.1012
  21
 117.572
  31
0.0
   0
LINE
   8
LEVEL001
   6
CONTINUOUS
  62
3
  10
 102.032
  20
 102.828
  30
0.0
  11
 95.9521
  21
 102.487
  31
0.0
   0
LINE
   8
LEVEL001
   6
CONTINUOUS
  62
7
  10
 96.0000
  20
 157.205
  30
0.0
  11
 96.0000
  21
 92.0038
  31
0.0
   0
LINE
   8
LEVEL001
   6
DASHDOT
  62
1
  10
 164.737
  20
 116.018
  30
0.0
  11
 90.1324
  21
 109.490
  31
0.0
   0
LINE
   8
LEVEL001
   6
DOT
  62
3
  10
 66.0000
  20
 180.004
  30
0.0
  11
 66.2500
  21
 180.004
  31
0.0
   0
LINE
   8
LEVEL001
   6
DOT
  62
3
  10
 84.0000
  20
 180.004
  30
0.0
  11
 83.7500
  21
 180.004
  31
0.0
   0
LINE
   8
LEVEL001
   6
CONTINUOUS
  62
7
  10
 93.7500
  20
 183.004
  30
0.0
  11
 56.2500
  21
 183.004
  31
0.0
   0
LINE
   8
LEVEL001
   6
CONTINUOUS
  62
7
  10
 95.2500
  20
 180.004
  30
0.0
  11
 54.7500
  21
 180.004
  31
0.0
   0
LINE
   8
LEVEL001
   6
CONTINUOUS
  62
3
  10
 95.2500
  20
 180.004
  30
0.0
  11
 95.2500
  21
 160.004
  31
0.0
   0
LINE
   8
LEVEL001
   6
CONTINUOUS
  62
3
  10
 54.7500
  20
 180.004
  30
0.0
  11
 54.7500
  21
 160.004
  31
0.0
   0
LINE
   8
LEVEL001
   6
CONTINUOUS
  62
3
  10
 54.0000
  20
 160.004
  30
0.0
  11
 96.0000
  21
 160.004
  31
0.0
   0
LINE
   8
LEVEL001
   6
CONTINUOUS
  62
7
  10
 54.0000
  20
 157.205
  30
0.0
  11
 96.0000
  21
 157.205
  31
0.0
   0
LINE
   8
LEVEL001
   6
CONTINUOUS
  62
7
  10
 62.5000
  20
 187.004
  30
0.0
  11
 87.5000
  21
 187.004
  31
0.0
   0
LINE
   8
LEVEL001
   6
CONTINUOUS
  62
7
  10
 94.7500
  20
 182.004
  30
0.0
  11
 55.2500
  21
 182.004
  31
0.0
   0
LINE
   8
LEVEL001
   6
CONTINUOUS
  62
7
  10
 96.0000
  20
 179.254
  30
0.0
  11
 54.0000
  21
 179.254
  31
0.0
   0
LINE
   8
LEVEL001
   6
CONTINUOUS
  62
7
  10
 96.0000
  20
 92.0038
  30
0.0
  11
 54.0000
  21
 92.0038
  31
0.0
   0
ARC
   8
LEVEL004
   6
DOT
  62
3
  10
 84.0000
  20
 188.004
  30
0.0
  40
 1.00000
  50
 180.000
  51
0.0
   0
ARC
   8
LEVEL004
   6
DOT
  62
3
  10
 79.0000
  20
 188.004
  30
0.0
  40
 1.00000
  50
 180.000
  51
0.0
   0
ARC
   8
LEVEL004
   6
DOT
  62
3
  10
 66.0000
  20
 188.004
  30
0.0
  40
 1.00000
  50
 180.000
  51
0.0
   0
ARC
   8
LEVEL004
   6
DOT
  62
3
  10
 71.0000
  20
 188.004
  30
0.0
  40
 1.00000
  50
 180.000
  51
0.0
   0
LINE
   8
LEVEL004
   6
DOT
  62
3
  10
 65.0000
  20
 182.504
  30
0.0
  11
 64.5000
  21
 183.004
  31
0.0
   0
LINE
   8
LEVEL004
   6
DOT
  62
3
  10
 65.0000
  20
 182.504
  30
0.0
  11
 65.0000
  21
 180.994
  31
0.0
   0
ARC
   8
LEVEL004
   6
DOT
  62
3
  10
 64.7500
  20
 181.504
  30
0.0
  40
 1.50000
  50
0.0
  51
 90.0000
   0
LINE
   8
LEVEL004
   6
DOT
  62
3
  10
 65.0000
  20
 181.004
  30
0.0
  11
 65.0000
  21
 169.004
  31
0.0
   0
LINE
   8
LEVEL004
   6
DOT
  62
3
  10
 65.0000
  20
 169.004
  30
0.0
  11
 66.0000
  21
 169.004
  31
0.0
   0
LINE
   8
LEVEL004
   6
DOT
  62
3
  10
 65.0000
  20
 180.994
  30
0.0
  11
 66.2500
  21
 180.994
  31
0.0
   0
LINE
   8
LEVEL004
   6
DOT
  62
3
  10
 66.2500
  20
 176.968
  30
0.0
  11
 66.2500
  21
 181.504
  31
0.0
   0
LINE
   8
LEVEL004
   6
DOT
  62
3
  10
 65.0000
  20
 181.004
  30
0.0
  11
 66.0000
  21
 180.004
  31
0.0
   0
LINE
   8
LEVEL004
   6
DOT
  62
3
  10
 66.0000
  20
 180.004
  30
0.0
  11
 66.0000
  21
 165.272
  31
0.0
   0
LINE
   8
LEVEL004
   6
DASHDOT
  62
1
  10
 63.2500
  20
 176.004
  30
0.0
  11
 82.4047
  21
 176.004
  31
0.0
   0
LINE
   8
LEVEL004
   6
DOT
  62
3
  10
 66.2500
  20
 174.004
  30
0.0
  11
 78.2500
  21
 174.004
  31
0.0
   0
LINE
   8
LEVEL004
   6
DOT
  62
3
  10
 78.2500
  20
 174.004
  30
0.0
  11
 79.4047
  21
 176.004
  31
0.0
   0
LINE
   8
LEVEL004
   6
DOT
  62
3
  10
 79.4047
  20
 176.004
  30
0.0
  11
 78.2500
  21
 178.004
  31
0.0
   0
LINE
   8
LEVEL004
   6
DOT
  62
3
  10
 78.2500
  20
 178.004
  30
0.0
  11
 66.2500
  21
 178.004
  31
0.0
   0
CIRCLE
   8
LEVEL004
   6
DOT
  62
3
  10
 67.9844
  20
 176.004
  30
0.0
  40
 1.98438
   0
LINE
   8
LEVEL004
   6
DOT
  62
3
  10
 66.2500
  20
 171.004
  30
0.0
  11
 66.2500
  21
 175.040
  31
0.0
   0
LINE
   8
LEVEL004
   6
DASHDOT
  62
1
  10
 78.5387
  20
 174.504
  30
0.0
  11
 78.0760
  21
 177.504
  31
0.0
   0
LINE
   8
LEVEL004
   6
DASHDOT
  62
1
  10
 78.0760
  20
 177.504
  30
0.0
  11
 77.6132
  21
 174.504
  31
0.0
   0
LINE
   8
LEVEL004
   6
DASHDOT
  62
1
  10
 77.6132
  20
 174.504
  30
0.0
  11
 77.1504
  21
 177.504
  31
0.0
   0
LINE
   8
LEVEL004
   6
DASHDOT
  62
1
  10
 77.1504
  20
 177.504
  30
0.0
  11
 76.6877
  21
 174.504
  31
0.0
   0
LINE
   8
LEVEL004
   6
DASHDOT
  62
1
  10
 76.6877
  20
 174.504
  30
0.0
  11
 76.2249
  21
 177.504
  31
0.0
   0
LINE
   8
LEVEL004
   6
DASHDOT
  62
1
  10
 76.2249
  20
 177.504
  30
0.0
  11
 75.7622
  21
 174.504
  31
0.0
   0
LINE
   8
LEVEL004
   6
DASHDOT
  62
1
  10
 75.7622
  20
 174.504
  30
0.0
  11
 75.2994
  21
 177.504
  31
0.0
   0
LINE
   8
LEVEL004
   6
DASHDOT
  62
1
  10
 75.2994
  20
 177.504
  30
0.0
  11
 74.8366
  21
 174.504
  31
0.0
   0
LINE
   8
LEVEL004
   6
DASHDOT
  62
1
  10
 74.8366
  20
 174.504
  30
0.0
  11
 74.3739
  21
 177.504
  31
0.0
   0
LINE
   8
LEVEL004
   6
DASHDOT
  62
1
  10
 74.3739
  20
 177.504
  30
0.0
  11
 73.9111
  21
 174.504
  31
0.0
   0
LINE
   8
LEVEL004
   6
DASHDOT
  62
1
  10
 73.9111
  20
 174.504
  30
0.0
  11
 73.4484
  21
 177.504
  31
0.0
   0
LINE
   8
LEVEL004
   6
DASHDOT
  62
1
  10
 73.4484
  20
 177.504
  30
0.0
  11
 72.9856
  21
 174.504
  31
0.0
   0
LINE
   8
LEVEL004
   6
DASHDOT
  62
1
  10
 72.9856
  20
 174.504
  30
0.0
  11
 72.5229
  21
 177.504
  31
0.0
   0
LINE
   8
LEVEL004
   6
DASHDOT
  62
1
  10
 72.5229
  20
 177.504
  30
0.0
  11
 72.0601
  21
 174.504
  31
0.0
   0
LINE
   8
LEVEL004
   6
DASHDOT
  62
1
  10
 72.0601
  20
 174.504
  30
0.0
  11
 71.5973
  21
 177.504
  31
0.0
   0
LINE
   8
LEVEL004
   6
DASHDOT
  62
1
  10
 71.5973
  20
 177.504
  30
0.0
  11
 71.1346
  21
 174.504
  31
0.0
   0
LINE
   8
LEVEL004
   6
DASHDOT
  62
1
  10
 71.1346
  20
 174.504
  30
0.0
  11
 70.6718
  21
 177.504
  31
0.0
   0
LINE
   8
LEVEL004
   6
DASHDOT
  62
1
  10
 70.6718
  20
 177.504
  30
0.0
  11
 70.2091
  21
 174.504
  31
0.0
   0
LINE
   8
LEVEL004
   6
DASHDOT
  62
1
  10
 70.2091
  20
 174.504
  30
0.0
  11
 69.7463
  21
 177.504
  31
0.0
   0
LINE
   8
LEVEL004
   6
DOT
  62
3
  10
 78.2500
  20
 178.004
  30
0.0
  11
 78.2500
  21
 174.004
  31
0.0
   0
LINE
   8
LEVEL004
   6
DOT
  62
3
  10
 85.0000
  20
 182.504
  30
0.0
  11
 85.5000
  21
 183.004
  31
0.0
   0
LINE
   8
LEVEL004
   6
DOT
  62
3
  10
 85.0000
  20
 182.504
  30
0.0
  11
 85.0000
  21
 180.994
  31
0.0
   0
ARC
   8
LEVEL004
   6
DOT
  62
3
  10
 85.2500
  20
 181.504
  30
0.0
  40
 1.50000
  50
 90.0000
  51
 180.000
   0
LINE
   8
LEVEL004
   6
DOT
  62
3
  10
 85.0000
  20
 181.004
  30
0.0
  11
 85.0000
  21
 169.004
  31
0.0
   0
LINE
   8
LEVEL004
   6
DOT
  62
3
  10
 85.0000
  20
 169.004
  30
0.0
  11
 84.0000
  21
 169.004
  31
0.0
   0
LINE
   8
LEVEL004
   6
DOT
  62
3
  10
 85.0000
  20
 180.994
  30
0.0
  11
 83.7500
  21
 180.994
  31
0.0
   0
LINE
   8
LEVEL004
   6
DOT
  62
3
  10
 83.7500
  20
 171.004
  30
0.0
  11
 83.7500
  21
 181.504
  31
0.0
   0
LINE
   8
LEVEL004
   6
DOT
  62
3
  10
 85.0000
  20
 181.004
  30
0.0
  11
 84.0000
  21
 180.004
  31
0.0
   0
LINE
   8
LEVEL004
   6
DOT
  62
3
  10
 84.0000
  20
 180.004
  30
0.0
  11
 84.0000
  21
 165.272
  31
0.0
   0
LINE
   8
LEVEL004
   6
DOT
  62
3
  10
 70.0000
  20
 169.504
  30
0.0
  11
 80.0000
  21
 169.504
  31
0.0
   0
LINE
   8
LEVEL004
   6
DOT
  62
3
  10
 67.2500
  20
 170.004
  30
0.0
  11
 82.7500
  21
 170.004
  31
0.0
   0
LINE
   8
LEVEL004
   6
DOT
  62
3
  10
 83.7500
  20
 171.004
  30
0.0
  11
 82.7500
  21
 170.004
  31
0.0
   0
LINE
   8
LEVEL004
   6
DOT
  62
3
  10
 84.0000
  20
 169.004
  30
0.0
  11
 80.7735
  21
 169.004
  31
0.0
   0
LINE
   8
LEVEL004
   6
DOT
  62
3
  10
 80.0000
  20
 169.504
  30
0.0
  11
 80.7735
  21
 169.057
  31
0.0
   0
LINE
   8
LEVEL004
   6
DOT
  62
3
  10
 80.7735
  20
 169.057
  30
0.0
  11
 80.7735
  21
 156.951
  31
0.0
   0
LINE
   8
LEVEL004
   6
DOT
  62
3
  10
 85.0000
  20
 169.004
  30
0.0
  11
 84.0000
  21
 165.272
  31
0.0
   0
LINE
   8
LEVEL004
   6
DOT
  62
3
  10
 84.0000
  20
 165.272
  30
0.0
  11
 80.7735
  21
 165.272
  31
0.0
   0
LINE
   8
LEVEL004
   6
DOT
  62
3
  10
 84.0000
  20
 165.272
  30
0.0
  11
 84.0000
  21
 157.004
  31
0.0
   0
LINE
   8
LEVEL004
   6
DOT
  62
3
  10
 66.2500
  20
 171.004
  30
0.0
  11
 67.2500
  21
 170.004
  31
0.0
   0
LINE
   8
LEVEL004
   6
DOT
  62
3
  10
 69.2265
  20
 169.004
  30
0.0
  11
 66.0000
  21
 169.004
  31
0.0
   0
LINE
   8
LEVEL004
   6
DOT
  62
3
  10
 70.0000
  20
 169.504
  30
0.0
  11
 69.2265
  21
 169.057
  31
0.0
   0
LINE
   8
LEVEL004
   6
DOT
  62
3
  10
 65.0000
  20
 169.004
  30
0.0
  11
 66.0000
  21
 165.272
  31
0.0
   0
LINE
   8
LEVEL004
   6
DOT
  62
3
  10
 69.2265
  20
 169.057
  30
0.0
  11
 69.2265
  21
 156.951
  31
0.0
   0
LINE
   8
LEVEL004
   6
DOT
  62
3
  10
 69.2265
  20
 165.272
  30
0.0
  11
 66.0000
  21
 165.272
  31
0.0
   0
LINE
   8
LEVEL004
   6
DOT
  62
3
  10
 66.0000
  20
 165.272
  30
0.0
  11
 66.0000
  21
 157.004
  31
0.0
   0
LINE
   8
LEVEL004
   6
DASHDOT
  62
1
  10
 61.0000
  20
 88.0038
  30
0.0
  11
 61.0000
  21
 106.004
  31
0.0
   0
LINE
   8
LEVEL004
   6
DOT
  62
3
  10
 64.0000
  20
 91.0038
  30
0.0
  11
 63.5000
  21
 91.5038
  31
0.0
   0
LINE
   8
LEVEL004
   6
DOT
  62
3
  10
 63.5000
  20
 91.5038
  30
0.0
  11
 63.5000
  21
 102.870
  31
0.0
   0
LINE
   8
LEVEL004
   6
DOT
  62
3
  10
 63.5000
  20
 102.870
  30
0.0
  11
 61.0000
  21
 104.313
  31
0.0
   0
LINE
   8
LEVEL004
   6
DOT
  62
3
  10
 61.0000
  20
 104.313
  30
0.0
  11
 58.5000
  21
 102.870
  31
0.0
   0
LINE
   8
LEVEL004
   6
DOT
  62
3
  10
 58.5000
  20
 102.870
  30
0.0
  11
 58.5000
  21
 91.5038
  31
0.0
   0
LINE
   8
LEVEL004
   6
DOT
  62
3
  10
 58.5000
  20
 91.5038
  30
0.0
  11
 58.0000
  21
 91.0038
  31
0.0
   0
LINE
   8
LEVEL004
   6
DOT
  62
3
  10
 64.0000
  20
 91.0038
  30
0.0
  11
 64.0000
  21
 101.004
  31
0.0
   0
LINE
   8
LEVEL004
   6
DOT
  62
3
  10
 64.0000
  20
 101.004
  30
0.0
  11
 63.5000
  21
 102.870
  31
0.0
   0
LINE
   8
LEVEL004
   6
DOT
  62
3
  10
 58.5000
  20
 102.870
  30
0.0
  11
 58.0000
  21
 101.004
  31
0.0
   0
LINE
   8
LEVEL004
   6
DOT
  62
3
  10
 58.0000
  20
 101.004
  30
0.0
  11
 58.0000
  21
 91.0038
  31
0.0
   0
LINE
   8
LEVEL004
   6
DOT
  62
3
  10
 63.5000
  20
 102.870
  30
0.0
  11
 58.5000
  21
 102.870
  31
0.0
   0
LINE
   8
LEVEL004
   6
DOT
  62
3
  10
 64.0000
  20
 101.004
  30
0.0
  11
 58.0000
  21
 101.004
  31
0.0
   0
LINE
   8
LEVEL004
   6
DOT
  62
3
  10
 63.5000
  20
 91.5038
  30
0.0
  11
 58.5000
  21
 91.5038
  31
0.0
   0
LINE
   8
LEVEL004
   6
DASHDOT
  62
1
  10
 89.0000
  20
 88.0038
  30
0.0
  11
 89.0000
  21
 101.004
  31
0.0
   0
LINE
   8
LEVEL003
   6
CONTINUOUS
  62
3
  10
 61.0000
  20
 91.0038
  30
0.0
  11
 55.0000
  21
 81.0038
  31
0.0
   0
LINE
   8
LEVEL003
   6
CONTINUOUS
  62
3
  10
 61.0000
  20
 91.0038
  30
0.0
  11
 59.0029
  21
 88.7035
  31
0.0
   0
TEXT
   8
LEVEL003
  62
3
  10
 16.0000
  20
 81.0038
  30
0.0
  40
 4.00000
   1
２－Ｍ６×１０Ｌ
   7
STANDARD
   0
LINE
   8
LEVEL003
   6
CONTINUOUS
  62
3
  10
 55.0000
  20
 81.0038
  30
0.0
  11
 15.3517
  21
 81.0038
  31
0.0
   0
LINE
   8
LEVEL003
   6
CONTINUOUS
  62
3
  10
 61.0000
  20
 91.0038
  30
0.0
  11
 59.9101
  21
 88.1591
  31
0.0
   0
TEXT
   8
LEVEL003
  62
3
  10
 115.000
  20
 196.004
  30
0.0
  40
 4.00000
   1
Ｍ２０×２
   7
STANDARD
   0
LINE
   8
LEVEL003
   6
CONTINUOUS
  62
3
  10
 85.0000
  20
 176.004
  30
0.0
  11
 115.000
  21
 196.004
  31
0.0
   0
LINE
   8
LEVEL003
   6
CONTINUOUS
  62
3
  10
 115.000
  20
 196.004
  30
0.0
  11
 135.000
  21
 196.004
  31
0.0
   0
LINE
   8
LEVEL003
   6
CONTINUOUS
  62
3
  10
 85.0000
  20
 176.004
  30
0.0
  11
 87.7896
  21
 177.228
  31
0.0
   0
LINE
   8
LEVEL003
   6
CONTINUOUS
  62
3
  10
 85.0000
  20
 176.004
  30
0.0
  11
 87.2027
  21
 178.108
  31
0.0
   0
LINE
   8
LEVEL003
   6
CONTINUOUS
  62
3
  10
 96.0000
  20
 166.004
  30
0.0
  11
 115.000
  21
 152.254
  31
0.0
   0
LINE
   8
LEVEL003
   6
CONTINUOUS
  62
3
  10
 115.000
  20
 152.254
  30
0.0
  11
 145.000
  21
 152.254
  31
0.0
   0
LINE
   8
LEVEL003
   6
CONTINUOUS
  62
3
  10
 96.0000
  20
 166.004
  30
0.0
  11
 98.1202
  21
 163.816
  31
0.0
   0
LINE
   8
LEVEL003
   6
CONTINUOUS
  62
3
  10
 96.0000
  20
 166.004
  30
0.0
  11
 98.7405
  21
 164.674
  31
0.0
   0
TEXT
   8
LEVEL003
  62
3
  10
 115.000
  20
 152.254
  30
0.0
  40
 4.00000
   1
Ｍ４２×１．５
   7
STANDARD
   0
LINE
   8
LEVEL003
   6
CONTINUOUS
  62
3
  10
 62.5000
  20
 188.004
  30
0.0
  11
 62.5000
  21
 198.004
  31
0.0
   0
LINE
   8
LEVEL003
   6
CONTINUOUS
  62
3
  10
 87.5000
  20
 188.004
  30
0.0
  11
 87.5000
  21
 198.004
  31
0.0
   0
LINE
   8
LEVEL003
   6
CONTINUOUS
  62
3
  10
 62.5000
  20
 196.004
  30
0.0
  11
 87.5000
  21
 196.004
  31
0.0
   0
LINE
   8
LEVEL003
   6
CONTINUOUS
  62
3
  10
 62.5000
  20
 196.004
  30
0.0
  11
 65.5000
  21
 195.475
  31
0.0
   0
LINE
   8
LEVEL003
   6
CONTINUOUS
  62
3
  10
 62.5000
  20
 196.004
  30
0.0
  11
 65.5000
  21
 196.533
  31
0.0
   0
LINE
   8
LEVEL003
   6
CONTINUOUS
  62
3
  10
 87.5000
  20
 196.004
  30
0.0
  11
 84.5000
  21
 196.533
  31
0.0
   0
LINE
   8
LEVEL003
   6
CONTINUOUS
  62
3
  10
 87.5000
  20
 196.004
  30
0.0
  11
 84.5000
  21
 195.475
  31
0.0
   0
TEXT
   8
LEVEL003
  62
3
  10
 71.0000
  20
 196.804
  30
0.0
  40
 4.00000
   1
%%c25
   7
STANDARD
  72
1
  11
 75.0000
  21
 196.804
  31
0.0
   0
LINE
   8
LEVEL003
   6
CONTINUOUS
  62
3
  10
 62.0000
  20
 182.004
  30
0.0
  11
 62.0000
  21
 208.004
  31
0.0
   0
LINE
   8
LEVEL003
   6
CONTINUOUS
  62
3
  10
 88.0000
  20
 182.004
  30
0.0
  11
 88.0000
  21
 208.004
  31
0.0
   0
LINE
   8
LEVEL003
   6
CONTINUOUS
  62
3
  10
 62.0000
  20
 206.004
  30
0.0
  11
 88.0000
  21
 206.004
  31
0.0
   0
LINE
   8
LEVEL003
   6
CONTINUOUS
  62
3
  10
 62.0000
  20
 206.004
  30
0.0
  11
 65.0000
  21
 205.475
  31
0.0
   0
LINE
   8
LEVEL003
   6
CONTINUOUS
  62
3
  10
 62.0000
  20
 206.004
  30
0.0
  11
 65.0000
  21
 206.533
  31
0.0
   0
LINE
   8
LEVEL003
   6
CONTINUOUS
  62
3
  10
 88.0000
  20
 206.004
  30
0.0
  11
 85.0000
  21
 206.533
  31
0.0
   0
LINE
   8
LEVEL003
   6
CONTINUOUS
  62
3
  10
 88.0000
  20
 206.004
  30
0.0
  11
 85.0000
  21
 205.475
  31
0.0
   0
TEXT
   8
LEVEL003
  62
3
  10
 71.0000
  20
 206.804
  30
0.0
  40
 4.00000
   1
%%c26
   7
STANDARD
  72
1
  11
 75.0000
  21
 206.804
  31
0.0
   0
LINE
   8
LEVEL003
   6
CONTINUOUS
  62
3
  10
 87.5000
  20
 188.004
  30
0.0
  11
 197.000
  21
 188.004
  31
0.0
   0
LINE
   8
LEVEL003
   6
CONTINUOUS
  62
3
  10
 96.0000
  20
 91.0038
  30
0.0
  11
 197.000
  21
 91.0038
  31
0.0
   0
LINE
   8
LEVEL003
   6
CONTINUOUS
  62
3
  10
 195.000
  20
 188.004
  30
0.0
  11
 195.000
  21
 91.0038
  31
0.0
   0
LINE
   8
LEVEL003
   6
CONTINUOUS
  62
3
  10
 195.000
  20
 188.004
  30
0.0
  11
 194.471
  21
 185.004
  31
0.0
   0
LINE
   8
LEVEL003
   6
CONTINUOUS
  62
3
  10
 195.000
  20
 188.004
  30
0.0
  11
 195.529
  21
 185.004
  31
0.0
   0
LINE
   8
LEVEL003
   6
CONTINUOUS
  62
3
  10
 195.000
  20
 91.0038
  30
0.0
  11
 195.529
  21
 94.0038
  31
0.0
   0
LINE
   8
LEVEL003
   6
CONTINUOUS
  62
3
  10
 195.000
  20
 91.0038
  30
0.0
  11
 194.471
  21
 94.0038
  31
0.0
   0
TEXT
   8
LEVEL003
  62
3
  10
 194.200
  20
 137.504
  30
0.0
  40
 4.00000
   1
97
  50
 90.0000
  41
 0.500000
   7
STANDARD
  72
1
  11
 194.200
  21
 139.504
  31
0.0
   0
LINE
   8
LEVEL003
   6
CONTINUOUS
  62
3
  10
 61.0000
  20
 87.0038
  30
0.0
  11
 61.0000
  21
 74.0038
  31
0.0
   0
LINE
   8
LEVEL003
   6
CONTINUOUS
  62
3
  10
 89.0000
  20
 87.0038
  30
0.0
  11
 89.0000
  21
 74.0038
  31
0.0
   0
LINE
   8
LEVEL003
   6
CONTINUOUS
  62
3
  10
 61.0000
  20
 76.0038
  30
0.0
  11
 89.0000
  21
 76.0038
  31
0.0
   0
LINE
   8
LEVEL003
   6
CONTINUOUS
  62
3
  10
 61.0000
  20
 76.0038
  30
0.0
  11
 64.0000
  21
 75.4748
  31
0.0
   0
LINE
   8
LEVEL003
   6
CONTINUOUS
  62
3
  10
 61.0000
  20
 76.0038
  30
0.0
  11
 64.0000
  21
 76.5328
  31
0.0
   0
LINE
   8
LEVEL003
   6
CONTINUOUS
  62
3
  10
 89.0000
  20
 76.0038
  30
0.0
  11
 86.0000
  21
 76.5328
  31
0.0
   0
LINE
   8
LEVEL003
   6
CONTINUOUS
  62
3
  10
 89.0000
  20
 76.0038
  30
0.0
  11
 86.0000
  21
 75.4748
  31
0.0
   0
TEXT
   8
LEVEL003
  62
3
  10
 71.0000
  20
 76.8038
  30
0.0
  40
 4.00000
   1
%%c28
   7
STANDARD
  72
1
  11
 75.0000
  21
 76.8038
  31
0.0
   0
LINE
   8
LEVEL003
   6
CONTINUOUS
  62
3
  10
 54.0000
  20
 91.0038
  30
0.0
  11
 54.0000
  21
 64.0038
  31
0.0
   0
LINE
   8
LEVEL003
   6
CONTINUOUS
  62
3
  10
 96.0000
  20
 91.0038
  30
0.0
  11
 96.0000
  21
 64.0038
  31
0.0
   0
LINE
   8
LEVEL003
   6
CONTINUOUS
  62
3
  10
 54.0000
  20
 66.0038
  30
0.0
  11
 96.0000
  21
 66.0038
  31
0.0
   0
LINE
   8
LEVEL003
   6
CONTINUOUS
  62
3
  10
 54.0000
  20
 66.0038
  30
0.0
  11
 57.0000
  21
 65.4748
  31
0.0
   0
LINE
   8
LEVEL003
   6
CONTINUOUS
  62
3
  10
 54.0000
  20
 66.0038
  30
0.0
  11
 57.0000
  21
 66.5328
  31
0.0
   0
LINE
   8
LEVEL003
   6
CONTINUOUS
  62
3
  10
 96.0000
  20
 66.0038
  30
0.0
  11
 93.0000
  21
 66.5328
  31
0.0
   0
LINE
   8
LEVEL003
   6
CONTINUOUS
  62
3
  10
 96.0000
  20
 66.0038
  30
0.0
  11
 93.0000
  21
 65.4748
  31
0.0
   0
TEXT
   8
LEVEL003
  62
3
  10
 71.0000
  20
 66.8038
  30
0.0
  40
 4.00000
   1
%%c42
   7
STANDARD
  72
1
  11
 75.0000
  21
 66.8038
  31
0.0
   0
LINE
   8
LEVEL003
   6
CONTINUOUS
  62
3
  10
 60.0000
  20
 151.004
  30
0.0
  11
 90.0000
  21
 151.004
  31
0.0
   0
LINE
   8
LEVEL003
   6
CONTINUOUS
  62
3
  10
 60.0000
  20
 151.004
  30
0.0
  11
 63.0000
  21
 150.475
  31
0.0
   0
LINE
   8
LEVEL003
   6
CONTINUOUS
  62
3
  10
 60.0000
  20
 151.004
  30
0.0
  11
 63.0000
  21
 151.533
  31
0.0
   0
LINE
   8
LEVEL003
   6
CONTINUOUS
  62
3
  10
 90.0000
  20
 151.004
  30
0.0
  11
 87.0000
  21
 151.533
  31
0.0
   0
LINE
   8
LEVEL003
   6
CONTINUOUS
  62
3
  10
 90.0000
  20
 151.004
  30
0.0
  11
 87.0000
  21
 150.475
  31
0.0
   0
TEXT
   8
LEVEL003
  62
3
  10
 71.0000
  20
 151.804
  30
0.0
  40
 4.00000
   1
%%c30
   7
STANDARD
  72
1
  11
 75.0000
  21
 151.804
  31
0.0
   0
TEXT
   8
LEVEL003
  62
3
  10
 107.000
  20
 81.0038
  30
0.0
  40
 4.00000
   1
ＮＰＴ３／８
   7
STANDARD
   0
LINE
   8
LEVEL003
   6
CONTINUOUS
  62
3
  10
 99.1749
  20
 101.811
  30
0.0
  11
 107.000
  21
 81.0038
  31
0.0
   0
LINE
   8
LEVEL003
   6
CONTINUOUS
  62
3
  10
 107.000
  20
 81.0038
  30
0.0
  11
 132.000
  21
 81.0038
  31
0.0
   0
LINE
   8
LEVEL003
   6
CONTINUOUS
  62
3
  10
 99.1749
  20
 101.811
  30
0.0
  11
 99.7358
  21
 98.8164
  31
0.0
   0
LINE
   8
LEVEL003
   6
CONTINUOUS
  62
3
  10
 99.1749
  20
 101.811
  30
0.0
  11
 100.726
  21
 99.1888
  31
0.0
   0
LINE
   8
LEVEL004
   6
DOT
  62
3
  10
 88.0000
  20
 141.004
  30
0.0
  11
 88.0000
  21
 181.004
  31
0.0
   0
LINE
   8
LEVEL004
   6
DOT
  62
3
  10
 90.0000
  20
 159.004
  30
0.0
  11
 90.0000
  21
 122.604
  31
0.0
   0
LINE
   8
LEVEL004
   6
DOT
  62
3
  10
 62.0000
  20
 141.004
  30
0.0
  11
 62.0000
  21
 181.004
  31
0.0
   0
LINE
   8
LEVEL004
   6
DOT
  62
3
  10
 60.0000
  20
 159.004
  30
0.0
  11
 60.0000
  21
 122.604
  31
0.0
   0
LINE
   8
LEVEL003
   6
CONTINUOUS
  62
3
  10
 94.7500
  20
 183.004
  30
0.0
  11
 127.000
  21
 183.004
  31
0.0
   0
LINE
   8
LEVEL003
   6
CONTINUOUS
  62
3
  10
 97.0000
  20
 160.004
  30
0.0
  11
 127.000
  21
 160.004
  31
0.0
   0
LINE
   8
LEVEL003
   6
CONTINUOUS
  62
3
  10
 125.000
  20
 183.004
  30
0.0
  11
 125.000
  21
 160.004
  31
0.0
   0
LINE
   8
LEVEL003
   6
CONTINUOUS
  62
3
  10
 125.000
  20
 183.004
  30
0.0
  11
 124.471
  21
 180.004
  31
0.0
   0
LINE
   8
LEVEL003
   6
CONTINUOUS
  62
3
  10
 125.000
  20
 183.004
  30
0.0
  11
 125.529
  21
 180.004
  31
0.0
   0
LINE
   8
LEVEL003
   6
CONTINUOUS
  62
3
  10
 125.000
  20
 160.004
  30
0.0
  11
 125.529
  21
 163.004
  31
0.0
   0
LINE
   8
LEVEL003
   6
CONTINUOUS
  62
3
  10
 125.000
  20
 160.004
  30
0.0
  11
 124.471
  21
 163.004
  31
0.0
   0
TEXT
   8
LEVEL003
  62
3
  10
 124.200
  20
 167.504
  30
0.0
  40
 4.00000
   1
23
  50
 90.0000
   7
STANDARD
  72
1
  11
 124.200
  21
 171.504
  31
0.0
   0
LINE
   8
LEVEL003
   6
CONTINUOUS
  62
3
  10
 87.5000
  20
 188.004
  30
0.0
  11
 127.000
  21
 188.004
  31
0.0
   0
LINE
   8
LEVEL003
   6
CONTINUOUS
  62
3
  10
 94.7500
  20
 183.004
  30
0.0
  11
 127.000
  21
 183.004
  31
0.0
   0
LINE
   8
LEVEL003
   6
CONTINUOUS
  62
3
  10
 125.000
  20
 188.004
  30
0.0
  11
 125.000
  21
 183.004
  31
0.0
   0
LINE
   8
LEVEL003
   6
CONTINUOUS
  62
3
  10
 125.000
  20
 188.004
  30
0.0
  11
 125.529
  21
 191.004
  31
0.0
   0
LINE
   8
LEVEL003
   6
CONTINUOUS
  62
3
  10
 125.000
  20
 188.004
  30
0.0
  11
 124.471
  21
 191.004
  31
0.0
   0
LINE
   8
LEVEL003
   6
CONTINUOUS
  62
3
  10
 125.000
  20
 183.004
  30
0.0
  11
 124.471
  21
 180.004
  31
0.0
   0
LINE
   8
LEVEL003
   6
CONTINUOUS
  62
3
  10
 125.000
  20
 183.004
  30
0.0
  11
 125.529
  21
 180.004
  31
0.0
   0
LINE
   8
LEVEL003
   6
CONTINUOUS
  62
3
  10
 125.000
  20
 188.004
  30
0.0
  11
 125.000
  21
 191.754
  31
0.0
   0
LINE
   8
LEVEL003
   6
CONTINUOUS
  62
3
  10
 125.000
  20
 183.004
  30
0.0
  11
 125.000
  21
 179.254
  31
0.0
   0
TEXT
   8
LEVEL003
  62
3
  10
 124.200
  20
 183.504
  30
0.0
  40
 4.00000
   1
5
  50
 90.0000
   7
STANDARD
  72
1
  11
 124.200
  21
 185.504
  31
0.0
   0
LINE
   8
LEVEL003
   6
CONTINUOUS
  62
3
  10
 94.7500
  20
 183.004
  30
0.0
  11
 117.000
  21
 183.004
  31
0.0
   0
LINE
   8
LEVEL003
   6
CONTINUOUS
  62
3
  10
 96.2500
  20
 180.004
  30
0.0
  11
 117.000
  21
 180.004
  31
0.0
   0
LINE
   8
LEVEL003
   6
CONTINUOUS
  62
3
  10
 115.000
  20
 183.004
  30
0.0
  11
 115.000
  21
 180.004
  31
0.0
   0
LINE
   8
LEVEL003
   6
CONTINUOUS
  62
3
  10
 115.000
  20
 180.004
  30
0.0
  11
 115.000
  21
 176.004
  31
0.0
   0
LINE
   8
LEVEL003
   6
CONTINUOUS
  62
3
  10
 115.000
  20
 183.004
  30
0.0
  11
 115.529
  21
 186.004
  31
0.0
   0
LINE
   8
LEVEL003
   6
CONTINUOUS
  62
3
  10
 115.000
  20
 183.004
  30
0.0
  11
 114.471
  21
 186.004
  31
0.0
   0
LINE
   8
LEVEL003
   6
CONTINUOUS
  62
3
  10
 115.000
  20
 180.004
  30
0.0
  11
 114.471
  21
 177.004
  31
0.0
   0
LINE
   8
LEVEL003
   6
CONTINUOUS
  62
3
  10
 115.000
  20
 180.004
  30
0.0
  11
 115.529
  21
 177.004
  31
0.0
   0
LINE
   8
LEVEL003
   6
CONTINUOUS
  62
3
  10
 115.000
  20
 183.004
  30
0.0
  11
 115.000
  21
 186.754
  31
0.0
   0
LINE
   8
LEVEL003
   6
CONTINUOUS
  62
3
  10
 115.000
  20
 180.004
  30
0.0
  11
 115.000
  21
 176.004
  31
0.0
   0
TEXT
   8
LEVEL003
  62
3
  10
 114.200
  20
 176.004
  30
0.0
  40
 4.00000
   1
3
  50
 90.0000
   7
STANDARD
  72
1
  11
 114.200
  21
 178.004
  31
0.0
   0
LINE
   8
LEVEL003
   6
CONTINUOUS
  62
3
  10
 94.7500
  20
 183.004
  30
0.0
  11
 107.000
  21
 183.004
  31
0.0
   0
LINE
   8
LEVEL003
   6
CONTINUOUS
  62
3
  10
 81.0000
  20
 169.504
  30
0.0
  11
 107.000
  21
 169.504
  31
0.0
   0
LINE
   8
LEVEL003
   6
CONTINUOUS
  62
3
  10
 105.000
  20
 183.004
  30
0.0
  11
 105.000
  21
 169.504
  31
0.0
   0
LINE
   8
LEVEL003
   6
CONTINUOUS
  62
3
  10
 105.000
  20
 183.004
  30
0.0
  11
 104.471
  21
 180.004
  31
0.0
   0
LINE
   8
LEVEL003
   6
CONTINUOUS
  62
3
  10
 105.000
  20
 183.004
  30
0.0
  11
 105.529
  21
 180.004
  31
0.0
   0
LINE
   8
LEVEL003
   6
CONTINUOUS
  62
3
  10
 105.000
  20
 169.504
  30
0.0
  11
 105.529
  21
 172.504
  31
0.0
   0
LINE
   8
LEVEL003
   6
CONTINUOUS
  62
3
  10
 105.000
  20
 169.504
  30
0.0
  11
 104.471
  21
 172.504
  31
0.0
   0
TEXT
   8
LEVEL003
  62
3
  10
 104.200
  20
 172.254
  30
0.0
  40
 4.00000
   1
13
  50
 90.0000
   7
STANDARD
  72
1
  11
 104.200
  21
 176.254
  31
0.0
   0
ENDSEC
   0
EOF
