   0
SECTION
   2
HEADER
   9
$LIMMIN
  10
0.0
  20
0.0
   9
$LIMMAX
  10
 420.000
  20
 297.000
   9
$EXTMIN
  10
0.0
  20
0.0
   9
$EXTMAX
  10
 420.000
  20
 297.000
   9
$LTSCALE
  40
 8.40000
   0
ENDSEC
   0
SECTION
   2
TABLES
  0
TABLE
  2
LTYPE
 70
    25
  0
LTYPE
  2
CONTINUOUS
 70
    64
  3
Solid line
 72
    65
 73
     0
 40
0.0
  0
LTYPE
  2
BORDER
 70
    64
  3
__ __ . __ __ . __ __ . __ __ . __ __ . __ __ .
 72
    65
 73
     6
 40
1.75
 49
0.5
 49
-0.25
 49
0.5
 49
-0.25
 49
0.0
 49
-0.25
  0
LTYPE
  2
BORDER2
 70
    64
  3
__.__.__.__.__.__.__.__.__.__.__.__.__.__.__.__
 72
    65
 73
     6
 40
0.875
 49
0.25
 49
-0.125
 49
0.25
 49
-0.125
 49
0.0
 49
-0.125
  0
LTYPE
  2
BORDERX2
 70
    64
  3
____  ____  .  ____  ____  .  ____  ____  .  __
 72
    65
 73
     6
 40
3.5
 49
1.0
 49
-0.5
 49
1.0
 49
-0.5
 49
0.0
 49
-0.5
  0
LTYPE
  2
CENTER
 70
    64
  3
____ _ ____ _ ____ _ ____ _ ____ _ ____ _ ____ 
 72
    65
 73
     4
 40
2.0
 49
1.25
 49
-0.25
 49
0.25
 49
-0.25
  0
LTYPE
  2
CENTER2
 70
    64
  3
___ _ ___ _ ___ _ ___ _ ___ _ ___ _ ___ _ ___ _
 72
    65
 73
     4
 40
1.125
 49
0.75
 49
-0.125
 49
0.125
 49
-0.125
  0
LTYPE
  2
CENTERX2
 70
    64
  3
________  __  ________  __  ________  __  _____
 72
    65
 73
     4
 40
4.0
 49
2.5
 49
-0.5
 49
0.5
 49
-0.5
  0
LTYPE
  2
DASHDOT
 70
    64
  3
__ . __ . __ . __ . __ . __ . __ . __ . __ . __
 72
    65
 73
     4
 40
1.0
 49
0.5
 49
-0.25
 49
0.0
 49
-0.25
  0
LTYPE
  2
DASHDOT2
 70
    64
  3
_._._._._._._._._._._._._._._._._._._._._._._._
 72
    65
 73
     4
 40
0.5
 49
0.25
 49
-0.125
 49
0.0
 49
-0.125
  0
LTYPE
  2
DASHDOTX2
 70
    64
  3
____  .  ____  .  ____  .  ____  .  ____  .  __
 72
    65
 73
     4
 40
2.0
 49
1.0
 49
-0.5
 49
0.0
 49
-0.5
  0
LTYPE
  2
DASHED
 70
    64
  3
__ __ __ __ __ __ __ __ __ __ __ __ __ __ __ __
 72
    65
 73
     2
 40
0.75
 49
0.5
 49
-0.25
  0
LTYPE
  2
DASHED2
 70
    64
  3
_ _ _ _ _ _ _ _ _ _ _ _ _ _ _ _ _ _ _ _ _ _ _ _
 72
    65
 73
     2
 40
0.375
 49
0.25
 49
-0.125
  0
LTYPE
  2
DASHEDX2
 70
    64
  3
____  ____  ____  ____  ____  ____  ____  ____ 
 72
    65
 73
     2
 40
1.5
 49
1.0
 49
-0.5
  0
LTYPE
  2
DIVIDE
 70
    64
  3
____ . . ____ . . ____ . . ____ . . ____ . . __
 72
    65
 73
     6
 40
1.25
 49
0.5
 49
-0.25
 49
0.0
 49
-0.25
 49
0.0
 49
-0.25
  0
LTYPE
  2
DIVIDE2
 70
    64
  3
__..__..__..__..__..__..__..__..__..__..__..__.
 72
    65
 73
     6
 40
0.625
 49
0.25
 49
-0.125
 49
0.0
 49
-0.125
 49
0.0
 49
-0.125
  0
LTYPE
  2
DIVIDEX2
 70
    64
  3
________  .  .  ________  .  .  ________  .  . 
 72
    65
 73
     6
 40
2.5
 49
1.0
 49
-0.5
 49
0.0
 49
-0.5
 49
0.0
 49
-0.5
  0
LTYPE
  2
DOT
 70
    64
  3
. . . . . . . . . . . . . . . . . . . . . . . .
 72
    65
 73
     2
 40
0.25
 49
0.0
 49
-0.25
  0
LTYPE
  2
DOT2
 70
    64
  3
...............................................
 72
    65
 73
     2
 40
0.125
 49
0.0
 49
-0.125
  0
LTYPE
  2
DOTX2
 70
    64
  3
.  .  .  .  .  .  .  .  .  .  .  .  .  .  .  . 
 72
    65
 73
     2
 40
0.5
 49
0.0
 49
-0.5
  0
LTYPE
  2
HIDDEN
 70
    64
  3
__ __ __ __ __ __ __ __ __ __ __ __ __ __ __ __
 72
    65
 73
     2
 40
0.375
 49
0.25
 49
-0.125
  0
LTYPE
  2
HIDDEN2
 70
    64
  3
_ _ _ _ _ _ _ _ _ _ _ _ _ _ _ _ _ _ _ _ _ _ _ _
 72
    65
 73
     2
 40
0.1875
 49
0.125
 49
-0.0625
  0
LTYPE
  2
HIDDENX2
 70
    64
  3
____ ____ ____ ____ ____ ____ ____ ____ ____ __
 72
    65
 73
     2
 40
0.75
 49
0.5
 49
-0.25
  0
LTYPE
  2
PHANTOM
 70
    64
  3
______  __  __  ______  __  __  ______  __  __ 
 72
    65
 73
     6
 40
2.5
 49
1.25
 49
-0.25
 49
0.25
 49
-0.25
 49
0.25
 49
-0.25
  0
LTYPE
  2
PHANTOM2
 70
    64
  3
___ _ _ ___ _ _ ___ _ _ ___ _ _ ___ _ _ ___ _ _
 72
    65
 73
     6
 40
1.25
 49
0.625
 49
-0.125
 49
0.125
 49
-0.125
 49
0.125
 49
-0.125
  0
LTYPE
  2
PHANTOMX2
 70
    64
  3
____________    ____    ____    ____________   
 72
    65
 73
     6
 40
5.0
 49
2.5
 49
-0.5
 49
0.5
 49
-0.5
 49
0.5
 49
-0.5
  0
ENDTAB
  0
TABLE
  2
STYLE
 70
     2
  0
STYLE
  2
STANDARD
 70
0
 40
0.0
 41
1.0
 50
0.0
 71
0
 42
0.2
  3
TXT
  4
BIGFONT
  0
STYLE
  2
STANDARD1
 70
     4
 40
0.0
 41
1.0
 50
0.0
 71
     0
 42
0.2
  3
TXT
  4
BIGFONT
  0
ENDTAB
   0
TABLE
   2
LAYER
  70
4
   0
LAYER
   2
0
  70
0
  62
7
   6
CONTINUOUS
   0
LAYER
   2
LEVEL001
  70
0
  62
7
   6
CONTINUOUS
   0
LAYER
   2
LEVEL003
  70
0
  62
7
   6
CONTINUOUS
   0
LAYER
   2
LEVEL004
  70
0
  62
7
   6
CONTINUOUS
   0
ENDTAB
   0
ENDSEC
   0
SECTION
   2
ENTITIES
   0
POINT
   8
LEVEL001
  62
7
  10
 100.004
  20
 91.9128
  30
0.0
   0
TEXT
   8
LEVEL003
  62
3
  10
 120.000
  20
 238.000
  30
0.0
  40
 4.00000
   1
Ｍ２０×２
   7
STANDARD
   0
LINE
   8
LEVEL003
   6
CONTINUOUS
  62
3
  10
 101.000
  20
 208.000
  30
0.0
  11
 120.000
  21
 193.000
  31
0.0
   0
LINE
   8
LEVEL003
   6
CONTINUOUS
  62
3
  10
 101.000
  20
 208.000
  30
0.0
  11
 103.027
  21
 205.726
  31
0.0
   0
LINE
   8
LEVEL003
   6
CONTINUOUS
  62
3
  10
 101.000
  20
 208.000
  30
0.0
  11
 103.682
  21
 206.556
  31
0.0
   0
LINE
   8
LEVEL003
   6
CONTINUOUS
  62
3
  10
 90.0000
  20
 218.000
  30
0.0
  11
 120.000
  21
 238.000
  31
0.0
   0
LINE
   8
LEVEL003
   6
CONTINUOUS
  62
3
  10
 90.0000
  20
 218.000
  30
0.0
  11
 92.7896
  21
 219.224
  31
0.0
   0
LINE
   8
LEVEL003
   6
CONTINUOUS
  62
3
  10
 90.0000
  20
 218.000
  30
0.0
  11
 92.2027
  21
 220.104
  31
0.0
   0
LINE
   8
LEVEL001
   6
CONTINUOUS
  62
3
  10
 109.212
  20
 101.395
  30
0.0
  11
 105.694
  21
 100.115
  31
0.0
   0
LINE
   8
LEVEL001
   6
CONTINUOUS
  62
3
  10
 110.719
  20
 84.1738
  30
0.0
  11
 107.032
  21
 84.8239
  31
0.0
   0
LINE
   8
LEVEL001
   6
CONTINUOUS
  62
7
  10
 109.212
  20
 101.395
  30
0.0
  11
 110.616
  21
 102.378
  31
0.0
   0
LINE
   8
LEVEL001
   6
CONTINUOUS
  62
7
  10
 126.073
  20
 103.730
  30
0.0
  11
 110.616
  21
 102.378
  31
0.0
   0
LINE
   8
LEVEL001
   6
CONTINUOUS
  62
7
  10
 110.719
  20
 84.1738
  30
0.0
  11
 112.272
  21
 83.4498
  31
0.0
   0
LINE
   8
LEVEL001
   6
CONTINUOUS
  62
7
  10
 127.729
  20
 84.8022
  30
0.0
  11
 112.272
  21
 83.4498
  31
0.0
   0
ARC
   8
LEVEL001
   6
CONTINUOUS
  62
7
  10
 127.262
  20
 107.347
  30
0.0
  40
 1.50000
  50
 95.0001
  51
 185.000
   0
LINE
   8
LEVEL001
   6
CONTINUOUS
  62
7
  10
 127.132
  20
 108.842
  30
0.0
  11
 132.113
  21
 109.277
  31
0.0
   0
ARC
   8
LEVEL001
   6
CONTINUOUS
  62
7
  10
 129.528
  20
 81.4462
  30
0.0
  40
 1.50000
  50
 185.000
  51
 275.000
   0
LINE
   8
LEVEL001
   6
CONTINUOUS
  62
7
  10
 128.034
  20
 81.3155
  30
0.0
  11
 125.768
  21
 107.217
  31
0.0
   0
LINE
   8
LEVEL001
   6
CONTINUOUS
  62
7
  10
 129.659
  20
 79.9520
  30
0.0
  11
 134.640
  21
 80.3877
  31
0.0
   0
ARC
   8
LEVEL001
   6
CONTINUOUS
  62
7
  10
 148.182
  20
 109.178
  30
0.0
  40
 1.50000
  50
 5.00008
  51
 95.0002
   0
LINE
   8
LEVEL001
   6
CONTINUOUS
  62
7
  10
 143.071
  20
 110.236
  30
0.0
  11
 148.052
  21
 110.672
  31
0.0
   0
ARC
   8
LEVEL001
   6
CONTINUOUS
  62
7
  10
 150.448
  20
 83.2765
  30
0.0
  40
 1.50000
  50
 275.000
  51
 5.00019
   0
LINE
   8
LEVEL001
   6
CONTINUOUS
  62
7
  10
 145.598
  20
 81.3464
  30
0.0
  11
 150.579
  21
 81.7822
  31
0.0
   0
LINE
   8
LEVEL001
   6
CONTINUOUS
  62
7
  10
 149.677
  20
 109.308
  30
0.0
  11
 151.943
  21
 83.4072
  31
0.0
   0
ARC
   8
LEVEL001
   6
DASHDOT
  62
1
  10
 158.642
  20
 110.093
  30
0.0
  40
 1.00000
  50
 5.00020
  51
 95.0005
   0
LINE
   8
LEVEL001
   6
DASHDOT
  62
1
  10
 150.586
  20
 110.392
  30
0.0
  11
 158.555
  21
 111.089
  31
0.0
   0
ARC
   8
LEVEL001
   6
DASHDOT
  62
1
  10
 160.909
  20
 84.1916
  30
0.0
  40
 1.00000
  50
 275.000
  51
 5.00002
   0
LINE
   8
LEVEL001
   6
DASHDOT
  62
1
  10
 153.026
  20
 82.4982
  30
0.0
  11
 160.996
  21
 83.1954
  31
0.0
   0
LINE
   8
LEVEL001
   6
DASHDOT
  62
1
  10
 159.639
  20
 110.180
  30
0.0
  11
 161.905
  21
 84.2788
  31
0.0
   0
CIRCLE
   8
LEVEL001
   6
DASHDOT
  62
1
  10
 163.760
  20
 97.4908
  30
0.0
  40
 1.50000
   0
ARC
   8
LEVEL001
   6
DASHDOT
  62
1
  10
 152.939
  20
 83.4944
  30
0.0
  40
 1.00000
  50
 185.000
  51
 275.000
   0
ARC
   8
LEVEL001
   6
DASHDOT
  62
1
  10
 150.673
  20
 109.395
  30
0.0
  40
 1.00000
  50
 95.0007
  51
 185.000
   0
ARC
   8
LEVEL001
   6
DASHDOT
  62
1
  10
 162.285
  20
 102.883
  30
0.0
  40
 2.00000
  50
 185.000
  51
 275.000
   0
ARC
   8
LEVEL001
   6
DASHDOT
  62
1
  10
 163.243
  20
 91.9246
  30
0.0
  40
 2.00000
  50
 95.0003
  51
 185.000
   0
LINE
   8
LEVEL001
   6
DASHDOT
  62
1
  10
 162.459
  20
 100.890
  30
0.0
  11
 162.957
  21
 100.934
  31
0.0
   0
LINE
   8
LEVEL001
   6
DASHDOT
  62
1
  10
 163.069
  20
 93.9170
  30
0.0
  11
 163.567
  21
 93.9605
  31
0.0
   0
ARC
   8
LEVEL001
   6
DASHDOT
  62
1
  10
 163.262
  20
 97.4472
  30
0.0
  40
 3.50000
  50
 275.000
  51
 95.0000
   0
LINE
   8
LEVEL001
   6
CONTINUOUS
  62
7
  10
 112.272
  20
 83.4498
  30
0.0
  11
 111.952
  21
 87.1049
  31
0.0
   0
LINE
   8
LEVEL001
   6
CONTINUOUS
  62
7
  10
 110.935
  20
 98.7225
  30
0.0
  11
 110.616
  21
 102.378
  31
0.0
   0
LINE
   8
LEVEL001
   6
CONTINUOUS
  62
7
  10
 106.333
  20
 88.4120
  30
0.0
  11
 119.420
  21
 99.4647
  31
0.0
   0
LINE
   8
LEVEL001
   6
CONTINUOUS
  62
7
  10
 105.629
  20
 96.4596
  30
0.0
  11
 120.436
  21
 87.8472
  31
0.0
   0
LINE
   8
LEVEL001
   6
CONTINUOUS
  62
3
  10
 105.694
  20
 100.115
  30
0.0
  11
 106.011
  21
 96.4930
  31
0.0
   0
LINE
   8
LEVEL001
   6
CONTINUOUS
  62
3
  10
 106.715
  20
 88.4454
  30
0.0
  11
 107.032
  21
 84.8239
  31
0.0
   0
LINE
   8
LEVEL001
   6
CONTINUOUS
  62
7
  10
 109.212
  20
 101.395
  30
0.0
  11
 109.591
  21
 97.0646
  31
0.0
   0
LINE
   8
LEVEL001
   6
CONTINUOUS
  62
7
  10
 110.340
  20
 88.5042
  30
0.0
  11
 110.719
  21
 84.1738
  31
0.0
   0
LINE
   8
LEVEL001
   6
CONTINUOUS
  62
3
  10
 134.509
  20
 81.8820
  30
0.0
  11
 145.467
  21
 82.8407
  31
0.0
   0
LINE
   8
LEVEL001
   6
CONTINUOUS
  62
3
  10
 134.335
  20
 83.8744
  30
0.0
  11
 145.293
  21
 84.8331
  31
0.0
   0
LINE
   8
LEVEL001
   6
CONTINUOUS
  62
3
  10
 134.161
  20
 85.8668
  30
0.0
  11
 145.119
  21
 86.8255
  31
0.0
   0
LINE
   8
LEVEL001
   6
CONTINUOUS
  62
3
  10
 133.986
  20
 87.8592
  30
0.0
  11
 144.945
  21
 88.8179
  31
0.0
   0
LINE
   8
LEVEL001
   6
CONTINUOUS
  62
3
  10
 133.812
  20
 89.8516
  30
0.0
  11
 144.770
  21
 90.8103
  31
0.0
   0
LINE
   8
LEVEL001
   6
CONTINUOUS
  62
3
  10
 133.638
  20
 91.8440
  30
0.0
  11
 144.596
  21
 92.8027
  31
0.0
   0
LINE
   8
LEVEL001
   6
CONTINUOUS
  62
3
  10
 133.464
  20
 93.8364
  30
0.0
  11
 144.422
  21
 94.7951
  31
0.0
   0
LINE
   8
LEVEL001
   6
CONTINUOUS
  62
3
  10
 133.289
  20
 95.8288
  30
0.0
  11
 144.247
  21
 96.7875
  31
0.0
   0
LINE
   8
LEVEL001
   6
CONTINUOUS
  62
3
  10
 133.115
  20
 97.8211
  30
0.0
  11
 144.073
  21
 98.7798
  31
0.0
   0
LINE
   8
LEVEL001
   6
CONTINUOUS
  62
3
  10
 132.941
  20
 99.8135
  30
0.0
  11
 143.899
  21
 100.772
  31
0.0
   0
LINE
   8
LEVEL001
   6
CONTINUOUS
  62
3
  10
 132.766
  20
 101.806
  30
0.0
  11
 143.724
  21
 102.765
  31
0.0
   0
LINE
   8
LEVEL001
   6
CONTINUOUS
  62
3
  10
 132.592
  20
 103.798
  30
0.0
  11
 143.550
  21
 104.757
  31
0.0
   0
LINE
   8
LEVEL001
   6
CONTINUOUS
  62
3
  10
 132.418
  20
 105.791
  30
0.0
  11
 143.376
  21
 106.749
  31
0.0
   0
LINE
   8
LEVEL001
   6
CONTINUOUS
  62
3
  10
 132.243
  20
 107.783
  30
0.0
  11
 143.201
  21
 108.742
  31
0.0
   0
LINE
   8
LEVEL001
   6
CONTINUOUS
  62
7
  10
 106.333
  20
 88.4120
  30
0.0
  11
 105.629
  21
 96.4596
  31
0.0
   0
LINE
   8
LEVEL001
   6
CONTINUOUS
  62
7
  10
 105.629
  20
 96.4596
  30
0.0
  11
 109.591
  21
 97.0646
  31
0.0
   0
LINE
   8
LEVEL001
   6
CONTINUOUS
  62
7
  10
 109.591
  20
 97.0646
  30
0.0
  11
 110.935
  21
 98.7225
  31
0.0
   0
LINE
   8
LEVEL001
   6
CONTINUOUS
  62
7
  10
 110.935
  20
 98.7225
  30
0.0
  11
 119.420
  21
 99.4647
  31
0.0
   0
LINE
   8
LEVEL001
   6
CONTINUOUS
  62
7
  10
 119.420
  20
 99.4647
  30
0.0
  11
 120.436
  21
 87.8472
  31
0.0
   0
LINE
   8
LEVEL001
   6
CONTINUOUS
  62
7
  10
 120.436
  20
 87.8472
  30
0.0
  11
 111.952
  21
 87.1049
  31
0.0
   0
LINE
   8
LEVEL001
   6
CONTINUOUS
  62
7
  10
 111.952
  20
 87.1049
  30
0.0
  11
 110.340
  21
 88.5042
  31
0.0
   0
LINE
   8
LEVEL001
   6
CONTINUOUS
  62
7
  10
 110.340
  20
 88.5042
  30
0.0
  11
 106.333
  21
 88.4120
  31
0.0
   0
LINE
   8
LEVEL001
   6
CONTINUOUS
  62
7
  10
 134.684
  20
 79.8896
  30
0.0
  11
 132.069
  21
 109.775
  31
0.0
   0
LINE
   8
LEVEL001
   6
CONTINUOUS
  62
7
  10
 132.069
  20
 109.775
  30
0.0
  11
 143.027
  21
 110.734
  31
0.0
   0
LINE
   8
LEVEL001
   6
CONTINUOUS
  62
7
  10
 143.027
  20
 110.734
  30
0.0
  11
 145.642
  21
 80.8483
  31
0.0
   0
LINE
   8
LEVEL001
   6
CONTINUOUS
  62
7
  10
 145.642
  20
 80.8483
  30
0.0
  11
 134.684
  21
 79.8896
  31
0.0
   0
LINE
   8
LEVEL003
   6
CONTINUOUS
  62
3
  10
 92.5000
  20
 230.000
  30
0.0
  11
 202.000
  21
 230.000
  31
0.0
   0
LINE
   8
LEVEL003
   6
CONTINUOUS
  62
3
  10
 101.000
  20
 73.0000
  30
0.0
  11
 202.000
  21
 73.0000
  31
0.0
   0
LINE
   8
LEVEL003
   6
CONTINUOUS
  62
3
  10
 200.000
  20
 230.000
  30
0.0
  11
 200.000
  21
 73.0000
  31
0.0
   0
LINE
   8
LEVEL003
   6
CONTINUOUS
  62
3
  10
 200.000
  20
 230.000
  30
0.0
  11
 199.471
  21
 227.000
  31
0.0
   0
LINE
   8
LEVEL003
   6
CONTINUOUS
  62
3
  10
 200.000
  20
 230.000
  30
0.0
  11
 200.529
  21
 227.000
  31
0.0
   0
LINE
   8
LEVEL003
   6
CONTINUOUS
  62
3
  10
 200.000
  20
 73.0000
  30
0.0
  11
 200.529
  21
 76.0000
  31
0.0
   0
LINE
   8
LEVEL003
   6
CONTINUOUS
  62
3
  10
 200.000
  20
 73.0000
  30
0.0
  11
 199.471
  21
 76.0000
  31
0.0
   0
TEXT
   8
LEVEL003
  62
3
  10
 199.200
  20
 148.500
  30
0.0
  40
 4.00000
   1
157
  50
 90.0000
  41
 0.500000
   7
STANDARD
  72
1
  11
 199.200
  21
 151.500
  31
0.0
   0
LINE
   8
LEVEL001
   6
CONTINUOUS
  62
7
  10
 98.7500
  20
 225.000
  30
0.0
  11
 99.7500
  21
 224.000
  31
0.0
   0
LINE
   8
LEVEL001
   6
CONTINUOUS
  62
7
  10
 99.7500
  20
 224.000
  30
0.0
  11
 99.7500
  21
 222.000
  31
0.0
   0
LINE
   8
LEVEL001
   6
CONTINUOUS
  62
7
  10
 100.250
  20
 222.000
  30
0.0
  11
 101.000
  21
 221.250
  31
0.0
   0
LINE
   8
LEVEL001
   6
CONTINUOUS
  62
7
  10
 101.000
  20
 221.250
  30
0.0
  11
 101.000
  21
 199.201
  31
0.0
   0
LINE
   8
LEVEL001
   6
CONTINUOUS
  62
7
  10
 91.5000
  20
 230.000
  30
0.0
  11
 92.5000
  21
 229.000
  31
0.0
   0
LINE
   8
LEVEL001
   6
CONTINUOUS
  62
7
  10
 92.5000
  20
 229.000
  30
0.0
  11
 92.5000
  21
 225.000
  31
0.0
   0
LINE
   8
LEVEL001
   6
CONTINUOUS
  62
7
  10
 61.2500
  20
 225.000
  30
0.0
  11
 60.2500
  21
 224.000
  31
0.0
   0
LINE
   8
LEVEL001
   6
CONTINUOUS
  62
7
  10
 60.2500
  20
 224.000
  30
0.0
  11
 60.2500
  21
 222.000
  31
0.0
   0
LINE
   8
LEVEL001
   6
CONTINUOUS
  62
7
  10
 59.0000
  20
 199.201
  30
0.0
  11
 59.0000
  21
 74.0000
  31
0.0
   0
LINE
   8
LEVEL001
   6
CONTINUOUS
  62
7
  10
 59.7500
  20
 222.000
  30
0.0
  11
 59.0000
  21
 221.250
  31
0.0
   0
LINE
   8
LEVEL001
   6
CONTINUOUS
  62
7
  10
 59.0000
  20
 221.250
  30
0.0
  11
 59.0000
  21
 199.201
  31
0.0
   0
LINE
   8
LEVEL001
   6
CONTINUOUS
  62
3
  10
 59.7500
  20
 202.000
  30
0.0
  11
 59.0000
  21
 199.201
  31
0.0
   0
LINE
   8
LEVEL001
   6
CONTINUOUS
  62
7
  10
 68.5000
  20
 230.000
  30
0.0
  11
 67.5000
  21
 229.000
  31
0.0
   0
LINE
   8
LEVEL001
   6
CONTINUOUS
  62
7
  10
 67.5000
  20
 229.000
  30
0.0
  11
 67.5000
  21
 225.000
  31
0.0
   0
LINE
   8
LEVEL001
   6
CONTINUOUS
  62
7
  10
 68.5000
  20
 230.000
  30
0.0
  11
 91.5000
  21
 230.000
  31
0.0
   0
LINE
   8
LEVEL001
   6
DASHDOT
  62
1
  10
 104.000
  20
 222.000
  30
0.0
  11
 104.000
  21
 202.000
  31
0.0
   0
LINE
   8
LEVEL001
   6
DASHDOT
  62
1
  10
 104.000
  20
 222.000
  30
0.0
  11
 100.250
  21
 222.000
  31
0.0
   0
LINE
   8
LEVEL001
   6
DASHDOT
  62
1
  10
 56.0000
  20
 222.000
  30
0.0
  11
 56.0000
  21
 202.000
  31
0.0
   0
LINE
   8
LEVEL001
   6
DASHDOT
  62
1
  10
 56.0000
  20
 222.000
  30
0.0
  11
 59.7500
  21
 222.000
  31
0.0
   0
LINE
   8
LEVEL001
   6
DASHDOT
  62
1
  10
 56.0000
  20
 202.000
  30
0.0
  11
 59.0000
  21
 202.000
  31
0.0
   0
LINE
   8
LEVEL001
   6
DASHDOT
  62
1
  10
 101.000
  20
 202.000
  30
0.0
  11
 104.000
  21
 202.000
  31
0.0
   0
LINE
   8
LEVEL001
   6
CONTINUOUS
  62
3
  10
 100.250
  20
 222.000
  30
0.0
  11
 100.250
  21
 202.000
  31
0.0
   0
LINE
   8
LEVEL001
   6
CONTINUOUS
  62
3
  10
 100.250
  20
 202.000
  30
0.0
  11
 101.000
  21
 199.201
  31
0.0
   0
LINE
   8
LEVEL001
   6
CONTINUOUS
  62
7
  10
 101.000
  20
 199.201
  30
0.0
  11
 101.000
  21
 74.0000
  31
0.0
   0
LINE
   8
LEVEL001
   6
CONTINUOUS
  62
7
  10
 101.000
  20
 74.0000
  30
0.0
  11
 100.000
  21
 73.0000
  31
0.0
   0
LINE
   8
LEVEL001
   6
CONTINUOUS
  62
7
  10
 59.0000
  20
 74.0000
  30
0.0
  11
 60.0000
  21
 73.0000
  31
0.0
   0
LINE
   8
LEVEL001
   6
CONTINUOUS
  62
7
  10
 100.000
  20
 73.0000
  30
0.0
  11
 60.0000
  21
 73.0000
  31
0.0
   0
LINE
   8
LEVEL001
   6
DOT
  62
3
  10
 69.0000
  20
 73.0000
  30
0.0
  11
 68.5000
  21
 73.5000
  31
0.0
   0
LINE
   8
LEVEL001
   6
DOT
  62
3
  10
 63.5000
  20
 73.5000
  30
0.0
  11
 63.0000
  21
 73.0000
  31
0.0
   0
LINE
   8
LEVEL001
   6
DOT
  62
3
  10
 68.5000
  20
 73.5000
  30
0.0
  11
 63.5000
  21
 73.5000
  31
0.0
   0
LINE
   8
LEVEL003
   6
CONTINUOUS
  62
3
  10
 66.0000
  20
 73.0000
  30
0.0
  11
 55.0000
  21
 53.0000
  31
0.0
   0
LINE
   8
LEVEL003
   6
CONTINUOUS
  62
3
  10
 66.0000
  20
 73.0000
  30
0.0
  11
 64.0907
  21
 70.6263
  31
0.0
   0
LINE
   8
LEVEL003
   6
CONTINUOUS
  62
3
  10
 66.0000
  20
 73.0000
  30
0.0
  11
 65.0177
  21
 70.1164
  31
0.0
   0
CIRCLE
   8
LEVEL001
   6
CONTINUOUS
  62
7
  10
 80.0000
  20
 28.0000
  30
0.0
  40
 21.0000
   0
LINE
   8
LEVEL001
   6
DASHDOT
  62
1
  10
 169.737
  20
 28.0000
  30
0.0
  11
 55.0000
  21
 28.0000
  31
0.0
   0
LINE
   8
LEVEL001
   6
DASHDOT
  62
1
  10
 80.0000
  20
 53.0000
  30
0.0
  11
 80.0000
  21
 3.00002
  31
0.0
   0
LINE
   8
LEVEL001
   6
CONTINUOUS
  62
7
  10
 80.0000
  20
 32.6188
  30
0.0
  11
 84.0000
  21
 30.3094
  31
0.0
   0
LINE
   8
LEVEL001
   6
CONTINUOUS
  62
7
  10
 84.0000
  20
 30.3094
  30
0.0
  11
 84.0000
  21
 25.6906
  31
0.0
   0
LINE
   8
LEVEL001
   6
CONTINUOUS
  62
7
  10
 84.0000
  20
 25.6906
  30
0.0
  11
 80.0000
  21
 23.3812
  31
0.0
   0
LINE
   8
LEVEL001
   6
CONTINUOUS
  62
7
  10
 80.0000
  20
 23.3812
  30
0.0
  11
 76.0000
  21
 25.6906
  31
0.0
   0
LINE
   8
LEVEL001
   6
CONTINUOUS
  62
7
  10
 76.0000
  20
 25.6906
  30
0.0
  11
 76.0000
  21
 30.3094
  31
0.0
   0
LINE
   8
LEVEL001
   6
CONTINUOUS
  62
7
  10
 76.0000
  20
 30.3094
  30
0.0
  11
 80.0000
  21
 32.6188
  31
0.0
   0
CIRCLE
   8
LEVEL001
   6
CONTINUOUS
  62
7
  10
 80.0000
  20
 28.0000
  30
0.0
  40
 8.33100
   0
CIRCLE
   8
LEVEL001
   6
CONTINUOUS
  62
3
  10
 80.0000
  20
 28.0000
  30
0.0
  40
 7.47500
   0
CIRCLE
   8
LEVEL001
   6
CONTINUOUS
  62
7
  10
 80.0000
  20
 28.0000
  30
0.0
  40
 10.0038
   0
CIRCLE
   8
LEVEL001
   6
CONTINUOUS
  62
7
  10
 80.0000
  20
 28.0000
  30
0.0
  40
 20.0038
   0
ARC
   8
LEVEL001
   6
CONTINUOUS
  62
7
  10
 128.504
  20
 41.0000
  30
0.0
  40
 1.50000
  50
 90.0000
  51
 180.000
   0
LINE
   8
LEVEL001
   6
CONTINUOUS
  62
7
  10
 128.504
  20
 42.5000
  30
0.0
  11
 133.504
  21
 42.5000
  31
0.0
   0
ARC
   8
LEVEL001
   6
CONTINUOUS
  62
7
  10
 128.504
  20
 15.0000
  30
0.0
  40
 1.50000
  50
 180.000
  51
 270.000
   0
LINE
   8
LEVEL001
   6
CONTINUOUS
  62
7
  10
 127.004
  20
 15.0000
  30
0.0
  11
 127.004
  21
 41.0000
  31
0.0
   0
LINE
   8
LEVEL001
   6
CONTINUOUS
  62
7
  10
 128.504
  20
 13.5000
  30
0.0
  11
 133.504
  21
 13.5000
  31
0.0
   0
ARC
   8
LEVEL001
   6
CONTINUOUS
  62
7
  10
 149.504
  20
 41.0000
  30
0.0
  40
 1.50000
  50
0.0
  51
 90.0000
   0
LINE
   8
LEVEL001
   6
CONTINUOUS
  62
7
  10
 144.504
  20
 42.5000
  30
0.0
  11
 149.504
  21
 42.5000
  31
0.0
   0
ARC
   8
LEVEL001
   6
CONTINUOUS
  62
7
  10
 149.504
  20
 15.0000
  30
0.0
  40
 1.50000
  50
 270.000
  51
 0.299905E-10
   0
LINE
   8
LEVEL001
   6
CONTINUOUS
  62
7
  10
 144.504
  20
 13.5000
  30
0.0
  11
 149.504
  21
 13.5000
  31
0.0
   0
LINE
   8
LEVEL001
   6
CONTINUOUS
  62
7
  10
 151.004
  20
 41.0000
  30
0.0
  11
 151.004
  21
 15.0000
  31
0.0
   0
ARC
   8
LEVEL001
   6
DASHDOT
  62
1
  10
 160.004
  20
 41.0000
  30
0.0
  40
 1.00000
  50
0.0
  51
 90.0000
   0
LINE
   8
LEVEL001
   6
DASHDOT
  62
1
  10
 152.004
  20
 42.0000
  30
0.0
  11
 160.004
  21
 42.0000
  31
0.0
   0
ARC
   8
LEVEL001
   6
DASHDOT
  62
1
  10
 160.004
  20
 15.0000
  30
0.0
  40
 1.00000
  50
 270.000
  51
0.0
   0
LINE
   8
LEVEL001
   6
DASHDOT
  62
1
  10
 152.004
  20
 14.0000
  30
0.0
  11
 160.004
  21
 14.0000
  31
0.0
   0
LINE
   8
LEVEL001
   6
DASHDOT
  62
1
  10
 161.004
  20
 41.0000
  30
0.0
  11
 161.004
  21
 15.0000
  31
0.0
   0
ARC
   8
LEVEL001
   6
DASHDOT
  62
1
  10
 152.004
  20
 15.0000
  30
0.0
  40
 1.00000
  50
 180.000
  51
 270.000
   0
ARC
   8
LEVEL001
   6
DASHDOT
  62
1
  10
 152.004
  20
 41.0000
  30
0.0
  40
 1.00000
  50
 90.0000
  51
 180.000
   0
LINE
   8
LEVEL001
   6
CONTINUOUS
  62
3
  10
 106.388
  20
 35.5000
  30
0.0
  11
 106.387
  21
 20.5000
  31
0.0
   0
LINE
   8
LEVEL001
   6
CONTINUOUS
  62
7
  10
 110.004
  20
 35.5000
  30
0.0
  11
 110.004
  21
 20.5000
  31
0.0
   0
LINE
   8
LEVEL001
   6
CONTINUOUS
  62
7
  10
 111.487
  20
 20.5000
  30
0.0
  11
 111.487
  21
 35.5000
  31
0.0
   0
LINE
   8
LEVEL001
   6
CONTINUOUS
  62
3
  10
 133.504
  20
 15.0000
  30
0.0
  11
 144.504
  21
 15.0000
  31
0.0
   0
LINE
   8
LEVEL001
   6
CONTINUOUS
  62
3
  10
 133.504
  20
 17.0000
  30
0.0
  11
 144.504
  21
 17.0000
  31
0.0
   0
LINE
   8
LEVEL001
   6
CONTINUOUS
  62
3
  10
 133.504
  20
 19.0000
  30
0.0
  11
 144.504
  21
 19.0000
  31
0.0
   0
LINE
   8
LEVEL001
   6
CONTINUOUS
  62
3
  10
 133.504
  20
 21.0000
  30
0.0
  11
 144.504
  21
 21.0000
  31
0.0
   0
LINE
   8
LEVEL001
   6
CONTINUOUS
  62
3
  10
 133.504
  20
 23.0000
  30
0.0
  11
 144.504
  21
 23.0000
  31
0.0
   0
LINE
   8
LEVEL001
   6
CONTINUOUS
  62
3
  10
 133.504
  20
 25.0000
  30
0.0
  11
 144.504
  21
 25.0000
  31
0.0
   0
LINE
   8
LEVEL001
   6
CONTINUOUS
  62
3
  10
 133.504
  20
 27.0000
  30
0.0
  11
 144.504
  21
 27.0000
  31
0.0
   0
LINE
   8
LEVEL001
   6
CONTINUOUS
  62
3
  10
 133.504
  20
 29.0000
  30
0.0
  11
 144.504
  21
 29.0000
  31
0.0
   0
LINE
   8
LEVEL001
   6
CONTINUOUS
  62
3
  10
 133.504
  20
 31.0000
  30
0.0
  11
 144.504
  21
 31.0000
  31
0.0
   0
LINE
   8
LEVEL001
   6
CONTINUOUS
  62
3
  10
 133.504
  20
 33.0000
  30
0.0
  11
 144.504
  21
 33.0000
  31
0.0
   0
LINE
   8
LEVEL001
   6
CONTINUOUS
  62
3
  10
 133.504
  20
 35.0000
  30
0.0
  11
 144.504
  21
 35.0000
  31
0.0
   0
LINE
   8
LEVEL001
   6
CONTINUOUS
  62
3
  10
 133.504
  20
 37.0000
  30
0.0
  11
 144.504
  21
 37.0000
  31
0.0
   0
LINE
   8
LEVEL001
   6
CONTINUOUS
  62
3
  10
 133.504
  20
 39.0000
  30
0.0
  11
 144.504
  21
 39.0000
  31
0.0
   0
LINE
   8
LEVEL001
   6
CONTINUOUS
  62
3
  10
 133.504
  20
 41.0000
  30
0.0
  11
 144.504
  21
 41.0000
  31
0.0
   0
LINE
   8
LEVEL001
   6
DASHDOT
  62
1
  10
 161.004
  20
 30.0000
  30
0.0
  11
 167.004
  21
 30.0000
  31
0.0
   0
LINE
   8
LEVEL001
   6
DASHDOT
  62
1
  10
 167.004
  20
 30.0000
  30
0.0
  11
 167.004
  21
 26.0000
  31
0.0
   0
LINE
   8
LEVEL001
   6
DASHDOT
  62
1
  10
 167.004
  20
 26.0000
  30
0.0
  11
 161.004
  21
 26.0000
  31
0.0
   0
LINE
   8
LEVEL001
   6
CONTINUOUS
  62
7
  10
 106.004
  20
 36.5185
  30
0.0
  11
 106.004
  21
 35.5000
  31
0.0
   0
LINE
   8
LEVEL001
   6
CONTINUOUS
  62
7
  10
 106.004
  20
 35.5000
  30
0.0
  11
 120.004
  21
 35.5000
  31
0.0
   0
LINE
   8
LEVEL001
   6
CONTINUOUS
  62
7
  10
 120.004
  20
 35.5000
  30
0.0
  11
 120.004
  21
 37.5000
  31
0.0
   0
LINE
   8
LEVEL001
   6
CONTINUOUS
  62
7
  10
 120.004
  20
 37.5000
  30
0.0
  11
 127.004
  21
 37.5000
  31
0.0
   0
LINE
   8
LEVEL001
   6
CONTINUOUS
  62
7
  10
 106.004
  20
 19.4815
  30
0.0
  11
 106.004
  21
 20.5000
  31
0.0
   0
LINE
   8
LEVEL001
   6
CONTINUOUS
  62
7
  10
 106.004
  20
 20.5000
  30
0.0
  11
 120.004
  21
 20.5000
  31
0.0
   0
LINE
   8
LEVEL001
   6
CONTINUOUS
  62
7
  10
 120.004
  20
 20.5000
  30
0.0
  11
 120.004
  21
 18.5000
  31
0.0
   0
LINE
   8
LEVEL001
   6
CONTINUOUS
  62
7
  10
 120.004
  20
 18.5000
  30
0.0
  11
 127.004
  21
 18.5000
  31
0.0
   0
LINE
   8
LEVEL001
   6
CONTINUOUS
  62
7
  10
 133.504
  20
 13.0000
  30
0.0
  11
 133.504
  21
 43.0000
  31
0.0
   0
LINE
   8
LEVEL001
   6
CONTINUOUS
  62
7
  10
 133.504
  20
 43.0000
  30
0.0
  11
 144.504
  21
 43.0000
  31
0.0
   0
LINE
   8
LEVEL001
   6
CONTINUOUS
  62
7
  10
 144.504
  20
 43.0000
  30
0.0
  11
 144.504
  21
 13.0000
  31
0.0
   0
LINE
   8
LEVEL001
   6
CONTINUOUS
  62
7
  10
 144.504
  20
 13.0000
  30
0.0
  11
 133.504
  21
 13.0000
  31
0.0
   0
LINE
   8
LEVEL001
   6
CONTINUOUS
  62
3
  10
 106.004
  20
 35.6625
  30
0.0
  11
 99.6290
  21
 35.4633
  31
0.0
   0
LINE
   8
LEVEL001
   6
CONTINUOUS
  62
7
  10
 106.004
  20
 36.5185
  30
0.0
  11
 99.2865
  21
 36.3086
  31
0.0
   0
LINE
   8
LEVEL001
   6
CONTINUOUS
  62
7
  10
 106.004
  20
 19.4815
  30
0.0
  11
 99.2865
  21
 19.6914
  31
0.0
   0
LINE
   8
LEVEL001
   6
CONTINUOUS
  62
3
  10
 105.999
  20
 20.3377
  30
0.0
  11
 99.6290
  21
 20.5367
  31
0.0
   0
CIRCLE
   8
LEVEL001
   6
CONTINUOUS
  62
7
  10
 80.0000
  20
 42.0000
  30
0.0
  40
 2.50000
   0
CIRCLE
   8
LEVEL001
   6
CONTINUOUS
  62
3
  10
 80.0000
  20
 42.0000
  30
0.0
  40
 3.00000
   0
LINE
   8
LEVEL001
   6
DASHDOT
  62
1
  10
 86.0000
  20
 42.0000
  30
0.0
  11
 74.0000
  21
 42.0000
  31
0.0
   0
CIRCLE
   8
LEVEL001
   6
CONTINUOUS
  62
7
  10
 80.0000
  20
 14.0000
  30
0.0
  40
 2.50000
   0
CIRCLE
   8
LEVEL001
   6
CONTINUOUS
  62
3
  10
 80.0000
  20
 14.0000
  30
0.0
  40
 3.00000
   0
LINE
   8
LEVEL001
   6
DASHDOT
  62
1
  10
 86.0000
  20
 14.0000
  30
0.0
  11
 74.0000
  21
 14.0000
  31
0.0
   0
LINE
   8
LEVEL001
   6
CONTINUOUS
  62
7
  10
 110.719
  20
 84.1738
  30
0.0
  11
 101.000
  21
 83.6287
  31
0.0
   0
LINE
   8
LEVEL001
   6
CONTINUOUS
  62
7
  10
 109.212
  20
 101.395
  30
0.0
  11
 101.000
  21
 100.417
  31
0.0
   0
LINE
   8
LEVEL001
   6
CONTINUOUS
  62
3
  10
 105.694
  20
 100.115
  30
0.0
  11
 101.000
  21
 99.5556
  31
0.0
   0
LINE
   8
LEVEL001
   6
CONTINUOUS
  62
3
  10
 107.032
  20
 84.8239
  30
0.0
  11
 101.000
  21
 84.4856
  31
0.0
   0
LINE
   8
LEVEL001
   6
DASHDOT
  62
1
  10
 169.737
  20
 98.0137
  30
0.0
  11
 95.1324
  21
 91.4866
  31
0.0
   0
LINE
   8
LEVEL001
   6
CONTINUOUS
  62
7
  10
 61.2500
  20
 225.000
  30
0.0
  11
 98.7500
  21
 225.000
  31
0.0
   0
LINE
   8
LEVEL001
   6
DASHDOT
  62
1
  10
 80.0000
  20
 68.0000
  30
0.0
  11
 80.0000
  21
 233.000
  31
0.0
   0
LINE
   8
LEVEL001
   6
DOT
  62
3
  10
 71.0000
  20
 222.000
  30
0.0
  11
 71.2500
  21
 222.000
  31
0.0
   0
LINE
   8
LEVEL001
   6
DOT
  62
3
  10
 89.0000
  20
 222.000
  30
0.0
  11
 88.7500
  21
 222.000
  31
0.0
   0
LINE
   8
LEVEL001
   6
CONTINUOUS
  62
7
  10
 100.250
  20
 222.000
  30
0.0
  11
 59.7500
  21
 222.000
  31
0.0
   0
LINE
   8
LEVEL001
   6
CONTINUOUS
  62
7
  10
 99.7500
  20
 224.000
  30
0.0
  11
 60.2500
  21
 224.000
  31
0.0
   0
LINE
   8
LEVEL001
   6
CONTINUOUS
  62
3
  10
 59.7500
  20
 222.000
  30
0.0
  11
 59.7500
  21
 202.000
  31
0.0
   0
LINE
   8
LEVEL001
   6
CONTINUOUS
  62
3
  10
 59.0000
  20
 202.000
  30
0.0
  11
 101.000
  21
 202.000
  31
0.0
   0
LINE
   8
LEVEL001
   6
CONTINUOUS
  62
3
  10
 59.0000
  20
 221.250
  30
0.0
  11
 101.000
  21
 221.250
  31
0.0
   0
LINE
   8
LEVEL001
   6
CONTINUOUS
  62
7
  10
 59.0000
  20
 199.201
  30
0.0
  11
 101.000
  21
 199.201
  31
0.0
   0
LINE
   8
LEVEL001
   6
CONTINUOUS
  62
7
  10
 67.5000
  20
 229.000
  30
0.0
  11
 92.5000
  21
 229.000
  31
0.0
   0
LINE
   8
LEVEL001
   6
CONTINUOUS
  62
7
  10
 59.0000
  20
 74.0000
  30
0.0
  11
 101.000
  21
 74.0000
  31
0.0
   0
CIRCLE
   8
LEVEL004
   6
CONTINUOUS
  62
7
  10
 194.718
  20
 20.2707
  30
0.0
  40
 3.00000
   0
LINE
   8
LEVEL004
   6
CONTINUOUS
  62
7
  10
 200.606
  20
 23.2707
  30
0.0
  11
 196.797
  21
 16.6707
  31
0.0
   0
LINE
   8
LEVEL004
   6
CONTINUOUS
  62
7
  10
 196.797
  20
 16.6707
  30
0.0
  11
 189.176
  21
 16.6707
  31
0.0
   0
LINE
   8
LEVEL004
   6
CONTINUOUS
  62
7
  10
 188.309
  20
 15.1707
  30
0.0
  11
 201.930
  21
 15.1707
  31
0.0
   0
LINE
   8
LEVEL004
   6
CONTINUOUS
  62
7
  10
 201.930
  20
 15.1707
  30
0.0
  11
 206.606
  21
 23.2707
  31
0.0
   0
LINE
   8
LEVEL004
   6
CONTINUOUS
  62
7
  10
 206.606
  20
 23.2707
  30
0.0
  11
 200.606
  21
 23.2707
  31
0.0
   0
LINE
   8
LEVEL004
   6
CONTINUOUS
  62
7
  10
 189.176
  20
 16.6707
  30
0.0
  11
 188.309
  21
 15.1707
  31
0.0
   0
TEXT
   8
LEVEL004
  62
7
  10
 206.691
  20
 13.2200
  30
0.0
  40
 10.0000
   1
ＯＳＡＫＡ ＪＡＣＫ
   7
STANDARD
   0
TEXT
   8
LEVEL004
  62
7
  10
 209.602
  20
 30.1134
  30
0.0
  40
 6.00000
   1
Model : Ｅ５Ｓ７.５
   7
STANDARD
   0
TEXT
   8
LEVEL003
  62
3
  10
 16.0000
  20
 53.0000
  30
0.0
  40
 4.00000
   1
２－Ｍ６×１０Ｌ
   7
STANDARD
   0
LINE
   8
LEVEL003
   6
CONTINUOUS
  62
3
  10
 55.0000
  20
 53.0000
  30
0.0
  11
 16.1381
  21
 53.0000
  31
0.0
   0
LINE
   8
LEVEL003
   6
CONTINUOUS
  62
3
  10
 67.0000
  20
 163.000
  30
0.0
  11
 93.0000
  21
 163.000
  31
0.0
   0
LINE
   8
LEVEL003
   6
CONTINUOUS
  62
3
  10
 67.0000
  20
 163.000
  30
0.0
  11
 70.0000
  21
 162.471
  31
0.0
   0
LINE
   8
LEVEL003
   6
CONTINUOUS
  62
3
  10
 67.0000
  20
 163.000
  30
0.0
  11
 70.0000
  21
 163.529
  31
0.0
   0
LINE
   8
LEVEL003
   6
CONTINUOUS
  62
3
  10
 93.0000
  20
 163.000
  30
0.0
  11
 90.0000
  21
 163.529
  31
0.0
   0
LINE
   8
LEVEL003
   6
CONTINUOUS
  62
3
  10
 93.0000
  20
 163.000
  30
0.0
  11
 90.0000
  21
 162.471
  31
0.0
   0
TEXT
   8
LEVEL003
  62
3
  10
 76.0000
  20
 163.800
  30
0.0
  40
 4.00000
   1
%%c26
   7
STANDARD
  72
1
  11
 80.0000
  21
 163.800
  31
0.0
   0
LINE
   8
LEVEL003
   6
CONTINUOUS
  62
3
  10
 65.0000
  20
 153.000
  30
0.0
  11
 95.0000
  21
 153.000
  31
0.0
   0
LINE
   8
LEVEL003
   6
CONTINUOUS
  62
3
  10
 65.0000
  20
 153.000
  30
0.0
  11
 68.0000
  21
 152.471
  31
0.0
   0
LINE
   8
LEVEL003
   6
CONTINUOUS
  62
3
  10
 65.0000
  20
 153.000
  30
0.0
  11
 68.0000
  21
 153.529
  31
0.0
   0
LINE
   8
LEVEL003
   6
CONTINUOUS
  62
3
  10
 95.0000
  20
 153.000
  30
0.0
  11
 92.0000
  21
 153.529
  31
0.0
   0
LINE
   8
LEVEL003
   6
CONTINUOUS
  62
3
  10
 95.0000
  20
 153.000
  30
0.0
  11
 92.0000
  21
 152.471
  31
0.0
   0
TEXT
   8
LEVEL003
  62
3
  10
 76.0000
  20
 153.800
  30
0.0
  40
 4.00000
   1
%%c30
   7
STANDARD
  72
1
  11
 80.0000
  21
 153.800
  31
0.0
   0
TEXT
   8
LEVEL003
  62
3
  10
 112.000
  20
 63.0000
  30
0.0
  40
 4.00000
   1
ＮＰＴ３／８
   7
STANDARD
   0
LINE
   8
LEVEL003
   6
CONTINUOUS
  62
3
  10
 104.175
  20
 83.8068
  30
0.0
  11
 112.000
  21
 63.0000
  31
0.0
   0
LINE
   8
LEVEL003
   6
CONTINUOUS
  62
3
  10
 112.000
  20
 63.0000
  30
0.0
  11
 137.000
  21
 63.0000
  31
0.0
   0
LINE
   8
LEVEL003
   6
CONTINUOUS
  62
3
  10
 104.175
  20
 83.8068
  30
0.0
  11
 104.736
  21
 80.8126
  31
0.0
   0
LINE
   8
LEVEL003
   6
CONTINUOUS
  62
3
  10
 104.175
  20
 83.8068
  30
0.0
  11
 105.726
  21
 81.1850
  31
0.0
   0
LINE
   8
LEVEL003
   6
CONTINUOUS
  62
3
  10
 67.5000
  20
 230.000
  30
0.0
  11
 67.5000
  21
 240.000
  31
0.0
   0
LINE
   8
LEVEL003
   6
CONTINUOUS
  62
3
  10
 92.5000
  20
 230.000
  30
0.0
  11
 92.5000
  21
 240.000
  31
0.0
   0
LINE
   8
LEVEL003
   6
CONTINUOUS
  62
3
  10
 67.5000
  20
 238.000
  30
0.0
  11
 92.5000
  21
 238.000
  31
0.0
   0
LINE
   8
LEVEL003
   6
CONTINUOUS
  62
3
  10
 67.5000
  20
 238.000
  30
0.0
  11
 70.5000
  21
 237.471
  31
0.0
   0
LINE
   8
LEVEL003
   6
CONTINUOUS
  62
3
  10
 67.5000
  20
 238.000
  30
0.0
  11
 70.5000
  21
 238.529
  31
0.0
   0
LINE
   8
LEVEL003
   6
CONTINUOUS
  62
3
  10
 92.5000
  20
 238.000
  30
0.0
  11
 89.5000
  21
 238.529
  31
0.0
   0
LINE
   8
LEVEL003
   6
CONTINUOUS
  62
3
  10
 92.5000
  20
 238.000
  30
0.0
  11
 89.5000
  21
 237.471
  31
0.0
   0
TEXT
   8
LEVEL003
  62
3
  10
 76.0000
  20
 238.800
  30
0.0
  40
 4.00000
   1
%%c25
   7
STANDARD
  72
1
  11
 80.0000
  21
 238.800
  31
0.0
   0
LINE
   8
LEVEL003
   6
CONTINUOUS
  62
3
  10
 66.0000
  20
 69.0000
  30
0.0
  11
 66.0000
  21
 56.0000
  31
0.0
   0
LINE
   8
LEVEL003
   6
CONTINUOUS
  62
3
  10
 94.0000
  20
 69.0000
  30
0.0
  11
 94.0000
  21
 56.0000
  31
0.0
   0
LINE
   8
LEVEL003
   6
CONTINUOUS
  62
3
  10
 66.0000
  20
 58.0000
  30
0.0
  11
 94.0000
  21
 58.0000
  31
0.0
   0
LINE
   8
LEVEL003
   6
CONTINUOUS
  62
3
  10
 66.0000
  20
 58.0000
  30
0.0
  11
 69.0000
  21
 57.4710
  31
0.0
   0
LINE
   8
LEVEL003
   6
CONTINUOUS
  62
3
  10
 66.0000
  20
 58.0000
  30
0.0
  11
 69.0000
  21
 58.5290
  31
0.0
   0
LINE
   8
LEVEL003
   6
CONTINUOUS
  62
3
  10
 94.0000
  20
 58.0000
  30
0.0
  11
 91.0000
  21
 58.5290
  31
0.0
   0
LINE
   8
LEVEL003
   6
CONTINUOUS
  62
3
  10
 94.0000
  20
 58.0000
  30
0.0
  11
 91.0000
  21
 57.4710
  31
0.0
   0
TEXT
   8
LEVEL003
  62
3
  10
 76.0000
  20
 58.8000
  30
0.0
  40
 4.00000
   1
%%c28
   7
STANDARD
  72
1
  11
 80.0000
  21
 58.8000
  31
0.0
   0
LINE
   8
LEVEL003
   6
CONTINUOUS
  62
3
  10
 59.0000
  20
 143.000
  30
0.0
  11
 101.000
  21
 143.000
  31
0.0
   0
LINE
   8
LEVEL003
   6
CONTINUOUS
  62
3
  10
 59.0000
  20
 143.000
  30
0.0
  11
 62.0000
  21
 142.471
  31
0.0
   0
LINE
   8
LEVEL003
   6
CONTINUOUS
  62
3
  10
 59.0000
  20
 143.000
  30
0.0
  11
 62.0000
  21
 143.529
  31
0.0
   0
LINE
   8
LEVEL003
   6
CONTINUOUS
  62
3
  10
 101.000
  20
 143.000
  30
0.0
  11
 98.0000
  21
 143.529
  31
0.0
   0
LINE
   8
LEVEL003
   6
CONTINUOUS
  62
3
  10
 101.000
  20
 143.000
  30
0.0
  11
 98.0000
  21
 142.471
  31
0.0
   0
TEXT
   8
LEVEL003
  62
3
  10
 76.0000
  20
 143.800
  30
0.0
  40
 4.00000
   1
%%c42
   7
STANDARD
  72
1
  11
 80.0000
  21
 143.800
  31
0.0
   0
LINE
   8
LEVEL004
   6
DOT
  62
3
  10
 95.0000
  20
 197.000
  30
0.0
  11
 95.0000
  21
 105.600
  31
0.0
   0
LINE
   8
LEVEL004
   6
DOT
  62
3
  10
 93.0000
  20
 129.000
  30
0.0
  11
 93.0000
  21
 223.000
  31
0.0
   0
LINE
   8
LEVEL004
   6
DOT
  62
3
  10
 65.0000
  20
 197.000
  30
0.0
  11
 65.0000
  21
 105.600
  31
0.0
   0
LINE
   8
LEVEL004
   6
DOT
  62
3
  10
 67.0000
  20
 129.000
  30
0.0
  11
 67.0000
  21
 223.000
  31
0.0
   0
ARC
   8
LEVEL004
   6
DOT
  62
3
  10
 89.0000
  20
 230.000
  30
0.0
  40
 1.00000
  50
 180.000
  51
0.0
   0
ARC
   8
LEVEL004
   6
DOT
  62
3
  10
 84.0000
  20
 230.000
  30
0.0
  40
 1.00000
  50
 180.000
  51
0.0
   0
ARC
   8
LEVEL004
   6
DOT
  62
3
  10
 71.0000
  20
 230.000
  30
0.0
  40
 1.00000
  50
 180.000
  51
0.0
   0
ARC
   8
LEVEL004
   6
DOT
  62
3
  10
 76.0000
  20
 230.000
  30
0.0
  40
 1.00000
  50
 180.000
  51
0.0
   0
LINE
   8
LEVEL003
   6
CONTINUOUS
  62
3
  10
 120.000
  20
 238.000
  30
0.0
  11
 144.526
  21
 238.000
  31
0.0
   0
TEXT
   8
LEVEL003
  62
3
  10
 120.000
  20
 193.000
  30
0.0
  40
 4.00000
   1
Ｍ４２×１.５
   7
STANDARD
   0
LINE
   8
LEVEL003
   6
CONTINUOUS
  62
3
  10
 120.000
  20
 193.000
  30
0.0
  11
 151.279
  21
 193.000
  31
0.0
   0
LINE
   8
LEVEL004
   6
DOT
  62
3
  10
 89.0000
  20
 207.268
  30
0.0
  11
 89.0000
  21
 199.000
  31
0.0
   0
LINE
   8
LEVEL004
   6
DOT
  62
3
  10
 90.0000
  20
 211.000
  30
0.0
  11
 89.0000
  21
 207.268
  31
0.0
   0
LINE
   8
LEVEL004
   6
DOT
  62
3
  10
 89.0000
  20
 207.268
  30
0.0
  11
 85.7735
  21
 207.268
  31
0.0
   0
LINE
   8
LEVEL004
   6
DOT
  62
3
  10
 89.0000
  20
 211.000
  30
0.0
  11
 85.7735
  21
 211.000
  31
0.0
   0
LINE
   8
LEVEL004
   6
DOT
  62
3
  10
 85.0000
  20
 211.500
  30
0.0
  11
 85.7735
  21
 211.053
  31
0.0
   0
LINE
   8
LEVEL004
   6
DOT
  62
3
  10
 85.7735
  20
 211.053
  30
0.0
  11
 85.7735
  21
 198.947
  31
0.0
   0
LINE
   8
LEVEL004
   6
DOT
  62
3
  10
 75.0000
  20
 211.500
  30
0.0
  11
 85.0000
  21
 211.500
  31
0.0
   0
LINE
   8
LEVEL004
   6
DOT
  62
3
  10
 90.0000
  20
 223.000
  30
0.0
  11
 90.0000
  21
 211.000
  31
0.0
   0
LINE
   8
LEVEL004
   6
DOT
  62
3
  10
 90.0000
  20
 211.000
  30
0.0
  11
 89.0000
  21
 211.000
  31
0.0
   0
LINE
   8
LEVEL004
   6
DOT
  62
3
  10
 88.7500
  20
 213.000
  30
0.0
  11
 87.7500
  21
 212.000
  31
0.0
   0
LINE
   8
LEVEL004
   6
DOT
  62
3
  10
 72.2500
  20
 212.000
  30
0.0
  11
 87.7500
  21
 212.000
  31
0.0
   0
LINE
   8
LEVEL004
   6
DOT
  62
3
  10
 89.0000
  20
 222.000
  30
0.0
  11
 89.0000
  21
 207.268
  31
0.0
   0
LINE
   8
LEVEL004
   6
DOT
  62
3
  10
 88.7500
  20
 213.000
  30
0.0
  11
 88.7500
  21
 223.500
  31
0.0
   0
LINE
   8
LEVEL004
   6
DASHDOT
  62
1
  10
 68.2500
  20
 218.000
  30
0.0
  11
 87.4047
  21
 218.000
  31
0.0
   0
LINE
   8
LEVEL004
   6
DASHDOT
  62
1
  10
 76.5973
  20
 219.500
  30
0.0
  11
 76.1346
  21
 216.500
  31
0.0
   0
LINE
   8
LEVEL004
   6
DASHDOT
  62
1
  10
 76.1346
  20
 216.500
  30
0.0
  11
 75.6718
  21
 219.500
  31
0.0
   0
LINE
   8
LEVEL004
   6
DASHDOT
  62
1
  10
 75.6718
  20
 219.500
  30
0.0
  11
 75.2091
  21
 216.500
  31
0.0
   0
LINE
   8
LEVEL004
   6
DASHDOT
  62
1
  10
 75.2091
  20
 216.500
  30
0.0
  11
 74.7463
  21
 219.500
  31
0.0
   0
LINE
   8
LEVEL004
   6
DOT
  62
3
  10
 71.0000
  20
 207.268
  30
0.0
  11
 71.0000
  21
 199.000
  31
0.0
   0
LINE
   8
LEVEL004
   6
DOT
  62
3
  10
 74.2265
  20
 207.268
  30
0.0
  11
 71.0000
  21
 207.268
  31
0.0
   0
LINE
   8
LEVEL004
   6
DOT
  62
3
  10
 71.2500
  20
 213.000
  30
0.0
  11
 72.2500
  21
 212.000
  31
0.0
   0
CIRCLE
   8
LEVEL004
   6
DOT
  62
3
  10
 72.9844
  20
 218.000
  30
0.0
  40
 1.98438
   0
LINE
   8
LEVEL004
   6
DOT
  62
3
  10
 71.2500
  20
 213.000
  30
0.0
  11
 71.2500
  21
 217.036
  31
0.0
   0
LINE
   8
LEVEL004
   6
DOT
  62
3
  10
 71.2500
  20
 218.964
  30
0.0
  11
 71.2500
  21
 223.500
  31
0.0
   0
LINE
   8
LEVEL004
   6
DOT
  62
3
  10
 71.0000
  20
 222.000
  30
0.0
  11
 71.0000
  21
 207.268
  31
0.0
   0
LINE
   8
LEVEL004
   6
DOT
  62
3
  10
 70.0000
  20
 223.000
  30
0.0
  11
 70.0000
  21
 211.000
  31
0.0
   0
LINE
   8
LEVEL004
   6
DOT
  62
3
  10
 70.0000
  20
 211.000
  30
0.0
  11
 71.0000
  21
 211.000
  31
0.0
   0
LINE
   8
LEVEL004
   6
DOT
  62
3
  10
 70.0000
  20
 211.000
  30
0.0
  11
 71.0000
  21
 207.268
  31
0.0
   0
LINE
   8
LEVEL004
   6
DOT
  62
3
  10
 75.0000
  20
 211.500
  30
0.0
  11
 74.2265
  21
 211.053
  31
0.0
   0
LINE
   8
LEVEL004
   6
DOT
  62
3
  10
 74.2265
  20
 211.000
  30
0.0
  11
 71.0000
  21
 211.000
  31
0.0
   0
LINE
   8
LEVEL004
   6
DOT
  62
3
  10
 74.2265
  20
 211.053
  30
0.0
  11
 74.2265
  21
 198.947
  31
0.0
   0
LINE
   8
LEVEL004
   6
DOT
  62
3
  10
 71.2500
  20
 216.000
  30
0.0
  11
 83.2500
  21
 216.000
  31
0.0
   0
LINE
   8
LEVEL004
   6
DOT
  62
3
  10
 83.2500
  20
 220.000
  30
0.0
  11
 71.2500
  21
 220.000
  31
0.0
   0
LINE
   8
LEVEL004
   6
DASHDOT
  62
1
  10
 83.5387
  20
 216.500
  30
0.0
  11
 83.0760
  21
 219.500
  31
0.0
   0
LINE
   8
LEVEL004
   6
DASHDOT
  62
1
  10
 83.0760
  20
 219.500
  30
0.0
  11
 82.6132
  21
 216.500
  31
0.0
   0
LINE
   8
LEVEL004
   6
DASHDOT
  62
1
  10
 82.6132
  20
 216.500
  30
0.0
  11
 82.1504
  21
 219.500
  31
0.0
   0
LINE
   8
LEVEL004
   6
DASHDOT
  62
1
  10
 82.1504
  20
 219.500
  30
0.0
  11
 81.6877
  21
 216.500
  31
0.0
   0
LINE
   8
LEVEL004
   6
DOT
  62
3
  10
 83.2500
  20
 220.000
  30
0.0
  11
 83.2500
  21
 216.000
  31
0.0
   0
LINE
   8
LEVEL004
   6
DOT
  62
3
  10
 83.2500
  20
 216.000
  30
0.0
  11
 84.4047
  21
 218.000
  31
0.0
   0
LINE
   8
LEVEL004
   6
DOT
  62
3
  10
 84.4047
  20
 218.000
  30
0.0
  11
 83.2500
  21
 220.000
  31
0.0
   0
LINE
   8
LEVEL004
   6
DASHDOT
  62
1
  10
 79.8366
  20
 216.500
  30
0.0
  11
 79.3739
  21
 219.500
  31
0.0
   0
LINE
   8
LEVEL004
   6
DASHDOT
  62
1
  10
 79.3739
  20
 219.500
  30
0.0
  11
 78.9111
  21
 216.500
  31
0.0
   0
LINE
   8
LEVEL004
   6
DASHDOT
  62
1
  10
 78.9111
  20
 216.500
  30
0.0
  11
 78.4484
  21
 219.500
  31
0.0
   0
LINE
   8
LEVEL004
   6
DASHDOT
  62
1
  10
 78.4484
  20
 219.500
  30
0.0
  11
 77.9856
  21
 216.500
  31
0.0
   0
LINE
   8
LEVEL004
   6
DASHDOT
  62
1
  10
 77.9856
  20
 216.500
  30
0.0
  11
 77.5229
  21
 219.500
  31
0.0
   0
LINE
   8
LEVEL004
   6
DASHDOT
  62
1
  10
 77.5229
  20
 219.500
  30
0.0
  11
 77.0601
  21
 216.500
  31
0.0
   0
LINE
   8
LEVEL004
   6
DASHDOT
  62
1
  10
 77.0601
  20
 216.500
  30
0.0
  11
 76.5973
  21
 219.500
  31
0.0
   0
LINE
   8
LEVEL004
   6
DASHDOT
  62
1
  10
 81.6877
  20
 216.500
  30
0.0
  11
 81.2249
  21
 219.500
  31
0.0
   0
LINE
   8
LEVEL004
   6
DASHDOT
  62
1
  10
 81.2249
  20
 219.500
  30
0.0
  11
 80.7622
  21
 216.500
  31
0.0
   0
LINE
   8
LEVEL004
   6
DASHDOT
  62
1
  10
 80.7622
  20
 216.500
  30
0.0
  11
 80.2994
  21
 219.500
  31
0.0
   0
LINE
   8
LEVEL004
   6
DASHDOT
  62
1
  10
 80.2994
  20
 219.500
  30
0.0
  11
 79.8366
  21
 216.500
  31
0.0
   0
LINE
   8
LEVEL004
   6
DOT
  62
3
  10
 90.0000
  20
 224.500
  30
0.0
  11
 90.5000
  21
 225.000
  31
0.0
   0
LINE
   8
LEVEL004
   6
DOT
  62
3
  10
 90.0000
  20
 224.500
  30
0.0
  11
 90.0000
  21
 222.990
  31
0.0
   0
ARC
   8
LEVEL004
   6
DOT
  62
3
  10
 90.2500
  20
 223.500
  30
0.0
  40
 1.50000
  50
 90.0000
  51
 180.000
   0
LINE
   8
LEVEL004
   6
DOT
  62
3
  10
 90.0000
  20
 222.990
  30
0.0
  11
 88.7500
  21
 222.990
  31
0.0
   0
LINE
   8
LEVEL004
   6
DOT
  62
3
  10
 90.0000
  20
 223.000
  30
0.0
  11
 89.0000
  21
 222.000
  31
0.0
   0
LINE
   8
LEVEL004
   6
DOT
  62
3
  10
 70.0000
  20
 224.500
  30
0.0
  11
 69.5000
  21
 225.000
  31
0.0
   0
ARC
   8
LEVEL004
   6
DOT
  62
3
  10
 69.7500
  20
 223.500
  30
0.0
  40
 1.50000
  50
0.0
  51
 90.0000
   0
LINE
   8
LEVEL004
   6
DOT
  62
3
  10
 70.0000
  20
 224.500
  30
0.0
  11
 70.0000
  21
 222.990
  31
0.0
   0
LINE
   8
LEVEL004
   6
DOT
  62
3
  10
 70.0000
  20
 222.990
  30
0.0
  11
 71.2500
  21
 222.990
  31
0.0
   0
LINE
   8
LEVEL004
   6
DOT
  62
3
  10
 70.0000
  20
 223.000
  30
0.0
  11
 71.0000
  21
 222.000
  31
0.0
   0
LINE
   8
LEVEL004
   6
DASHDOT
  62
1
  10
 66.0000
  20
 70.0000
  30
0.0
  11
 66.0000
  21
 88.0000
  31
0.0
   0
LINE
   8
LEVEL004
   6
DOT
  62
3
  10
 68.5000
  20
 73.5000
  30
0.0
  11
 68.5000
  21
 84.8660
  31
0.0
   0
LINE
   8
LEVEL004
   6
DOT
  62
3
  10
 68.5000
  20
 84.8660
  30
0.0
  11
 66.0000
  21
 86.3094
  31
0.0
   0
LINE
   8
LEVEL004
   6
DOT
  62
3
  10
 66.0000
  20
 86.3094
  30
0.0
  11
 63.5000
  21
 84.8660
  31
0.0
   0
LINE
   8
LEVEL004
   6
DOT
  62
3
  10
 63.5000
  20
 84.8660
  30
0.0
  11
 63.5000
  21
 73.5000
  31
0.0
   0
LINE
   8
LEVEL004
   6
DOT
  62
3
  10
 69.0000
  20
 73.0000
  30
0.0
  11
 69.0000
  21
 83.0000
  31
0.0
   0
LINE
   8
LEVEL004
   6
DOT
  62
3
  10
 69.0000
  20
 83.0000
  30
0.0
  11
 68.5000
  21
 84.8660
  31
0.0
   0
LINE
   8
LEVEL004
   6
DOT
  62
3
  10
 63.5000
  20
 84.8660
  30
0.0
  11
 63.0000
  21
 83.0000
  31
0.0
   0
LINE
   8
LEVEL004
   6
DOT
  62
3
  10
 63.0000
  20
 83.0000
  30
0.0
  11
 63.0000
  21
 73.0000
  31
0.0
   0
LINE
   8
LEVEL004
   6
DOT
  62
3
  10
 68.5000
  20
 84.8660
  30
0.0
  11
 63.5000
  21
 84.8660
  31
0.0
   0
LINE
   8
LEVEL004
   6
DOT
  62
3
  10
 69.0000
  20
 83.0000
  30
0.0
  11
 63.0000
  21
 83.0000
  31
0.0
   0
LINE
   8
LEVEL004
   6
DASHDOT
  62
1
  10
 94.0000
  20
 70.0000
  30
0.0
  11
 94.0000
  21
 83.0000
  31
0.0
   0
LINE
   8
LEVEL003
   6
CONTINUOUS
  62
3
  10
 99.7500
  20
 225.000
  30
0.0
  11
 132.000
  21
 225.000
  31
0.0
   0
LINE
   8
LEVEL003
   6
CONTINUOUS
  62
3
  10
 102.000
  20
 202.000
  30
0.0
  11
 132.000
  21
 202.000
  31
0.0
   0
LINE
   8
LEVEL003
   6
CONTINUOUS
  62
3
  10
 130.000
  20
 225.000
  30
0.0
  11
 130.000
  21
 202.000
  31
0.0
   0
LINE
   8
LEVEL003
   6
CONTINUOUS
  62
3
  10
 130.000
  20
 225.000
  30
0.0
  11
 129.471
  21
 222.000
  31
0.0
   0
LINE
   8
LEVEL003
   6
CONTINUOUS
  62
3
  10
 130.000
  20
 225.000
  30
0.0
  11
 130.529
  21
 222.000
  31
0.0
   0
LINE
   8
LEVEL003
   6
CONTINUOUS
  62
3
  10
 130.000
  20
 202.000
  30
0.0
  11
 130.529
  21
 205.000
  31
0.0
   0
LINE
   8
LEVEL003
   6
CONTINUOUS
  62
3
  10
 130.000
  20
 202.000
  30
0.0
  11
 129.471
  21
 205.000
  31
0.0
   0
TEXT
   8
LEVEL003
  62
3
  10
 129.200
  20
 209.500
  30
0.0
  40
 4.00000
   1
23
  50
 90.0000
   7
STANDARD
  72
1
  11
 129.200
  21
 213.500
  31
0.0
   0
LINE
   8
LEVEL003
   6
CONTINUOUS
  62
3
  10
 92.5000
  20
 230.000
  30
0.0
  11
 132.000
  21
 230.000
  31
0.0
   0
LINE
   8
LEVEL003
   6
CONTINUOUS
  62
3
  10
 99.7500
  20
 225.000
  30
0.0
  11
 132.000
  21
 225.000
  31
0.0
   0
LINE
   8
LEVEL003
   6
CONTINUOUS
  62
3
  10
 130.000
  20
 230.000
  30
0.0
  11
 130.000
  21
 225.000
  31
0.0
   0
LINE
   8
LEVEL003
   6
CONTINUOUS
  62
3
  10
 130.000
  20
 230.000
  30
0.0
  11
 130.529
  21
 233.000
  31
0.0
   0
LINE
   8
LEVEL003
   6
CONTINUOUS
  62
3
  10
 130.000
  20
 230.000
  30
0.0
  11
 129.471
  21
 233.000
  31
0.0
   0
LINE
   8
LEVEL003
   6
CONTINUOUS
  62
3
  10
 130.000
  20
 225.000
  30
0.0
  11
 129.471
  21
 222.000
  31
0.0
   0
LINE
   8
LEVEL003
   6
CONTINUOUS
  62
3
  10
 130.000
  20
 225.000
  30
0.0
  11
 130.529
  21
 222.000
  31
0.0
   0
LINE
   8
LEVEL003
   6
CONTINUOUS
  62
3
  10
 130.000
  20
 230.000
  30
0.0
  11
 130.000
  21
 233.750
  31
0.0
   0
LINE
   8
LEVEL003
   6
CONTINUOUS
  62
3
  10
 130.000
  20
 225.000
  30
0.0
  11
 130.000
  21
 221.250
  31
0.0
   0
TEXT
   8
LEVEL003
  62
3
  10
 129.200
  20
 225.500
  30
0.0
  40
 4.00000
   1
5
  50
 90.0000
   7
STANDARD
  72
1
  11
 129.200
  21
 227.500
  31
0.0
   0
LINE
   8
LEVEL003
   6
CONTINUOUS
  62
3
  10
 99.7500
  20
 225.000
  30
0.0
  11
 122.000
  21
 225.000
  31
0.0
   0
LINE
   8
LEVEL003
   6
CONTINUOUS
  62
3
  10
 101.250
  20
 222.000
  30
0.0
  11
 122.000
  21
 222.000
  31
0.0
   0
LINE
   8
LEVEL003
   6
CONTINUOUS
  62
3
  10
 120.000
  20
 225.000
  30
0.0
  11
 120.000
  21
 222.000
  31
0.0
   0
LINE
   8
LEVEL003
   6
CONTINUOUS
  62
3
  10
 120.000
  20
 222.000
  30
0.0
  11
 120.000
  21
 218.000
  31
0.0
   0
LINE
   8
LEVEL003
   6
CONTINUOUS
  62
3
  10
 120.000
  20
 225.000
  30
0.0
  11
 120.529
  21
 228.000
  31
0.0
   0
LINE
   8
LEVEL003
   6
CONTINUOUS
  62
3
  10
 120.000
  20
 225.000
  30
0.0
  11
 119.471
  21
 228.000
  31
0.0
   0
LINE
   8
LEVEL003
   6
CONTINUOUS
  62
3
  10
 120.000
  20
 222.000
  30
0.0
  11
 119.471
  21
 219.000
  31
0.0
   0
LINE
   8
LEVEL003
   6
CONTINUOUS
  62
3
  10
 120.000
  20
 222.000
  30
0.0
  11
 120.529
  21
 219.000
  31
0.0
   0
LINE
   8
LEVEL003
   6
CONTINUOUS
  62
3
  10
 120.000
  20
 225.000
  30
0.0
  11
 120.000
  21
 228.750
  31
0.0
   0
LINE
   8
LEVEL003
   6
CONTINUOUS
  62
3
  10
 120.000
  20
 222.000
  30
0.0
  11
 120.000
  21
 218.000
  31
0.0
   0
TEXT
   8
LEVEL003
  62
3
  10
 119.200
  20
 218.000
  30
0.0
  40
 4.00000
   1
3
  50
 90.0000
   7
STANDARD
  72
1
  11
 119.200
  21
 220.000
  31
0.0
   0
LINE
   8
LEVEL003
   6
CONTINUOUS
  62
3
  10
 99.7500
  20
 225.000
  30
0.0
  11
 112.000
  21
 225.000
  31
0.0
   0
LINE
   8
LEVEL003
   6
CONTINUOUS
  62
3
  10
 86.0000
  20
 211.500
  30
0.0
  11
 112.000
  21
 211.500
  31
0.0
   0
LINE
   8
LEVEL003
   6
CONTINUOUS
  62
3
  10
 110.000
  20
 225.000
  30
0.0
  11
 110.000
  21
 211.500
  31
0.0
   0
LINE
   8
LEVEL003
   6
CONTINUOUS
  62
3
  10
 110.000
  20
 225.000
  30
0.0
  11
 109.471
  21
 222.000
  31
0.0
   0
LINE
   8
LEVEL003
   6
CONTINUOUS
  62
3
  10
 110.000
  20
 225.000
  30
0.0
  11
 110.529
  21
 222.000
  31
0.0
   0
LINE
   8
LEVEL003
   6
CONTINUOUS
  62
3
  10
 110.000
  20
 211.500
  30
0.0
  11
 110.529
  21
 214.500
  31
0.0
   0
LINE
   8
LEVEL003
   6
CONTINUOUS
  62
3
  10
 110.000
  20
 211.500
  30
0.0
  11
 109.471
  21
 214.500
  31
0.0
   0
TEXT
   8
LEVEL003
  62
3
  10
 109.200
  20
 214.250
  30
0.0
  40
 4.00000
   1
13
  50
 90.0000
   7
STANDARD
  72
1
  11
 109.200
  21
 218.250
  31
0.0
   0
ENDSEC
   0
EOF
