   0
SECTION
   2
HEADER
   9
$LIMMIN
  10
0.0
  20
0.0
   9
$LIMMAX
  10
 630.000
  20
 570.000
   9
$EXTMIN
  10
0.0
  20
0.0
   9
$EXTMAX
  10
 630.000
  20
 570.000
   9
$LTSCALE
  40
 12.6000
   0
ENDSEC
   0
SECTION
   2
TABLES
  0
TABLE
  2
LTYPE
 70
    25
  0
LTYPE
  2
CONTINUOUS
 70
    64
  3
Solid line
 72
    65
 73
     0
 40
0.0
  0
LTYPE
  2
BORDER
 70
    64
  3
__ __ . __ __ . __ __ . __ __ . __ __ . __ __ .
 72
    65
 73
     6
 40
1.75
 49
0.5
 49
-0.25
 49
0.5
 49
-0.25
 49
0.0
 49
-0.25
  0
LTYPE
  2
BORDER2
 70
    64
  3
__.__.__.__.__.__.__.__.__.__.__.__.__.__.__.__
 72
    65
 73
     6
 40
0.875
 49
0.25
 49
-0.125
 49
0.25
 49
-0.125
 49
0.0
 49
-0.125
  0
LTYPE
  2
BORDERX2
 70
    64
  3
____  ____  .  ____  ____  .  ____  ____  .  __
 72
    65
 73
     6
 40
3.5
 49
1.0
 49
-0.5
 49
1.0
 49
-0.5
 49
0.0
 49
-0.5
  0
LTYPE
  2
CENTER
 70
    64
  3
____ _ ____ _ ____ _ ____ _ ____ _ ____ _ ____ 
 72
    65
 73
     4
 40
2.0
 49
1.25
 49
-0.25
 49
0.25
 49
-0.25
  0
LTYPE
  2
CENTER2
 70
    64
  3
___ _ ___ _ ___ _ ___ _ ___ _ ___ _ ___ _ ___ _
 72
    65
 73
     4
 40
1.125
 49
0.75
 49
-0.125
 49
0.125
 49
-0.125
  0
LTYPE
  2
CENTERX2
 70
    64
  3
________  __  ________  __  ________  __  _____
 72
    65
 73
     4
 40
4.0
 49
2.5
 49
-0.5
 49
0.5
 49
-0.5
  0
LTYPE
  2
DASHDOT
 70
    64
  3
__ . __ . __ . __ . __ . __ . __ . __ . __ . __
 72
    65
 73
     4
 40
1.0
 49
0.5
 49
-0.25
 49
0.0
 49
-0.25
  0
LTYPE
  2
DASHDOT2
 70
    64
  3
_._._._._._._._._._._._._._._._._._._._._._._._
 72
    65
 73
     4
 40
0.5
 49
0.25
 49
-0.125
 49
0.0
 49
-0.125
  0
LTYPE
  2
DASHDOTX2
 70
    64
  3
____  .  ____  .  ____  .  ____  .  ____  .  __
 72
    65
 73
     4
 40
2.0
 49
1.0
 49
-0.5
 49
0.0
 49
-0.5
  0
LTYPE
  2
DASHED
 70
    64
  3
__ __ __ __ __ __ __ __ __ __ __ __ __ __ __ __
 72
    65
 73
     2
 40
0.75
 49
0.5
 49
-0.25
  0
LTYPE
  2
DASHED2
 70
    64
  3
_ _ _ _ _ _ _ _ _ _ _ _ _ _ _ _ _ _ _ _ _ _ _ _
 72
    65
 73
     2
 40
0.375
 49
0.25
 49
-0.125
  0
LTYPE
  2
DASHEDX2
 70
    64
  3
____  ____  ____  ____  ____  ____  ____  ____ 
 72
    65
 73
     2
 40
1.5
 49
1.0
 49
-0.5
  0
LTYPE
  2
DIVIDE
 70
    64
  3
____ . . ____ . . ____ . . ____ . . ____ . . __
 72
    65
 73
     6
 40
1.25
 49
0.5
 49
-0.25
 49
0.0
 49
-0.25
 49
0.0
 49
-0.25
  0
LTYPE
  2
DIVIDE2
 70
    64
  3
__..__..__..__..__..__..__..__..__..__..__..__.
 72
    65
 73
     6
 40
0.625
 49
0.25
 49
-0.125
 49
0.0
 49
-0.125
 49
0.0
 49
-0.125
  0
LTYPE
  2
DIVIDEX2
 70
    64
  3
________  .  .  ________  .  .  ________  .  . 
 72
    65
 73
     6
 40
2.5
 49
1.0
 49
-0.5
 49
0.0
 49
-0.5
 49
0.0
 49
-0.5
  0
LTYPE
  2
DOT
 70
    64
  3
. . . . . . . . . . . . . . . . . . . . . . . .
 72
    65
 73
     2
 40
0.25
 49
0.0
 49
-0.25
  0
LTYPE
  2
DOT2
 70
    64
  3
...............................................
 72
    65
 73
     2
 40
0.125
 49
0.0
 49
-0.125
  0
LTYPE
  2
DOTX2
 70
    64
  3
.  .  .  .  .  .  .  .  .  .  .  .  .  .  .  . 
 72
    65
 73
     2
 40
0.5
 49
0.0
 49
-0.5
  0
LTYPE
  2
HIDDEN
 70
    64
  3
__ __ __ __ __ __ __ __ __ __ __ __ __ __ __ __
 72
    65
 73
     2
 40
0.375
 49
0.25
 49
-0.125
  0
LTYPE
  2
HIDDEN2
 70
    64
  3
_ _ _ _ _ _ _ _ _ _ _ _ _ _ _ _ _ _ _ _ _ _ _ _
 72
    65
 73
     2
 40
0.1875
 49
0.125
 49
-0.0625
  0
LTYPE
  2
HIDDENX2
 70
    64
  3
____ ____ ____ ____ ____ ____ ____ ____ ____ __
 72
    65
 73
     2
 40
0.75
 49
0.5
 49
-0.25
  0
LTYPE
  2
PHANTOM
 70
    64
  3
______  __  __  ______  __  __  ______  __  __ 
 72
    65
 73
     6
 40
2.5
 49
1.25
 49
-0.25
 49
0.25
 49
-0.25
 49
0.25
 49
-0.25
  0
LTYPE
  2
PHANTOM2
 70
    64
  3
___ _ _ ___ _ _ ___ _ _ ___ _ _ ___ _ _ ___ _ _
 72
    65
 73
     6
 40
1.25
 49
0.625
 49
-0.125
 49
0.125
 49
-0.125
 49
0.125
 49
-0.125
  0
LTYPE
  2
PHANTOMX2
 70
    64
  3
____________    ____    ____    ____________   
 72
    65
 73
     6
 40
5.0
 49
2.5
 49
-0.5
 49
0.5
 49
-0.5
 49
0.5
 49
-0.5
  0
ENDTAB
  0
TABLE
  2
STYLE
 70
     2
  0
STYLE
  2
STANDARD
 70
0
 40
0.0
 41
1.0
 50
0.0
 71
0
 42
0.2
  3
TXT
  4
BIGFONT
  0
STYLE
  2
STANDARD1
 70
     4
 40
0.0
 41
1.0
 50
0.0
 71
     0
 42
0.2
  3
TXT
  4
BIGFONT
  0
ENDTAB
   0
TABLE
   2
LAYER
  70
4
   0
LAYER
   2
0
  70
0
  62
7
   6
CONTINUOUS
   0
LAYER
   2
LEVEL001
  70
0
  62
7
   6
CONTINUOUS
   0
LAYER
   2
LEVEL003
  70
0
  62
7
   6
CONTINUOUS
   0
LAYER
   2
LEVEL004
  70
0
  62
7
   6
CONTINUOUS
   0
ENDTAB
   0
ENDSEC
   0
SECTION
   2
ENTITIES
   0
LINE
   8
LEVEL003
   6
CONTINUOUS
  62
3
  10
 110.000
  20
 243.000
  30
0.0
  11
 110.000
  21
 214.500
  31
0.0
   0
LINE
   8
LEVEL003
   6
CONTINUOUS
  62
3
  10
 220.000
  20
 243.000
  30
0.0
  11
 220.000
  21
 214.500
  31
0.0
   0
LINE
   8
LEVEL003
   6
CONTINUOUS
  62
3
  10
 110.000
  20
 217.500
  30
0.0
  11
 220.000
  21
 217.500
  31
0.0
   0
LINE
   8
LEVEL003
   6
CONTINUOUS
  62
3
  10
 110.000
  20
 217.500
  30
0.0
  11
 114.500
  21
 216.707
  31
0.0
   0
LINE
   8
LEVEL003
   6
CONTINUOUS
  62
3
  10
 110.000
  20
 217.500
  30
0.0
  11
 114.500
  21
 218.293
  31
0.0
   0
LINE
   8
LEVEL003
   6
CONTINUOUS
  62
3
  10
 220.000
  20
 217.500
  30
0.0
  11
 215.500
  21
 218.293
  31
0.0
   0
LINE
   8
LEVEL003
   6
CONTINUOUS
  62
3
  10
 220.000
  20
 217.500
  30
0.0
  11
 215.500
  21
 216.707
  31
0.0
   0
TEXT
   8
LEVEL003
  62
3
  10
 157.500
  20
 218.700
  30
0.0
  40
 6.00000
   1
%%c110
   7
STANDARD
  72
1
  11
 165.000
  21
 218.700
  31
0.0
   0
TEXT
   8
LEVEL003
  62
3
  10
 255.000
  20
 232.500
  30
0.0
  40
 6.00000
   1
ＮＰＴ３／８
   7
STANDARD
   0
LINE
   8
LEVEL003
   6
CONTINUOUS
  62
3
  10
 240.865
  20
 269.079
  30
0.0
  11
 255.000
  21
 232.500
  31
0.0
   0
LINE
   8
LEVEL003
   6
CONTINUOUS
  62
3
  10
 240.865
  20
 269.079
  30
0.0
  11
 241.747
  21
 264.596
  31
0.0
   0
LINE
   8
LEVEL003
   6
CONTINUOUS
  62
3
  10
 240.865
  20
 269.079
  30
0.0
  11
 243.227
  21
 265.168
  31
0.0
   0
TEXT
   8
LEVEL003
  62
3
  10
 270.000
  20
 457.500
  30
0.0
  40
 6.00000
   1
Ｍ１４６×３
   7
STANDARD
   0
LINE
   8
LEVEL003
   6
CONTINUOUS
  62
3
  10
 238.000
  20
 487.500
  30
0.0
  11
 270.000
  21
 457.500
  31
0.0
   0
LINE
   8
LEVEL003
   6
CONTINUOUS
  62
3
  10
 238.000
  20
 487.500
  30
0.0
  11
 240.740
  21
 483.843
  31
0.0
   0
LINE
   8
LEVEL003
   6
CONTINUOUS
  62
3
  10
 238.000
  20
 487.500
  30
0.0
  11
 241.826
  21
 485.001
  31
0.0
   0
LINE
   8
LEVEL003
   6
CONTINUOUS
  62
3
  10
 117.500
  20
 405.000
  30
0.0
  11
 212.500
  21
 405.000
  31
0.0
   0
LINE
   8
LEVEL003
   6
CONTINUOUS
  62
3
  10
 117.500
  20
 405.000
  30
0.0
  11
 122.000
  21
 404.207
  31
0.0
   0
LINE
   8
LEVEL003
   6
CONTINUOUS
  62
3
  10
 117.500
  20
 405.000
  30
0.0
  11
 122.000
  21
 405.793
  31
0.0
   0
LINE
   8
LEVEL003
   6
CONTINUOUS
  62
3
  10
 212.500
  20
 405.000
  30
0.0
  11
 208.000
  21
 405.793
  31
0.0
   0
LINE
   8
LEVEL003
   6
CONTINUOUS
  62
3
  10
 212.500
  20
 405.000
  30
0.0
  11
 208.000
  21
 404.207
  31
0.0
   0
TEXT
   8
LEVEL003
  62
3
  10
 159.000
  20
 406.200
  30
0.0
  40
 6.00000
   1
%%c95
   7
STANDARD
  72
1
  11
 165.000
  21
 406.200
  31
0.0
   0
LINE
   8
LEVEL003
   6
CONTINUOUS
  62
3
  10
 109.000
  20
 390.000
  30
0.0
  11
 221.000
  21
 390.000
  31
0.0
   0
LINE
   8
LEVEL003
   6
CONTINUOUS
  62
3
  10
 109.000
  20
 390.000
  30
0.0
  11
 113.500
  21
 389.207
  31
0.0
   0
LINE
   8
LEVEL003
   6
CONTINUOUS
  62
3
  10
 109.000
  20
 390.000
  30
0.0
  11
 113.500
  21
 390.793
  31
0.0
   0
LINE
   8
LEVEL003
   6
CONTINUOUS
  62
3
  10
 221.000
  20
 390.000
  30
0.0
  11
 216.500
  21
 390.793
  31
0.0
   0
LINE
   8
LEVEL003
   6
CONTINUOUS
  62
3
  10
 221.000
  20
 390.000
  30
0.0
  11
 216.500
  21
 389.207
  31
0.0
   0
TEXT
   8
LEVEL003
  62
3
  10
 157.500
  20
 391.200
  30
0.0
  40
 6.00000
   1
%%c112
   7
STANDARD
  72
1
  11
 165.000
  21
 391.200
  31
0.0
   0
LINE
   8
LEVEL003
   6
CONTINUOUS
  62
3
  10
 92.0000
  20
 375.000
  30
0.0
  11
 238.000
  21
 375.000
  31
0.0
   0
LINE
   8
LEVEL003
   6
CONTINUOUS
  62
3
  10
 92.0000
  20
 375.000
  30
0.0
  11
 96.5000
  21
 374.207
  31
0.0
   0
LINE
   8
LEVEL003
   6
CONTINUOUS
  62
3
  10
 92.0000
  20
 375.000
  30
0.0
  11
 96.5000
  21
 375.793
  31
0.0
   0
LINE
   8
LEVEL003
   6
CONTINUOUS
  62
3
  10
 238.000
  20
 375.000
  30
0.0
  11
 233.500
  21
 375.793
  31
0.0
   0
LINE
   8
LEVEL003
   6
CONTINUOUS
  62
3
  10
 238.000
  20
 375.000
  30
0.0
  11
 233.500
  21
 374.207
  31
0.0
   0
TEXT
   8
LEVEL003
  62
3
  10
 157.500
  20
 376.200
  30
0.0
  40
 6.00000
   1
%%c146
   7
STANDARD
  72
1
  11
 165.000
  21
 376.200
  31
0.0
   0
LINE
   8
LEVEL003
   6
CONTINUOUS
  62
3
  10
 125.000
  20
 532.000
  30
0.0
  11
 125.000
  21
 565.500
  31
0.0
   0
LINE
   8
LEVEL003
   6
CONTINUOUS
  62
3
  10
 205.000
  20
 532.000
  30
0.0
  11
 205.000
  21
 565.500
  31
0.0
   0
LINE
   8
LEVEL003
   6
CONTINUOUS
  62
3
  10
 125.000
  20
 562.500
  30
0.0
  11
 205.000
  21
 562.500
  31
0.0
   0
LINE
   8
LEVEL003
   6
CONTINUOUS
  62
3
  10
 125.000
  20
 562.500
  30
0.0
  11
 129.500
  21
 561.707
  31
0.0
   0
LINE
   8
LEVEL003
   6
CONTINUOUS
  62
3
  10
 125.000
  20
 562.500
  30
0.0
  11
 129.500
  21
 563.293
  31
0.0
   0
LINE
   8
LEVEL003
   6
CONTINUOUS
  62
3
  10
 205.000
  20
 562.500
  30
0.0
  11
 200.500
  21
 563.293
  31
0.0
   0
LINE
   8
LEVEL003
   6
CONTINUOUS
  62
3
  10
 205.000
  20
 562.500
  30
0.0
  11
 200.500
  21
 561.707
  31
0.0
   0
TEXT
   8
LEVEL003
  62
3
  10
 159.000
  20
 563.700
  30
0.0
  40
 6.00000
   1
%%c80
   7
STANDARD
  72
1
  11
 165.000
  21
 563.700
  31
0.0
   0
LINE
   8
LEVEL001
   6
CONTINUOUS
  62
3
  10
 248.000
  20
 268.857
  30
0.0
  11
 244.384
  21
 269.826
  31
0.0
   0
LINE
   8
LEVEL001
   6
CONTINUOUS
  62
7
  10
 248.000
  20
 268.857
  30
0.0
  11
 249.484
  21
 268.000
  31
0.0
   0
LINE
   8
LEVEL001
   6
CONTINUOUS
  62
7
  10
 265.000
  20
 268.000
  30
0.0
  11
 249.484
  21
 268.000
  31
0.0
   0
ARC
   8
LEVEL001
   6
CONTINUOUS
  62
7
  10
 266.500
  20
 264.500
  30
0.0
  40
 1.50000
  50
 180.000
  51
 270.000
   0
LINE
   8
LEVEL001
   6
CONTINUOUS
  62
7
  10
 265.000
  20
 264.500
  30
0.0
  11
 265.000
  21
 290.500
  31
0.0
   0
LINE
   8
LEVEL001
   6
CONTINUOUS
  62
7
  10
 266.500
  20
 263.000
  30
0.0
  11
 271.500
  21
 263.000
  31
0.0
   0
ARC
   8
LEVEL001
   6
CONTINUOUS
  62
7
  10
 287.500
  20
 264.500
  30
0.0
  40
 1.50000
  50
 270.000
  51
 0.173701E-10
   0
LINE
   8
LEVEL001
   6
CONTINUOUS
  62
7
  10
 282.500
  20
 263.000
  30
0.0
  11
 287.500
  21
 263.000
  31
0.0
   0
LINE
   8
LEVEL001
   6
CONTINUOUS
  62
7
  10
 289.000
  20
 290.500
  30
0.0
  11
 289.000
  21
 264.500
  31
0.0
   0
ARC
   8
LEVEL001
   6
DASHDOT
  62
1
  10
 298.000
  20
 264.500
  30
0.0
  40
 1.00000
  50
 270.000
  51
 0.435426E-3
   0
LINE
   8
LEVEL001
   6
DASHDOT
  62
1
  10
 290.000
  20
 263.500
  30
0.0
  11
 298.000
  21
 263.500
  31
0.0
   0
LINE
   8
LEVEL001
   6
DASHDOT
  62
1
  10
 299.000
  20
 290.500
  30
0.0
  11
 299.000
  21
 264.500
  31
0.0
   0
CIRCLE
   8
LEVEL001
   6
DASHDOT
  62
1
  10
 302.000
  20
 277.500
  30
0.0
  40
 1.50000
   0
ARC
   8
LEVEL001
   6
DASHDOT
  62
1
  10
 290.000
  20
 264.500
  30
0.0
  40
 1.00000
  50
 180.000
  51
 270.000
   0
ARC
   8
LEVEL001
   6
DASHDOT
  62
1
  10
 301.000
  20
 272.000
  30
0.0
  40
 2.00000
  50
 90.0002
  51
 180.000
   0
LINE
   8
LEVEL001
   6
DASHDOT
  62
1
  10
 301.000
  20
 274.000
  30
0.0
  11
 301.500
  21
 274.000
  31
0.0
   0
ARC
   8
LEVEL001
   6
DASHDOT
  62
1
  10
 301.493
  20
 277.500
  30
0.0
  40
 3.50000
  50
 270.121
  51
 89.8785
   0
LINE
   8
LEVEL001
   6
CONTINUOUS
  62
7
  10
 249.484
  20
 268.000
  30
0.0
  11
 249.484
  21
 271.669
  31
0.0
   0
LINE
   8
LEVEL001
   6
CONTINUOUS
  62
7
  10
 244.000
  20
 273.461
  30
0.0
  11
 258.000
  21
 283.331
  31
0.0
   0
LINE
   8
LEVEL001
   6
CONTINUOUS
  62
7
  10
 244.000
  20
 281.539
  30
0.0
  11
 258.000
  21
 271.669
  31
0.0
   0
LINE
   8
LEVEL001
   6
CONTINUOUS
  62
3
  10
 244.384
  20
 273.461
  30
0.0
  11
 244.384
  21
 269.826
  31
0.0
   0
LINE
   8
LEVEL001
   6
CONTINUOUS
  62
7
  10
 248.000
  20
 273.203
  30
0.0
  11
 248.000
  21
 268.857
  31
0.0
   0
LINE
   8
LEVEL001
   6
CONTINUOUS
  62
3
  10
 271.500
  20
 264.500
  30
0.0
  11
 282.500
  21
 264.500
  31
0.0
   0
LINE
   8
LEVEL001
   6
CONTINUOUS
  62
3
  10
 271.500
  20
 266.500
  30
0.0
  11
 282.500
  21
 266.500
  31
0.0
   0
LINE
   8
LEVEL001
   6
CONTINUOUS
  62
3
  10
 271.500
  20
 268.500
  30
0.0
  11
 282.500
  21
 268.500
  31
0.0
   0
LINE
   8
LEVEL001
   6
CONTINUOUS
  62
3
  10
 271.500
  20
 270.500
  30
0.0
  11
 282.500
  21
 270.500
  31
0.0
   0
LINE
   8
LEVEL001
   6
CONTINUOUS
  62
3
  10
 271.500
  20
 272.500
  30
0.0
  11
 282.500
  21
 272.500
  31
0.0
   0
LINE
   8
LEVEL001
   6
CONTINUOUS
  62
3
  10
 271.500
  20
 274.500
  30
0.0
  11
 282.500
  21
 274.500
  31
0.0
   0
LINE
   8
LEVEL001
   6
CONTINUOUS
  62
3
  10
 271.500
  20
 276.500
  30
0.0
  11
 282.500
  21
 276.500
  31
0.0
   0
LINE
   8
LEVEL001
   6
CONTINUOUS
  62
7
  10
 244.000
  20
 273.461
  30
0.0
  11
 244.000
  21
 281.539
  31
0.0
   0
LINE
   8
LEVEL001
   6
CONTINUOUS
  62
7
  10
 244.000
  20
 281.539
  30
0.0
  11
 248.000
  21
 281.797
  31
0.0
   0
LINE
   8
LEVEL001
   6
CONTINUOUS
  62
7
  10
 248.000
  20
 281.797
  30
0.0
  11
 249.484
  21
 283.331
  31
0.0
   0
LINE
   8
LEVEL001
   6
CONTINUOUS
  62
7
  10
 249.484
  20
 283.331
  30
0.0
  11
 258.000
  21
 283.331
  31
0.0
   0
LINE
   8
LEVEL001
   6
CONTINUOUS
  62
7
  10
 258.000
  20
 283.331
  30
0.0
  11
 258.000
  21
 271.669
  31
0.0
   0
LINE
   8
LEVEL001
   6
CONTINUOUS
  62
7
  10
 258.000
  20
 271.669
  30
0.0
  11
 249.484
  21
 271.669
  31
0.0
   0
LINE
   8
LEVEL001
   6
CONTINUOUS
  62
7
  10
 249.484
  20
 271.669
  30
0.0
  11
 248.000
  21
 273.203
  31
0.0
   0
LINE
   8
LEVEL001
   6
CONTINUOUS
  62
7
  10
 248.000
  20
 273.203
  30
0.0
  11
 244.000
  21
 273.461
  31
0.0
   0
LINE
   8
LEVEL001
   6
CONTINUOUS
  62
7
  10
 271.500
  20
 262.500
  30
0.0
  11
 271.500
  21
 292.500
  31
0.0
   0
LINE
   8
LEVEL001
   6
CONTINUOUS
  62
7
  10
 271.500
  20
 292.500
  30
0.0
  11
 282.500
  21
 292.500
  31
0.0
   0
LINE
   8
LEVEL001
   6
CONTINUOUS
  62
7
  10
 282.500
  20
 292.500
  30
0.0
  11
 282.500
  21
 262.500
  31
0.0
   0
LINE
   8
LEVEL001
   6
CONTINUOUS
  62
7
  10
 282.500
  20
 262.500
  30
0.0
  11
 271.500
  21
 262.500
  31
0.0
   0
LINE
   8
LEVEL001
   6
CONTINUOUS
  62
3
  10
 248.000
  20
 286.144
  30
0.0
  11
 244.384
  21
 285.175
  31
0.0
   0
LINE
   8
LEVEL001
   6
CONTINUOUS
  62
7
  10
 248.000
  20
 286.144
  30
0.0
  11
 249.484
  21
 287.000
  31
0.0
   0
LINE
   8
LEVEL001
   6
CONTINUOUS
  62
7
  10
 265.000
  20
 287.000
  30
0.0
  11
 249.484
  21
 287.000
  31
0.0
   0
ARC
   8
LEVEL001
   6
CONTINUOUS
  62
7
  10
 266.500
  20
 290.500
  30
0.0
  40
 1.50000
  50
 90.0000
  51
 180.000
   0
LINE
   8
LEVEL001
   6
CONTINUOUS
  62
7
  10
 266.500
  20
 292.000
  30
0.0
  11
 271.500
  21
 292.000
  31
0.0
   0
ARC
   8
LEVEL001
   6
CONTINUOUS
  62
7
  10
 287.500
  20
 290.500
  30
0.0
  40
 1.50000
  50
0.0
  51
 90.0000
   0
LINE
   8
LEVEL001
   6
CONTINUOUS
  62
7
  10
 282.500
  20
 292.000
  30
0.0
  11
 287.500
  21
 292.000
  31
0.0
   0
ARC
   8
LEVEL001
   6
DASHDOT
  62
1
  10
 298.000
  20
 290.500
  30
0.0
  40
 1.00000
  50
 0.875970E-3
  51
 90.0004
   0
LINE
   8
LEVEL001
   6
DASHDOT
  62
1
  10
 290.000
  20
 291.500
  30
0.0
  11
 298.000
  21
 291.500
  31
0.0
   0
ARC
   8
LEVEL001
   6
DASHDOT
  62
1
  10
 290.000
  20
 290.500
  30
0.0
  40
 1.00000
  50
 89.9996
  51
 179.999
   0
ARC
   8
LEVEL001
   6
DASHDOT
  62
1
  10
 301.000
  20
 283.000
  30
0.0
  40
 2.00000
  50
 180.000
  51
 270.000
   0
LINE
   8
LEVEL001
   6
DASHDOT
  62
1
  10
 301.000
  20
 281.000
  30
0.0
  11
 301.500
  21
 281.000
  31
0.0
   0
LINE
   8
LEVEL001
   6
CONTINUOUS
  62
7
  10
 249.484
  20
 283.331
  30
0.0
  11
 249.484
  21
 287.000
  31
0.0
   0
LINE
   8
LEVEL001
   6
CONTINUOUS
  62
3
  10
 244.384
  20
 285.175
  30
0.0
  11
 244.384
  21
 281.539
  31
0.0
   0
LINE
   8
LEVEL001
   6
CONTINUOUS
  62
7
  10
 248.000
  20
 286.144
  30
0.0
  11
 248.000
  21
 281.797
  31
0.0
   0
LINE
   8
LEVEL001
   6
CONTINUOUS
  62
3
  10
 271.500
  20
 278.500
  30
0.0
  11
 282.500
  21
 278.500
  31
0.0
   0
LINE
   8
LEVEL001
   6
CONTINUOUS
  62
3
  10
 271.500
  20
 280.500
  30
0.0
  11
 282.500
  21
 280.500
  31
0.0
   0
LINE
   8
LEVEL001
   6
CONTINUOUS
  62
3
  10
 271.500
  20
 282.500
  30
0.0
  11
 282.500
  21
 282.500
  31
0.0
   0
LINE
   8
LEVEL001
   6
CONTINUOUS
  62
3
  10
 271.500
  20
 284.500
  30
0.0
  11
 282.500
  21
 284.500
  31
0.0
   0
LINE
   8
LEVEL001
   6
CONTINUOUS
  62
3
  10
 271.500
  20
 286.500
  30
0.0
  11
 282.500
  21
 286.500
  31
0.0
   0
LINE
   8
LEVEL001
   6
CONTINUOUS
  62
3
  10
 271.500
  20
 288.500
  30
0.0
  11
 282.500
  21
 288.500
  31
0.0
   0
LINE
   8
LEVEL001
   6
CONTINUOUS
  62
3
  10
 271.500
  20
 290.500
  30
0.0
  11
 282.500
  21
 290.500
  31
0.0
   0
LINE
   8
LEVEL003
   6
CONTINUOUS
  62
3
  10
 237.500
  20
 247.500
  30
0.0
  11
 333.000
  21
 247.500
  31
0.0
   0
LINE
   8
LEVEL003
   6
CONTINUOUS
  62
3
  10
 312.000
  20
 277.500
  30
0.0
  11
 333.000
  21
 277.500
  31
0.0
   0
LINE
   8
LEVEL003
   6
CONTINUOUS
  62
3
  10
 330.000
  20
 247.500
  30
0.0
  11
 330.000
  21
 277.500
  31
0.0
   0
LINE
   8
LEVEL003
   6
CONTINUOUS
  62
3
  10
 330.000
  20
 247.500
  30
0.0
  11
 330.793
  21
 252.000
  31
0.0
   0
LINE
   8
LEVEL003
   6
CONTINUOUS
  62
3
  10
 330.000
  20
 247.500
  30
0.0
  11
 329.207
  21
 252.000
  31
0.0
   0
LINE
   8
LEVEL003
   6
CONTINUOUS
  62
3
  10
 330.000
  20
 277.500
  30
0.0
  11
 329.207
  21
 273.000
  31
0.0
   0
LINE
   8
LEVEL003
   6
CONTINUOUS
  62
3
  10
 330.000
  20
 277.500
  30
0.0
  11
 330.793
  21
 273.000
  31
0.0
   0
TEXT
   8
LEVEL003
  62
3
  10
 328.800
  20
 259.500
  30
0.0
  40
 6.00000
   1
30
  50
 90.0000
  41
 0.500000
   7
STANDARD
  72
1
  11
 328.800
  21
 262.500
  31
0.0
   0
LINE
   8
LEVEL003
   6
CONTINUOUS
  62
3
  10
 166.500
  20
 427.500
  30
0.0
  11
 355.500
  21
 427.500
  31
0.0
   0
LINE
   8
LEVEL003
   6
CONTINUOUS
  62
3
  10
 237.500
  20
 247.500
  30
0.0
  11
 355.500
  21
 247.500
  31
0.0
   0
LINE
   8
LEVEL003
   6
CONTINUOUS
  62
3
  10
 352.500
  20
 427.500
  30
0.0
  11
 352.500
  21
 247.500
  31
0.0
   0
LINE
   8
LEVEL003
   6
CONTINUOUS
  62
3
  10
 352.500
  20
 427.500
  30
0.0
  11
 351.707
  21
 423.000
  31
0.0
   0
LINE
   8
LEVEL003
   6
CONTINUOUS
  62
3
  10
 352.500
  20
 427.500
  30
0.0
  11
 353.293
  21
 423.000
  31
0.0
   0
LINE
   8
LEVEL003
   6
CONTINUOUS
  62
3
  10
 352.500
  20
 247.500
  30
0.0
  11
 353.293
  21
 252.000
  31
0.0
   0
LINE
   8
LEVEL003
   6
CONTINUOUS
  62
3
  10
 352.500
  20
 247.500
  30
0.0
  11
 351.707
  21
 252.000
  31
0.0
   0
TEXT
   8
LEVEL003
  62
3
  10
 351.300
  20
 333.000
  30
0.0
  40
 6.00000
   1
180
  50
 90.0000
  41
 0.500000
   7
STANDARD
  72
1
  11
 351.300
  21
 337.500
  31
0.0
   0
LINE
   8
LEVEL003
   6
CONTINUOUS
  62
3
  10
 237.500
  20
 247.500
  30
0.0
  11
 378.000
  21
 247.500
  31
0.0
   0
LINE
   8
LEVEL003
   6
CONTINUOUS
  62
3
  10
 204.500
  20
 532.500
  30
0.0
  11
 378.000
  21
 532.500
  31
0.0
   0
LINE
   8
LEVEL003
   6
CONTINUOUS
  62
3
  10
 375.000
  20
 247.500
  30
0.0
  11
 375.000
  21
 532.500
  31
0.0
   0
LINE
   8
LEVEL003
   6
CONTINUOUS
  62
3
  10
 375.000
  20
 247.500
  30
0.0
  11
 375.793
  21
 252.000
  31
0.0
   0
LINE
   8
LEVEL003
   6
CONTINUOUS
  62
3
  10
 375.000
  20
 247.500
  30
0.0
  11
 374.207
  21
 252.000
  31
0.0
   0
LINE
   8
LEVEL003
   6
CONTINUOUS
  62
3
  10
 375.000
  20
 532.500
  30
0.0
  11
 374.207
  21
 528.000
  31
0.0
   0
LINE
   8
LEVEL003
   6
CONTINUOUS
  62
3
  10
 375.000
  20
 532.500
  30
0.0
  11
 375.793
  21
 528.000
  31
0.0
   0
TEXT
   8
LEVEL003
  62
3
  10
 373.800
  20
 385.500
  30
0.0
  40
 6.00000
   1
285
  50
 90.0000
  41
 0.500000
   7
STANDARD
  72
1
  11
 373.800
  21
 390.000
  31
0.0
   0
LINE
   8
LEVEL001
   6
CONTINUOUS
  62
7
  10
 235.500
  20
 526.500
  30
0.0
  11
 234.500
  21
 527.500
  31
0.0
   0
LINE
   8
LEVEL001
   6
CONTINUOUS
  62
7
  10
 235.500
  20
 522.500
  30
0.0
  11
 235.500
  21
 526.500
  31
0.0
   0
LINE
   8
LEVEL001
   6
CONTINUOUS
  62
7
  10
 236.500
  20
 522.500
  30
0.0
  11
 238.000
  21
 521.000
  31
0.0
   0
LINE
   8
LEVEL001
   6
CONTINUOUS
  62
7
  10
 238.000
  20
 521.000
  30
0.0
  11
 238.000
  21
 461.902
  31
0.0
   0
LINE
   8
LEVEL001
   6
CONTINUOUS
  62
3
  10
 236.500
  20
 467.500
  30
0.0
  11
 238.000
  21
 461.902
  31
0.0
   0
LINE
   8
LEVEL001
   6
CONTINUOUS
  62
7
  10
 205.000
  20
 530.500
  30
0.0
  11
 203.000
  21
 532.500
  31
0.0
   0
LINE
   8
LEVEL001
   6
CONTINUOUS
  62
7
  10
 94.5000
  20
 526.500
  30
0.0
  11
 95.5000
  21
 527.500
  31
0.0
   0
LINE
   8
LEVEL001
   6
CONTINUOUS
  62
7
  10
 94.5000
  20
 522.500
  30
0.0
  11
 94.5000
  21
 526.500
  31
0.0
   0
LINE
   8
LEVEL001
   6
CONTINUOUS
  62
7
  10
 92.0000
  20
 249.500
  30
0.0
  11
 92.0000
  21
 461.902
  31
0.0
   0
LINE
   8
LEVEL001
   6
CONTINUOUS
  62
7
  10
 93.5000
  20
 522.500
  30
0.0
  11
 92.0000
  21
 521.000
  31
0.0
   0
LINE
   8
LEVEL001
   6
CONTINUOUS
  62
7
  10
 92.0000
  20
 521.000
  30
0.0
  11
 92.0000
  21
 461.902
  31
0.0
   0
LINE
   8
LEVEL001
   6
CONTINUOUS
  62
3
  10
 93.5000
  20
 467.500
  30
0.0
  11
 92.0000
  21
 461.902
  31
0.0
   0
LINE
   8
LEVEL001
   6
CONTINUOUS
  62
7
  10
 125.000
  20
 530.500
  30
0.0
  11
 127.000
  21
 532.500
  31
0.0
   0
LINE
   8
LEVEL001
   6
CONTINUOUS
  62
7
  10
 203.000
  20
 532.500
  30
0.0
  11
 127.000
  21
 532.500
  31
0.0
   0
LINE
   8
LEVEL001
   6
DASHDOT
  62
1
  10
 241.000
  20
 522.500
  30
0.0
  11
 241.000
  21
 467.500
  31
0.0
   0
LINE
   8
LEVEL001
   6
DASHDOT
  62
1
  10
 236.500
  20
 522.500
  30
0.0
  11
 241.000
  21
 522.500
  31
0.0
   0
LINE
   8
LEVEL001
   6
DASHDOT
  62
1
  10
 238.000
  20
 467.500
  30
0.0
  11
 241.000
  21
 467.500
  31
0.0
   0
LINE
   8
LEVEL001
   6
DASHDOT
  62
1
  10
 89.0000
  20
 522.500
  30
0.0
  11
 89.0000
  21
 467.500
  31
0.0
   0
LINE
   8
LEVEL001
   6
DASHDOT
  62
1
  10
 93.5000
  20
 522.500
  30
0.0
  11
 89.0000
  21
 522.500
  31
0.0
   0
LINE
   8
LEVEL001
   6
DASHDOT
  62
1
  10
 92.0000
  20
 467.500
  30
0.0
  11
 89.0000
  21
 467.500
  31
0.0
   0
LINE
   8
LEVEL001
   6
DASHDOT
  62
1
  10
 165.000
  20
 540.000
  30
0.0
  11
 165.000
  21
 412.500
  31
0.0
   0
LINE
   8
LEVEL001
   6
CONTINUOUS
  62
7
  10
 92.0000
  20
 249.500
  30
0.0
  11
 94.0000
  21
 247.500
  31
0.0
   0
LINE
   8
LEVEL001
   6
CONTINUOUS
  62
7
  10
 94.0000
  20
 247.500
  30
0.0
  11
 236.000
  21
 247.500
  31
0.0
   0
LINE
   8
LEVEL001
   6
CONTINUOUS
  62
7
  10
 238.000
  20
 249.500
  30
0.0
  11
 236.000
  21
 247.500
  31
0.0
   0
LINE
   8
LEVEL001
   6
DASHDOT
  62
1
  10
 165.000
  20
 405.000
  30
0.0
  11
 165.000
  21
 240.000
  31
0.0
   0
LINE
   8
LEVEL003
   6
CONTINUOUS
  62
3
  10
 110.000
  20
 247.500
  30
0.0
  11
 97.5000
  21
 232.500
  31
0.0
   0
LINE
   8
LEVEL003
   6
CONTINUOUS
  62
3
  10
 110.000
  20
 247.500
  30
0.0
  11
 106.510
  21
 244.551
  31
0.0
   0
LINE
   8
LEVEL003
   6
CONTINUOUS
  62
3
  10
 110.000
  20
 247.500
  30
0.0
  11
 107.729
  21
 243.535
  31
0.0
   0
LINE
   8
LEVEL001
   6
CONTINUOUS
  62
7
  10
 118.250
  20
 529.500
  30
0.0
  11
 211.750
  21
 529.500
  31
0.0
   0
LINE
   8
LEVEL001
   6
CONTINUOUS
  62
7
  10
 95.5000
  20
 527.500
  30
0.0
  11
 234.500
  21
 527.500
  31
0.0
   0
LINE
   8
LEVEL001
   6
CONTINUOUS
  62
7
  10
 93.5000
  20
 522.500
  30
0.0
  11
 236.500
  21
 522.500
  31
0.0
   0
LINE
   8
LEVEL001
   6
CONTINUOUS
  62
3
  10
 93.5000
  20
 522.500
  30
0.0
  11
 93.5000
  21
 467.500
  31
0.0
   0
LINE
   8
LEVEL001
   6
CONTINUOUS
  62
3
  10
 236.500
  20
 522.500
  30
0.0
  11
 236.500
  21
 467.500
  31
0.0
   0
LINE
   8
LEVEL001
   6
CONTINUOUS
  62
3
  10
 238.000
  20
 467.500
  30
0.0
  11
 92.0000
  21
 467.500
  31
0.0
   0
LINE
   8
LEVEL001
   6
CONTINUOUS
  62
3
  10
 92.0000
  20
 521.000
  30
0.0
  11
 238.000
  21
 521.000
  31
0.0
   0
LINE
   8
LEVEL001
   6
CONTINUOUS
  62
7
  10
 238.000
  20
 461.902
  30
0.0
  11
 92.0000
  21
 461.902
  31
0.0
   0
LINE
   8
LEVEL001
   6
CONTINUOUS
  62
7
  10
 125.000
  20
 530.500
  30
0.0
  11
 125.000
  21
 529.500
  31
0.0
   0
LINE
   8
LEVEL001
   6
CONTINUOUS
  62
7
  10
 205.000
  20
 530.500
  30
0.0
  11
 205.000
  21
 529.500
  31
0.0
   0
LINE
   8
LEVEL001
   6
CONTINUOUS
  62
7
  10
 211.750
  20
 529.500
  30
0.0
  11
 212.250
  21
 527.500
  31
0.0
   0
LINE
   8
LEVEL001
   6
CONTINUOUS
  62
7
  10
 118.250
  20
 529.500
  30
0.0
  11
 117.750
  21
 527.500
  31
0.0
   0
LINE
   8
LEVEL001
   6
CONTINUOUS
  62
7
  10
 205.000
  20
 530.500
  30
0.0
  11
 125.000
  21
 530.500
  31
0.0
   0
LINE
   8
LEVEL001
   6
CONTINUOUS
  62
7
  10
 94.5000
  20
 526.500
  30
0.0
  11
 235.500
  21
 526.500
  31
0.0
   0
LINE
   8
LEVEL001
   6
CONTINUOUS
  62
7
  10
 238.000
  20
 249.500
  30
0.0
  11
 92.0000
  21
 249.500
  31
0.0
   0
LINE
   8
LEVEL001
   6
CONTINUOUS
  62
7
  10
 238.000
  20
 249.500
  30
0.0
  11
 238.000
  21
 461.902
  31
0.0
   0
LINE
   8
LEVEL001
   6
CONTINUOUS
  62
7
  10
 248.000
  20
 268.857
  30
0.0
  11
 238.000
  21
 269.169
  31
0.0
   0
LINE
   8
LEVEL001
   6
CONTINUOUS
  62
3
  10
 244.384
  20
 269.826
  30
0.0
  11
 238.000
  21
 270.025
  31
0.0
   0
LINE
   8
LEVEL001
   6
CONTINUOUS
  62
3
  10
 244.384
  20
 285.175
  30
0.0
  11
 238.027
  21
 284.976
  31
0.0
   0
LINE
   8
LEVEL001
   6
CONTINUOUS
  62
7
  10
 248.000
  20
 286.144
  30
0.0
  11
 238.000
  21
 285.831
  31
0.0
   0
CIRCLE
   8
LEVEL001
   6
CONTINUOUS
  62
7
  10
 165.000
  20
 112.500
  30
0.0
  40
 73.0000
   0
CIRCLE
   8
LEVEL001
   6
CONTINUOUS
  62
7
  10
 165.000
  20
 112.500
  30
0.0
  40
 71.0000
   0
CIRCLE
   8
LEVEL001
   6
CONTINUOUS
  62
7
  10
 203.891
  20
 151.391
  30
0.0
  40
 5.12500
   0
CIRCLE
   8
LEVEL001
   6
CONTINUOUS
  62
3
  10
 203.891
  20
 151.391
  30
0.0
  40
 6.00000
   0
LINE
   8
LEVEL001
   6
DASHDOT
  62
1
  10
 210.255
  20
 157.755
  30
0.0
  11
 197.527
  21
 145.027
  31
0.0
   0
CIRCLE
   8
LEVEL001
   6
CONTINUOUS
  62
7
  10
 203.891
  20
 73.6091
  30
0.0
  40
 5.12500
   0
CIRCLE
   8
LEVEL001
   6
CONTINUOUS
  62
3
  10
 203.891
  20
 73.6091
  30
0.0
  40
 6.00000
   0
LINE
   8
LEVEL001
   6
DASHDOT
  62
1
  10
 210.255
  20
 67.2452
  30
0.0
  11
 197.527
  21
 79.9731
  31
0.0
   0
LINE
   8
LEVEL001
   6
DASHDOT
  62
1
  10
 119.745
  20
 67.2452
  30
0.0
  11
 132.473
  21
 79.9731
  31
0.0
   0
LINE
   8
LEVEL001
   6
DASHDOT
  62
1
  10
 119.745
  20
 157.755
  30
0.0
  11
 132.473
  21
 145.027
  31
0.0
   0
CIRCLE
   8
LEVEL001
   6
CONTINUOUS
  62
3
  10
 165.000
  20
 112.500
  30
0.0
  40
 7.47500
   0
LINE
   8
LEVEL001
   6
CONTINUOUS
  62
7
  10
 165.000
  20
 107.881
  30
0.0
  11
 161.000
  21
 110.191
  31
0.0
   0
LINE
   8
LEVEL001
   6
CONTINUOUS
  62
7
  10
 161.000
  20
 110.191
  30
0.0
  11
 161.000
  21
 114.809
  31
0.0
   0
LINE
   8
LEVEL001
   6
CONTINUOUS
  62
7
  10
 161.000
  20
 114.809
  30
0.0
  11
 165.000
  21
 117.119
  31
0.0
   0
LINE
   8
LEVEL001
   6
CONTINUOUS
  62
7
  10
 165.000
  20
 117.119
  30
0.0
  11
 169.000
  21
 114.809
  31
0.0
   0
LINE
   8
LEVEL001
   6
CONTINUOUS
  62
7
  10
 169.000
  20
 114.809
  30
0.0
  11
 169.000
  21
 110.191
  31
0.0
   0
LINE
   8
LEVEL001
   6
CONTINUOUS
  62
7
  10
 169.000
  20
 110.191
  30
0.0
  11
 165.000
  21
 107.881
  31
0.0
   0
CIRCLE
   8
LEVEL001
   6
CONTINUOUS
  62
7
  10
 165.000
  20
 112.500
  30
0.0
  40
 8.33100
   0
CIRCLE
   8
LEVEL001
   6
CONTINUOUS
  62
7
  10
 165.000
  20
 112.500
  30
0.0
  40
 9.83102
   0
CIRCLE
   8
LEVEL001
   6
DASHDOT
  62
1
  10
 165.000
  20
 112.500
  30
0.0
  40
 55.0000
   0
CIRCLE
   8
LEVEL001
   6
CONTINUOUS
  62
7
  10
 126.109
  20
 73.6091
  30
0.0
  40
 5.12500
   0
CIRCLE
   8
LEVEL001
   6
CONTINUOUS
  62
3
  10
 126.109
  20
 73.6091
  30
0.0
  40
 6.00000
   0
CIRCLE
   8
LEVEL001
   6
CONTINUOUS
  62
7
  10
 126.109
  20
 151.391
  30
0.0
  40
 5.12500
   0
CIRCLE
   8
LEVEL001
   6
CONTINUOUS
  62
3
  10
 126.109
  20
 151.391
  30
0.0
  40
 6.00000
   0
ARC
   8
LEVEL001
   6
CONTINUOUS
  62
7
  10
 266.500
  20
 125.500
  30
0.0
  40
 1.50000
  50
 90.0000
  51
 180.000
   0
LINE
   8
LEVEL001
   6
CONTINUOUS
  62
7
  10
 266.500
  20
 127.000
  30
0.0
  11
 271.500
  21
 127.000
  31
0.0
   0
LINE
   8
LEVEL001
   6
CONTINUOUS
  62
7
  10
 265.000
  20
 99.5000
  30
0.0
  11
 265.000
  21
 125.500
  31
0.0
   0
LINE
   8
LEVEL001
   6
CONTINUOUS
  62
3
  10
 271.500
  20
 121.500
  30
0.0
  11
 282.500
  21
 121.500
  31
0.0
   0
LINE
   8
LEVEL001
   6
CONTINUOUS
  62
3
  10
 271.500
  20
 123.500
  30
0.0
  11
 282.500
  21
 123.500
  31
0.0
   0
LINE
   8
LEVEL001
   6
CONTINUOUS
  62
3
  10
 271.500
  20
 125.500
  30
0.0
  11
 282.500
  21
 125.500
  31
0.0
   0
LINE
   8
LEVEL001
   6
CONTINUOUS
  62
7
  10
 244.000
  20
 121.019
  30
0.0
  11
 244.000
  21
 120.000
  31
0.0
   0
LINE
   8
LEVEL001
   6
CONTINUOUS
  62
7
  10
 244.000
  20
 120.000
  30
0.0
  11
 258.000
  21
 120.000
  31
0.0
   0
LINE
   8
LEVEL001
   6
CONTINUOUS
  62
7
  10
 258.000
  20
 120.000
  30
0.0
  11
 258.000
  21
 122.000
  31
0.0
   0
LINE
   8
LEVEL001
   6
CONTINUOUS
  62
7
  10
 258.000
  20
 122.000
  30
0.0
  11
 265.000
  21
 122.000
  31
0.0
   0
LINE
   8
LEVEL001
   6
CONTINUOUS
  62
7
  10
 271.500
  20
 97.5000
  30
0.0
  11
 271.500
  21
 127.500
  31
0.0
   0
LINE
   8
LEVEL001
   6
CONTINUOUS
  62
7
  10
 271.500
  20
 127.500
  30
0.0
  11
 282.500
  21
 127.500
  31
0.0
   0
LINE
   8
LEVEL001
   6
CONTINUOUS
  62
7
  10
 282.500
  20
 127.500
  30
0.0
  11
 282.500
  21
 97.5000
  31
0.0
   0
LINE
   8
LEVEL001
   6
CONTINUOUS
  62
7
  10
 282.500
  20
 97.5000
  30
0.0
  11
 271.500
  21
 97.5000
  31
0.0
   0
ARC
   8
LEVEL001
   6
CONTINUOUS
  62
7
  10
 266.500
  20
 99.5000
  30
0.0
  40
 1.50000
  50
 180.000
  51
 270.000
   0
LINE
   8
LEVEL001
   6
CONTINUOUS
  62
7
  10
 266.500
  20
 98.0000
  30
0.0
  11
 271.500
  21
 98.0000
  31
0.0
   0
LINE
   8
LEVEL001
   6
CONTINUOUS
  62
3
  10
 271.500
  20
 99.5000
  30
0.0
  11
 282.500
  21
 99.5000
  31
0.0
   0
LINE
   8
LEVEL001
   6
CONTINUOUS
  62
3
  10
 271.500
  20
 101.500
  30
0.0
  11
 282.500
  21
 101.500
  31
0.0
   0
LINE
   8
LEVEL001
   6
CONTINUOUS
  62
3
  10
 271.500
  20
 103.500
  30
0.0
  11
 282.500
  21
 103.500
  31
0.0
   0
LINE
   8
LEVEL001
   6
CONTINUOUS
  62
3
  10
 271.500
  20
 105.500
  30
0.0
  11
 282.500
  21
 105.500
  31
0.0
   0
LINE
   8
LEVEL001
   6
CONTINUOUS
  62
3
  10
 271.500
  20
 107.500
  30
0.0
  11
 282.500
  21
 107.500
  31
0.0
   0
LINE
   8
LEVEL001
   6
CONTINUOUS
  62
3
  10
 271.500
  20
 109.500
  30
0.0
  11
 282.500
  21
 109.500
  31
0.0
   0
LINE
   8
LEVEL001
   6
CONTINUOUS
  62
3
  10
 271.500
  20
 111.500
  30
0.0
  11
 282.500
  21
 111.500
  31
0.0
   0
LINE
   8
LEVEL001
   6
CONTINUOUS
  62
3
  10
 271.500
  20
 113.500
  30
0.0
  11
 282.500
  21
 113.500
  31
0.0
   0
LINE
   8
LEVEL001
   6
CONTINUOUS
  62
3
  10
 271.500
  20
 115.500
  30
0.0
  11
 282.500
  21
 115.500
  31
0.0
   0
LINE
   8
LEVEL001
   6
CONTINUOUS
  62
3
  10
 271.500
  20
 117.500
  30
0.0
  11
 282.500
  21
 117.500
  31
0.0
   0
LINE
   8
LEVEL001
   6
CONTINUOUS
  62
3
  10
 271.500
  20
 119.500
  30
0.0
  11
 282.500
  21
 119.500
  31
0.0
   0
LINE
   8
LEVEL001
   6
CONTINUOUS
  62
7
  10
 244.000
  20
 103.981
  30
0.0
  11
 244.000
  21
 105.000
  31
0.0
   0
LINE
   8
LEVEL001
   6
CONTINUOUS
  62
7
  10
 244.000
  20
 105.000
  30
0.0
  11
 258.000
  21
 105.000
  31
0.0
   0
LINE
   8
LEVEL001
   6
CONTINUOUS
  62
7
  10
 258.000
  20
 105.000
  30
0.0
  11
 258.000
  21
 103.000
  31
0.0
   0
LINE
   8
LEVEL001
   6
CONTINUOUS
  62
7
  10
 258.000
  20
 103.000
  30
0.0
  11
 265.000
  21
 103.000
  31
0.0
   0
LINE
   8
LEVEL001
   6
DASHDOT
  62
1
  10
 308.000
  20
 112.500
  30
0.0
  11
 86.1600
  21
 112.500
  31
0.0
   0
LINE
   8
LEVEL001
   6
CONTINUOUS
  62
7
  10
 282.500
  20
 127.000
  30
0.0
  11
 287.500
  21
 127.000
  31
0.0
   0
ARC
   8
LEVEL001
   6
CONTINUOUS
  62
7
  10
 287.500
  20
 125.500
  30
0.0
  40
 1.50000
  50
0.0
  51
 90.0000
   0
LINE
   8
LEVEL001
   6
CONTINUOUS
  62
7
  10
 289.000
  20
 125.500
  30
0.0
  11
 289.000
  21
 99.5000
  31
0.0
   0
ARC
   8
LEVEL001
   6
DASHDOT
  62
1
  10
 298.000
  20
 125.500
  30
0.0
  40
 1.00000
  50
0.0
  51
 90.0000
   0
LINE
   8
LEVEL001
   6
DASHDOT
  62
1
  10
 290.000
  20
 126.500
  30
0.0
  11
 298.000
  21
 126.500
  31
0.0
   0
LINE
   8
LEVEL001
   6
DASHDOT
  62
1
  10
 299.000
  20
 125.500
  30
0.0
  11
 299.000
  21
 99.5000
  31
0.0
   0
ARC
   8
LEVEL001
   6
DASHDOT
  62
1
  10
 290.000
  20
 125.500
  30
0.0
  40
 1.00000
  50
 90.0000
  51
 180.000
   0
ARC
   8
LEVEL001
   6
CONTINUOUS
  62
7
  10
 287.500
  20
 99.5000
  30
0.0
  40
 1.50000
  50
 270.000
  51
0.0
   0
LINE
   8
LEVEL001
   6
CONTINUOUS
  62
7
  10
 282.500
  20
 98.0000
  30
0.0
  11
 287.500
  21
 98.0000
  31
0.0
   0
ARC
   8
LEVEL001
   6
DASHDOT
  62
1
  10
 298.000
  20
 99.5000
  30
0.0
  40
 1.00000
  50
 270.000
  51
0.0
   0
LINE
   8
LEVEL001
   6
DASHDOT
  62
1
  10
 290.000
  20
 98.5000
  30
0.0
  11
 298.000
  21
 98.5000
  31
0.0
   0
ARC
   8
LEVEL001
   6
DASHDOT
  62
1
  10
 290.000
  20
 99.5000
  30
0.0
  40
 1.00000
  50
 180.000
  51
 270.000
   0
LINE
   8
LEVEL001
   6
DASHDOT
  62
1
  10
 299.000
  20
 114.500
  30
0.0
  11
 305.000
  21
 114.500
  31
0.0
   0
LINE
   8
LEVEL001
   6
DASHDOT
  62
1
  10
 305.000
  20
 114.500
  30
0.0
  11
 305.000
  21
 110.500
  31
0.0
   0
LINE
   8
LEVEL001
   6
DASHDOT
  62
1
  10
 305.000
  20
 110.500
  30
0.0
  11
 299.000
  21
 110.500
  31
0.0
   0
ARC
   8
LEVEL004
   6
DOT
  62
3
  10
 136.500
  20
 532.500
  30
0.0
  40
 1.00001
  50
 180.000
  51
0.0
   0
ARC
   8
LEVEL004
   6
DOT
  62
3
  10
 151.000
  20
 532.500
  30
0.0
  40
 1.00001
  50
 180.000
  51
0.0
   0
LINE
   8
LEVEL004
   6
DASHDOT
  62
1
  10
 190.000
  20
 534.000
  30
0.0
  11
 190.000
  21
 499.219
  31
0.0
   0
ARC
   8
LEVEL004
   6
DOT
  62
3
  10
 179.000
  20
 532.500
  30
0.0
  40
 1.00001
  50
 180.000
  51
0.0
   0
ARC
   8
LEVEL004
   6
DOT
  62
3
  10
 193.500
  20
 532.500
  30
0.0
  40
 1.00001
  50
 180.000
  51
0.0
   0
LINE
   8
LEVEL004
   6
DOT
  62
3
  10
 196.500
  20
 530.600
  30
0.0
  11
 183.500
  21
 530.600
  31
0.0
   0
LINE
   8
LEVEL004
   6
DOT
  62
3
  10
 197.000
  20
 532.500
  30
0.0
  11
 197.000
  21
 523.000
  31
0.0
   0
LINE
   8
LEVEL004
   6
DOT
  62
3
  10
 183.000
  20
 532.500
  30
0.0
  11
 183.000
  21
 523.000
  31
0.0
   0
LINE
   8
LEVEL004
   6
DOT
  62
3
  10
 196.500
  20
 523.000
  30
0.0
  11
 183.500
  21
 523.000
  31
0.0
   0
LINE
   8
LEVEL004
   6
DOT
  62
3
  10
 183.500
  20
 523.000
  30
0.0
  11
 183.500
  21
 530.600
  31
0.0
   0
LINE
   8
LEVEL004
   6
DOT
  62
3
  10
 183.500
  20
 530.600
  30
0.0
  11
 184.193
  21
 531.000
  31
0.0
   0
LINE
   8
LEVEL004
   6
DOT
  62
3
  10
 184.193
  20
 531.000
  30
0.0
  11
 195.807
  21
 531.000
  31
0.0
   0
LINE
   8
LEVEL004
   6
DOT
  62
3
  10
 195.807
  20
 531.000
  30
0.0
  11
 196.500
  21
 530.600
  31
0.0
   0
LINE
   8
LEVEL004
   6
DOT
  62
3
  10
 196.500
  20
 530.600
  30
0.0
  11
 196.500
  21
 523.000
  31
0.0
   0
LINE
   8
LEVEL004
   6
DOT
  62
3
  10
 205.000
  20
 529.000
  30
0.0
  11
 205.500
  21
 529.500
  31
0.0
   0
LINE
   8
LEVEL004
   6
DOT
  62
3
  10
 205.000
  20
 529.500
  30
0.0
  11
 205.000
  21
 519.500
  31
0.0
   0
LINE
   8
LEVEL004
   6
DOT
  62
3
  10
 185.500
  20
 523.000
  30
0.0
  11
 185.500
  21
 518.500
  31
0.0
   0
LINE
   8
LEVEL004
   6
DOT
  62
3
  10
 194.500
  20
 523.000
  30
0.0
  11
 194.500
  21
 518.500
  31
0.0
   0
LINE
   8
LEVEL004
   6
DOT
  62
3
  10
 193.375
  20
 509.000
  30
0.0
  11
 193.375
  21
 523.000
  31
0.0
   0
LINE
   8
LEVEL004
   6
DOT
  62
3
  10
 186.625
  20
 509.000
  30
0.0
  11
 186.625
  21
 523.000
  31
0.0
   0
LINE
   8
LEVEL004
   6
DOT
  62
3
  10
 194.000
  20
 523.000
  30
0.0
  11
 194.000
  21
 509.625
  31
0.0
   0
LINE
   8
LEVEL004
   6
DOT
  62
3
  10
 194.000
  20
 509.625
  30
0.0
  11
 193.375
  21
 509.000
  31
0.0
   0
LINE
   8
LEVEL004
   6
DOT
  62
3
  10
 193.375
  20
 509.000
  30
0.0
  11
 186.625
  21
 509.000
  31
0.0
   0
LINE
   8
LEVEL004
   6
DOT
  62
3
  10
 186.625
  20
 509.000
  30
0.0
  11
 186.000
  21
 509.625
  31
0.0
   0
LINE
   8
LEVEL004
   6
DOT
  62
3
  10
 186.000
  20
 509.625
  30
0.0
  11
 186.000
  21
 523.000
  31
0.0
   0
LINE
   8
LEVEL004
   6
DOT
  62
3
  10
 204.000
  20
 518.500
  30
0.0
  11
 193.375
  21
 518.500
  31
0.0
   0
LINE
   8
LEVEL004
   6
DOT
  62
3
  10
 186.625
  20
 518.500
  30
0.0
  11
 126.500
  21
 518.500
  31
0.0
   0
LINE
   8
LEVEL004
   6
DOT
  62
3
  10
 205.000
  20
 520.000
  30
0.0
  11
 203.500
  21
 518.500
  31
0.0
   0
ARC
   8
LEVEL004
   6
DOT
  62
3
  10
 204.000
  20
 519.500
  30
0.0
  40
 1.00000
  50
 270.000
  51
0.0
   0
LINE
   8
LEVEL004
   6
DOT
  62
3
  10
 194.000
  20
 509.625
  30
0.0
  11
 194.000
  21
 506.500
  31
0.0
   0
LINE
   8
LEVEL004
   6
DOT
  62
3
  10
 194.000
  20
 506.500
  30
0.0
  11
 193.375
  21
 504.167
  31
0.0
   0
LINE
   8
LEVEL004
   6
DOT
  62
3
  10
 186.000
  20
 509.625
  30
0.0
  11
 186.000
  21
 506.500
  31
0.0
   0
LINE
   8
LEVEL004
   6
DOT
  62
3
  10
 186.000
  20
 506.500
  30
0.0
  11
 186.625
  21
 504.167
  31
0.0
   0
LINE
   8
LEVEL004
   6
DOT
  62
3
  10
 194.000
  20
 509.625
  30
0.0
  11
 186.000
  21
 509.625
  31
0.0
   0
LINE
   8
LEVEL004
   6
DOT
  62
3
  10
 193.375
  20
 509.000
  30
0.0
  11
 193.375
  21
 504.167
  31
0.0
   0
LINE
   8
LEVEL004
   6
DOT
  62
3
  10
 193.375
  20
 504.167
  30
0.0
  11
 190.000
  21
 502.219
  31
0.0
   0
LINE
   8
LEVEL004
   6
DOT
  62
3
  10
 190.000
  20
 502.219
  30
0.0
  11
 186.625
  21
 504.167
  31
0.0
   0
LINE
   8
LEVEL004
   6
DOT
  62
3
  10
 186.625
  20
 504.167
  30
0.0
  11
 186.625
  21
 509.000
  31
0.0
   0
LINE
   8
LEVEL004
   6
DOT
  62
3
  10
 193.375
  20
 504.167
  30
0.0
  11
 186.625
  21
 504.167
  31
0.0
   0
LINE
   8
LEVEL004
   6
DOT
  62
3
  10
 194.000
  20
 506.500
  30
0.0
  11
 186.000
  21
 506.500
  31
0.0
   0
LINE
   8
LEVEL004
   6
DOT
  62
3
  10
 212.500
  20
 329.500
  30
0.0
  11
 212.500
  21
 526.500
  31
0.0
   0
LINE
   8
LEVEL004
   6
DOT
  62
3
  10
 117.500
  20
 329.500
  30
0.0
  11
 117.500
  21
 526.500
  31
0.0
   0
LINE
   8
LEVEL004
   6
DOT
  62
3
  10
 125.000
  20
 520.000
  30
0.0
  11
 126.500
  21
 518.500
  31
0.0
   0
ARC
   8
LEVEL004
   6
DOT
  62
3
  10
 126.000
  20
 519.500
  30
0.0
  40
 1.00000
  50
 180.000
  51
 270.000
   0
LINE
   8
LEVEL004
   6
DOT
  62
3
  10
 125.000
  20
 529.500
  30
0.0
  11
 125.000
  21
 519.500
  31
0.0
   0
LINE
   8
LEVEL004
   6
DOT
  62
3
  10
 125.000
  20
 529.000
  30
0.0
  11
 124.500
  21
 529.500
  31
0.0
   0
CIRCLE
   8
LEVEL004
   6
DASHDOT
  62
1
  10
 165.000
  20
 389.500
  30
0.0
  40
 38.0000
   0
CIRCLE
   8
LEVEL004
   6
DOT
  62
3
  10
 165.000
  20
 427.500
  30
0.0
  40
 12.5000
   0
CIRCLE
   8
LEVEL004
   6
DOT
  62
3
  10
 165.000
  20
 427.500
  30
0.0
  40
 11.5000
   0
ARC
   8
LEVEL004
   6
DOT
  62
3
  10
 165.000
  20
 389.500
  30
0.0
  40
 43.5000
  50
 105.869
  51
 74.1306
   0
ARC
   8
LEVEL004
   6
DOT
  62
3
  10
 165.000
  20
 389.500
  30
0.0
  40
 32.5000
  50
 108.380
  51
 71.6203
   0
LINE
   8
LEVEL004
   6
DASHDOT
  62
1
  10
 110.000
  20
 244.500
  30
0.0
  11
 110.000
  21
 274.724
  31
0.0
   0
LINE
   8
LEVEL004
   6
DOT
  62
3
  10
 116.000
  20
 247.500
  30
0.0
  11
 115.125
  21
 248.375
  31
0.0
   0
LINE
   8
LEVEL004
   6
DOT
  62
3
  10
 115.125
  20
 248.375
  30
0.0
  11
 115.125
  21
 268.766
  31
0.0
   0
LINE
   8
LEVEL004
   6
DOT
  62
3
  10
 115.125
  20
 268.766
  30
0.0
  11
 110.000
  21
 271.724
  31
0.0
   0
LINE
   8
LEVEL004
   6
DOT
  62
3
  10
 110.000
  20
 271.724
  30
0.0
  11
 104.875
  21
 268.766
  31
0.0
   0
LINE
   8
LEVEL004
   6
DOT
  62
3
  10
 104.875
  20
 268.766
  30
0.0
  11
 104.875
  21
 248.375
  31
0.0
   0
LINE
   8
LEVEL004
   6
DOT
  62
3
  10
 104.875
  20
 248.375
  30
0.0
  11
 104.000
  21
 247.500
  31
0.0
   0
LINE
   8
LEVEL004
   6
DOT
  62
3
  10
 115.125
  20
 268.766
  30
0.0
  11
 104.875
  21
 268.766
  31
0.0
   0
LINE
   8
LEVEL004
   6
DOT
  62
3
  10
 116.000
  20
 247.500
  30
0.0
  11
 116.000
  21
 265.500
  31
0.0
   0
LINE
   8
LEVEL004
   6
DOT
  62
3
  10
 116.000
  20
 265.500
  30
0.0
  11
 115.125
  21
 268.766
  31
0.0
   0
LINE
   8
LEVEL004
   6
DOT
  62
3
  10
 104.875
  20
 268.766
  30
0.0
  11
 104.000
  21
 265.500
  31
0.0
   0
LINE
   8
LEVEL004
   6
DOT
  62
3
  10
 104.000
  20
 265.500
  30
0.0
  11
 104.000
  21
 247.500
  31
0.0
   0
LINE
   8
LEVEL004
   6
DOT
  62
3
  10
 116.000
  20
 265.500
  30
0.0
  11
 104.000
  21
 265.500
  31
0.0
   0
LINE
   8
LEVEL004
   6
DOT
  62
3
  10
 115.125
  20
 248.375
  30
0.0
  11
 104.875
  21
 248.375
  31
0.0
   0
LINE
   8
LEVEL004
   6
DASHDOT
  62
1
  10
 220.000
  20
 244.500
  30
0.0
  11
 220.000
  21
 262.500
  31
0.0
   0
LINE
   8
LEVEL004
   6
DOT
  62
3
  10
 221.000
  20
 471.500
  30
0.0
  11
 221.000
  21
 295.500
  31
0.0
   0
LINE
   8
LEVEL004
   6
DOT
  62
3
  10
 109.000
  20
 471.500
  30
0.0
  11
 109.000
  21
 295.500
  31
0.0
   0
LINE
   8
LEVEL004
   6
DOT
  62
3
  10
 196.500
  20
 523.000
  30
0.0
  11
 197.000
  21
 523.000
  31
0.0
   0
LINE
   8
LEVEL004
   6
DOT
  62
3
  10
 183.000
  20
 523.000
  30
0.0
  11
 183.500
  21
 523.000
  31
0.0
   0
LINE
   8
LEVEL001
   6
DASHDOT
  62
1
  10
 310.500
  20
 277.500
  30
0.0
  11
 225.000
  21
 277.500
  31
0.0
   0
LINE
   8
LEVEL001
   6
CONTINUOUS
  62
7
  10
 152.500
  20
 187.500
  30
0.0
  11
 177.500
  21
 187.500
  31
0.0
   0
LINE
   8
LEVEL001
   6
CONTINUOUS
  62
7
  10
 127.000
  20
 194.000
  30
0.0
  11
 152.500
  21
 194.000
  31
0.0
   0
LINE
   8
LEVEL001
   6
CONTINUOUS
  62
7
  10
 177.500
  20
 194.000
  30
0.0
  11
 203.000
  21
 194.000
  31
0.0
   0
LINE
   8
LEVEL001
   6
CONTINUOUS
  62
7
  10
 127.000
  20
 205.000
  30
0.0
  11
 152.500
  21
 205.000
  31
0.0
   0
LINE
   8
LEVEL001
   6
CONTINUOUS
  62
7
  10
 177.500
  20
 205.000
  30
0.0
  11
 203.000
  21
 205.000
  31
0.0
   0
LINE
   8
LEVEL001
   6
DASHDOT
  62
1
  10
 115.000
  20
 199.500
  30
0.0
  11
 215.000
  21
 199.500
  31
0.0
   0
ARC
   8
LEVEL001
   6
CONTINUOUS
  62
7
  10
 127.000
  20
 199.500
  30
0.0
  40
 5.50000
  50
 90.0000
  51
 270.000
   0
ARC
   8
LEVEL001
   6
CONTINUOUS
  62
7
  10
 203.000
  20
 199.500
  30
0.0
  40
 5.50000
  50
 270.000
  51
 90.0000
   0
LINE
   8
LEVEL001
   6
CONTINUOUS
  62
7
  10
 172.500
  20
 185.500
  30
0.0
  11
 157.500
  21
 185.500
  31
0.0
   0
LINE
   8
LEVEL001
   6
CONTINUOUS
  62
7
  10
 157.500
  20
 185.500
  30
0.0
  11
 152.500
  21
 187.500
  31
0.0
   0
LINE
   8
LEVEL001
   6
CONTINUOUS
  62
7
  10
 152.500
  20
 187.500
  30
0.0
  11
 152.500
  21
 210.500
  31
0.0
   0
LINE
   8
LEVEL001
   6
CONTINUOUS
  62
7
  10
 152.500
  20
 210.500
  30
0.0
  11
 153.500
  21
 211.500
  31
0.0
   0
LINE
   8
LEVEL001
   6
CONTINUOUS
  62
7
  10
 153.500
  20
 211.500
  30
0.0
  11
 176.500
  21
 211.500
  31
0.0
   0
LINE
   8
LEVEL001
   6
CONTINUOUS
  62
7
  10
 176.500
  20
 211.500
  30
0.0
  11
 177.500
  21
 210.500
  31
0.0
   0
LINE
   8
LEVEL001
   6
CONTINUOUS
  62
7
  10
 177.500
  20
 210.500
  30
0.0
  11
 177.500
  21
 187.500
  31
0.0
   0
LINE
   8
LEVEL001
   6
CONTINUOUS
  62
7
  10
 177.500
  20
 187.500
  30
0.0
  11
 172.500
  21
 185.500
  31
0.0
   0
LINE
   8
LEVEL001
   6
DASHDOT
  62
1
  10
 165.000
  20
 9.50000
  30
0.0
  11
 165.000
  21
 215.500
  31
0.0
   0
LINE
   8
LEVEL001
   6
CONTINUOUS
  62
7
  10
 152.500
  20
 210.500
  30
0.0
  11
 177.500
  21
 210.500
  31
0.0
   0
LINE
   8
LEVEL001
   6
CONTINUOUS
  62
3
  10
 244.384
  20
 120.000
  30
0.0
  11
 244.384
  21
 105.000
  31
0.0
   0
LINE
   8
LEVEL001
   6
CONTINUOUS
  62
7
  10
 248.000
  20
 120.000
  30
0.0
  11
 248.000
  21
 105.000
  31
0.0
   0
LINE
   8
LEVEL001
   6
CONTINUOUS
  62
7
  10
 249.484
  20
 105.000
  30
0.0
  11
 249.484
  21
 120.000
  31
0.0
   0
LINE
   8
LEVEL001
   6
CONTINUOUS
  62
7
  10
 244.000
  20
 121.019
  30
0.0
  11
 238.000
  21
 120.831
  31
0.0
   0
LINE
   8
LEVEL001
   6
CONTINUOUS
  62
3
  10
 244.000
  20
 120.163
  30
0.0
  11
 238.000
  21
 119.975
  31
0.0
   0
LINE
   8
LEVEL001
   6
CONTINUOUS
  62
3
  10
 243.995
  20
 104.838
  30
0.0
  11
 238.000
  21
 105.025
  31
0.0
   0
LINE
   8
LEVEL001
   6
CONTINUOUS
  62
7
  10
 244.000
  20
 103.981
  30
0.0
  11
 238.000
  21
 104.169
  31
0.0
   0
LINE
   8
LEVEL001
   6
CONTINUOUS
  62
7
  10
 152.500
  20
 37.5000
  30
0.0
  11
 177.500
  21
 37.5000
  31
0.0
   0
LINE
   8
LEVEL001
   6
CONTINUOUS
  62
7
  10
 152.500
  20
 14.5000
  30
0.0
  11
 177.500
  21
 14.5000
  31
0.0
   0
LINE
   8
LEVEL001
   6
CONTINUOUS
  62
7
  10
 127.000
  20
 31.0000
  30
0.0
  11
 152.500
  21
 31.0000
  31
0.0
   0
LINE
   8
LEVEL001
   6
CONTINUOUS
  62
7
  10
 177.500
  20
 31.0000
  30
0.0
  11
 203.000
  21
 31.0000
  31
0.0
   0
LINE
   8
LEVEL001
   6
CONTINUOUS
  62
7
  10
 127.000
  20
 20.0000
  30
0.0
  11
 152.500
  21
 20.0000
  31
0.0
   0
LINE
   8
LEVEL001
   6
CONTINUOUS
  62
7
  10
 177.500
  20
 20.0000
  30
0.0
  11
 203.000
  21
 20.0000
  31
0.0
   0
LINE
   8
LEVEL001
   6
DASHDOT
  62
1
  10
 115.000
  20
 25.5000
  30
0.0
  11
 215.000
  21
 25.5000
  31
0.0
   0
ARC
   8
LEVEL001
   6
CONTINUOUS
  62
7
  10
 127.000
  20
 25.5000
  30
0.0
  40
 5.50000
  50
 90.0000
  51
 270.000
   0
ARC
   8
LEVEL001
   6
CONTINUOUS
  62
7
  10
 203.000
  20
 25.5000
  30
0.0
  40
 5.50000
  50
 270.000
  51
 90.0000
   0
LINE
   8
LEVEL001
   6
CONTINUOUS
  62
7
  10
 172.500
  20
 39.5000
  30
0.0
  11
 157.500
  21
 39.5000
  31
0.0
   0
LINE
   8
LEVEL001
   6
CONTINUOUS
  62
7
  10
 157.500
  20
 39.5000
  30
0.0
  11
 152.500
  21
 37.5000
  31
0.0
   0
LINE
   8
LEVEL001
   6
CONTINUOUS
  62
7
  10
 152.500
  20
 37.5000
  30
0.0
  11
 152.500
  21
 14.5000
  31
0.0
   0
LINE
   8
LEVEL001
   6
CONTINUOUS
  62
7
  10
 152.500
  20
 14.5000
  30
0.0
  11
 153.500
  21
 13.5000
  31
0.0
   0
LINE
   8
LEVEL001
   6
CONTINUOUS
  62
7
  10
 153.500
  20
 13.5000
  30
0.0
  11
 176.500
  21
 13.5000
  31
0.0
   0
LINE
   8
LEVEL001
   6
CONTINUOUS
  62
7
  10
 176.500
  20
 13.5000
  30
0.0
  11
 177.500
  21
 14.5000
  31
0.0
   0
LINE
   8
LEVEL001
   6
CONTINUOUS
  62
7
  10
 177.500
  20
 14.5000
  30
0.0
  11
 177.500
  21
 37.5000
  31
0.0
   0
LINE
   8
LEVEL001
   6
CONTINUOUS
  62
7
  10
 177.500
  20
 37.5000
  30
0.0
  11
 172.500
  21
 39.5000
  31
0.0
   0
TEXT
   8
LEVEL003
  62
7
  10
 276.691
  20
 12.7200
  30
0.0
  40
 10.0000
   1
ＯＳＡＫＡ ＪＡＣＫ
   7
STANDARD
   0
CIRCLE
   8
LEVEL003
   6
CONTINUOUS
  62
7
  10
 264.718
  20
 19.7707
  30
0.0
  40
 3.00000
   0
LINE
   8
LEVEL003
   6
CONTINUOUS
  62
7
  10
 270.606
  20
 22.7707
  30
0.0
  11
 266.797
  21
 16.1707
  31
0.0
   0
LINE
   8
LEVEL003
   6
CONTINUOUS
  62
7
  10
 266.797
  20
 16.1707
  30
0.0
  11
 259.176
  21
 16.1707
  31
0.0
   0
LINE
   8
LEVEL003
   6
CONTINUOUS
  62
7
  10
 258.309
  20
 14.6707
  30
0.0
  11
 271.930
  21
 14.6707
  31
0.0
   0
LINE
   8
LEVEL003
   6
CONTINUOUS
  62
7
  10
 271.930
  20
 14.6707
  30
0.0
  11
 276.606
  21
 22.7707
  31
0.0
   0
LINE
   8
LEVEL003
   6
CONTINUOUS
  62
7
  10
 276.606
  20
 22.7707
  30
0.0
  11
 270.606
  21
 22.7707
  31
0.0
   0
LINE
   8
LEVEL003
   6
CONTINUOUS
  62
7
  10
 259.176
  20
 16.1707
  30
0.0
  11
 258.309
  21
 14.6707
  31
0.0
   0
TEXT
   8
LEVEL003
  62
7
  10
 279.602
  20
 29.6134
  30
0.0
  40
 6.00000
   1
Model : Ｅ７０Ｓ１５
   7
STANDARD
   0
TEXT
   8
LEVEL003
  62
3
  10
 33.5000
  20
 232.500
  30
0.0
  40
 6.00000
   1
４－Ｍ１２×１８Ｌ
   7
STANDARD
   0
LINE
   8
LEVEL003
   6
CONTINUOUS
  62
3
  10
 97.5000
  20
 232.500
  30
0.0
  11
 34.0017
  21
 232.500
  31
0.0
   0
LINE
   8
LEVEL003
   6
CONTINUOUS
  62
3
  10
 255.000
  20
 232.500
  30
0.0
  11
 296.595
  21
 232.500
  31
0.0
   0
LINE
   8
LEVEL003
   6
CONTINUOUS
  62
3
  10
 270.000
  20
 457.500
  30
0.0
  11
 312.056
  21
 457.500
  31
0.0
   0
LINE
   8
LEVEL003
   6
CONTINUOUS
  62
3
  10
 235.500
  20
 527.500
  30
0.0
  11
 270.167
  21
 527.500
  31
0.0
   0
LINE
   8
LEVEL003
   6
CONTINUOUS
  62
3
  10
 242.000
  20
 467.500
  30
0.0
  11
 270.167
  21
 467.500
  31
0.0
   0
LINE
   8
LEVEL003
   6
CONTINUOUS
  62
3
  10
 268.167
  20
 527.500
  30
0.0
  11
 268.167
  21
 467.500
  31
0.0
   0
LINE
   8
LEVEL003
   6
CONTINUOUS
  62
3
  10
 268.167
  20
 527.500
  30
0.0
  11
 267.638
  21
 524.500
  31
0.0
   0
LINE
   8
LEVEL003
   6
CONTINUOUS
  62
3
  10
 268.167
  20
 527.500
  30
0.0
  11
 268.696
  21
 524.500
  31
0.0
   0
LINE
   8
LEVEL003
   6
CONTINUOUS
  62
3
  10
 268.167
  20
 467.500
  30
0.0
  11
 268.696
  21
 470.500
  31
0.0
   0
LINE
   8
LEVEL003
   6
CONTINUOUS
  62
3
  10
 268.167
  20
 467.500
  30
0.0
  11
 267.638
  21
 470.500
  31
0.0
   0
TEXT
   8
LEVEL003
  62
3
  10
 267.367
  20
 493.500
  30
0.0
  40
 4.00000
   1
60
  50
 90.0000
   7
STANDARD
  72
1
  11
 267.367
  21
 497.500
  31
0.0
   0
LINE
   8
LEVEL003
   6
CONTINUOUS
  62
3
  10
 235.500
  20
 527.500
  30
0.0
  11
 260.167
  21
 527.500
  31
0.0
   0
LINE
   8
LEVEL003
   6
CONTINUOUS
  62
3
  10
 242.000
  20
 522.500
  30
0.0
  11
 260.167
  21
 522.500
  31
0.0
   0
LINE
   8
LEVEL003
   6
CONTINUOUS
  62
3
  10
 258.167
  20
 527.500
  30
0.0
  11
 258.167
  21
 522.500
  31
0.0
   0
LINE
   8
LEVEL003
   6
CONTINUOUS
  62
3
  10
 258.167
  20
 527.500
  30
0.0
  11
 258.696
  21
 530.500
  31
0.0
   0
LINE
   8
LEVEL003
   6
CONTINUOUS
  62
3
  10
 258.167
  20
 527.500
  30
0.0
  11
 257.638
  21
 530.500
  31
0.0
   0
LINE
   8
LEVEL003
   6
CONTINUOUS
  62
3
  10
 258.167
  20
 522.500
  30
0.0
  11
 257.638
  21
 519.500
  31
0.0
   0
LINE
   8
LEVEL003
   6
CONTINUOUS
  62
3
  10
 258.167
  20
 522.500
  30
0.0
  11
 258.696
  21
 519.500
  31
0.0
   0
LINE
   8
LEVEL003
   6
CONTINUOUS
  62
3
  10
 258.167
  20
 527.500
  30
0.0
  11
 258.167
  21
 531.250
  31
0.0
   0
LINE
   8
LEVEL003
   6
CONTINUOUS
  62
3
  10
 258.167
  20
 522.500
  30
0.0
  11
 258.167
  21
 518.750
  31
0.0
   0
TEXT
   8
LEVEL003
  62
3
  10
 257.367
  20
 523.000
  30
0.0
  40
 4.00000
   1
5
  50
 90.0000
   7
STANDARD
  72
1
  11
 257.367
  21
 525.000
  31
0.0
   0
LINE
   8
LEVEL003
   6
CONTINUOUS
  62
3
  10
 204.000
  20
 532.500
  30
0.0
  11
 259.667
  21
 532.500
  31
0.0
   0
LINE
   8
LEVEL003
   6
CONTINUOUS
  62
3
  10
 235.500
  20
 527.500
  30
0.0
  11
 259.667
  21
 527.500
  31
0.0
   0
LINE
   8
LEVEL003
   6
CONTINUOUS
  62
3
  10
 257.667
  20
 532.500
  30
0.0
  11
 257.667
  21
 527.500
  31
0.0
   0
LINE
   8
LEVEL003
   6
CONTINUOUS
  62
3
  10
 257.667
  20
 532.500
  30
0.0
  11
 258.196
  21
 535.500
  31
0.0
   0
LINE
   8
LEVEL003
   6
CONTINUOUS
  62
3
  10
 257.667
  20
 532.500
  30
0.0
  11
 257.138
  21
 535.500
  31
0.0
   0
LINE
   8
LEVEL003
   6
CONTINUOUS
  62
3
  10
 257.667
  20
 527.500
  30
0.0
  11
 257.138
  21
 524.500
  31
0.0
   0
LINE
   8
LEVEL003
   6
CONTINUOUS
  62
3
  10
 257.667
  20
 527.500
  30
0.0
  11
 258.196
  21
 524.500
  31
0.0
   0
LINE
   8
LEVEL003
   6
CONTINUOUS
  62
3
  10
 257.667
  20
 532.500
  30
0.0
  11
 257.667
  21
 536.250
  31
0.0
   0
LINE
   8
LEVEL003
   6
CONTINUOUS
  62
3
  10
 257.667
  20
 527.500
  30
0.0
  11
 257.667
  21
 523.750
  31
0.0
   0
TEXT
   8
LEVEL003
  62
3
  10
 256.867
  20
 528.000
  30
0.0
  40
 4.00000
   1
5
  50
 90.0000
   7
STANDARD
  72
1
  11
 256.867
  21
 530.000
  31
0.0
   0
ENDSEC
   0
EOF
