   0
SECTION
   2
HEADER
   9
$LIMMIN
  10
-50.0000
  20
0.0
   9
$LIMMAX
  10
 1260.00
  20
 891.000
   9
$EXTMIN
  10
-50.0000
  20
0.0
   9
$EXTMAX
  10
 1260.00
  20
 891.000
   9
$LTSCALE
  40
 26.2000
   0
ENDSEC
   0
SECTION
   2
TABLES
  0
TABLE
  2
LTYPE
 70
    25
  0
LTYPE
  2
CONTINUOUS
 70
    64
  3
Solid line
 72
    65
 73
     0
 40
0.0
  0
LTYPE
  2
BORDER
 70
    64
  3
__ __ . __ __ . __ __ . __ __ . __ __ . __ __ .
 72
    65
 73
     6
 40
1.75
 49
0.5
 49
-0.25
 49
0.5
 49
-0.25
 49
0.0
 49
-0.25
  0
LTYPE
  2
BORDER2
 70
    64
  3
__.__.__.__.__.__.__.__.__.__.__.__.__.__.__.__
 72
    65
 73
     6
 40
0.875
 49
0.25
 49
-0.125
 49
0.25
 49
-0.125
 49
0.0
 49
-0.125
  0
LTYPE
  2
BORDERX2
 70
    64
  3
____  ____  .  ____  ____  .  ____  ____  .  __
 72
    65
 73
     6
 40
3.5
 49
1.0
 49
-0.5
 49
1.0
 49
-0.5
 49
0.0
 49
-0.5
  0
LTYPE
  2
CENTER
 70
    64
  3
____ _ ____ _ ____ _ ____ _ ____ _ ____ _ ____ 
 72
    65
 73
     4
 40
2.0
 49
1.25
 49
-0.25
 49
0.25
 49
-0.25
  0
LTYPE
  2
CENTER2
 70
    64
  3
___ _ ___ _ ___ _ ___ _ ___ _ ___ _ ___ _ ___ _
 72
    65
 73
     4
 40
1.125
 49
0.75
 49
-0.125
 49
0.125
 49
-0.125
  0
LTYPE
  2
CENTERX2
 70
    64
  3
________  __  ________  __  ________  __  _____
 72
    65
 73
     4
 40
4.0
 49
2.5
 49
-0.5
 49
0.5
 49
-0.5
  0
LTYPE
  2
DASHDOT
 70
    64
  3
__ . __ . __ . __ . __ . __ . __ . __ . __ . __
 72
    65
 73
     4
 40
1.0
 49
0.5
 49
-0.25
 49
0.0
 49
-0.25
  0
LTYPE
  2
DASHDOT2
 70
    64
  3
_._._._._._._._._._._._._._._._._._._._._._._._
 72
    65
 73
     4
 40
0.5
 49
0.25
 49
-0.125
 49
0.0
 49
-0.125
  0
LTYPE
  2
DASHDOTX2
 70
    64
  3
____  .  ____  .  ____  .  ____  .  ____  .  __
 72
    65
 73
     4
 40
2.0
 49
1.0
 49
-0.5
 49
0.0
 49
-0.5
  0
LTYPE
  2
DASHED
 70
    64
  3
__ __ __ __ __ __ __ __ __ __ __ __ __ __ __ __
 72
    65
 73
     2
 40
0.75
 49
0.5
 49
-0.25
  0
LTYPE
  2
DASHED2
 70
    64
  3
_ _ _ _ _ _ _ _ _ _ _ _ _ _ _ _ _ _ _ _ _ _ _ _
 72
    65
 73
     2
 40
0.375
 49
0.25
 49
-0.125
  0
LTYPE
  2
DASHEDX2
 70
    64
  3
____  ____  ____  ____  ____  ____  ____  ____ 
 72
    65
 73
     2
 40
1.5
 49
1.0
 49
-0.5
  0
LTYPE
  2
DIVIDE
 70
    64
  3
____ . . ____ . . ____ . . ____ . . ____ . . __
 72
    65
 73
     6
 40
1.25
 49
0.5
 49
-0.25
 49
0.0
 49
-0.25
 49
0.0
 49
-0.25
  0
LTYPE
  2
DIVIDE2
 70
    64
  3
__..__..__..__..__..__..__..__..__..__..__..__.
 72
    65
 73
     6
 40
0.625
 49
0.25
 49
-0.125
 49
0.0
 49
-0.125
 49
0.0
 49
-0.125
  0
LTYPE
  2
DIVIDEX2
 70
    64
  3
________  .  .  ________  .  .  ________  .  . 
 72
    65
 73
     6
 40
2.5
 49
1.0
 49
-0.5
 49
0.0
 49
-0.5
 49
0.0
 49
-0.5
  0
LTYPE
  2
DOT
 70
    64
  3
. . . . . . . . . . . . . . . . . . . . . . . .
 72
    65
 73
     2
 40
0.25
 49
0.0
 49
-0.25
  0
LTYPE
  2
DOT2
 70
    64
  3
...............................................
 72
    65
 73
     2
 40
0.125
 49
0.0
 49
-0.125
  0
LTYPE
  2
DOTX2
 70
    64
  3
.  .  .  .  .  .  .  .  .  .  .  .  .  .  .  . 
 72
    65
 73
     2
 40
0.5
 49
0.0
 49
-0.5
  0
LTYPE
  2
HIDDEN
 70
    64
  3
__ __ __ __ __ __ __ __ __ __ __ __ __ __ __ __
 72
    65
 73
     2
 40
0.375
 49
0.25
 49
-0.125
  0
LTYPE
  2
HIDDEN2
 70
    64
  3
_ _ _ _ _ _ _ _ _ _ _ _ _ _ _ _ _ _ _ _ _ _ _ _
 72
    65
 73
     2
 40
0.1875
 49
0.125
 49
-0.0625
  0
LTYPE
  2
HIDDENX2
 70
    64
  3
____ ____ ____ ____ ____ ____ ____ ____ ____ __
 72
    65
 73
     2
 40
0.75
 49
0.5
 49
-0.25
  0
LTYPE
  2
PHANTOM
 70
    64
  3
______  __  __  ______  __  __  ______  __  __ 
 72
    65
 73
     6
 40
2.5
 49
1.25
 49
-0.25
 49
0.25
 49
-0.25
 49
0.25
 49
-0.25
  0
LTYPE
  2
PHANTOM2
 70
    64
  3
___ _ _ ___ _ _ ___ _ _ ___ _ _ ___ _ _ ___ _ _
 72
    65
 73
     6
 40
1.25
 49
0.625
 49
-0.125
 49
0.125
 49
-0.125
 49
0.125
 49
-0.125
  0
LTYPE
  2
PHANTOMX2
 70
    64
  3
____________    ____    ____    ____________   
 72
    65
 73
     6
 40
5.0
 49
2.5
 49
-0.5
 49
0.5
 49
-0.5
 49
0.5
 49
-0.5
  0
ENDTAB
  0
TABLE
  2
STYLE
 70
     2
  0
STYLE
  2
STANDARD
 70
0
 40
0.0
 41
1.0
 50
0.0
 71
0
 42
0.2
  3
TXT
  4
BIGFONT
  0
STYLE
  2
STANDARD1
 70
     4
 40
0.0
 41
1.0
 50
0.0
 71
     0
 42
0.2
  3
TXT
  4
BIGFONT
  0
ENDTAB
   0
TABLE
   2
LAYER
  70
11
   0
LAYER
   2
0
  70
0
  62
7
   6
CONTINUOUS
   0
LAYER
   2
LEVEL001
  70
0
  62
7
   6
CONTINUOUS
   0
LAYER
   2
LEVEL003
  70
0
  62
7
   6
CONTINUOUS
   0
LAYER
   2
LEVEL011
  70
0
  62
7
   6
CONTINUOUS
   0
LAYER
   2
LEVEL020
  70
0
  62
7
   6
CONTINUOUS
   0
LAYER
   2
LEVEL030
  70
0
  62
7
   6
CONTINUOUS
   0
LAYER
   2
LEVEL050
  70
0
  62
7
   6
CONTINUOUS
   0
LAYER
   2
LEVEL060
  70
0
  62
7
   6
CONTINUOUS
   0
LAYER
   2
LEVEL081
  70
0
  62
7
   6
CONTINUOUS
   0
LAYER
   2
LEVEL087
  70
0
  62
7
   6
CONTINUOUS
   0
LAYER
   2
LEVEL100
  70
0
  62
-7
   6
CONTINUOUS
   0
ENDTAB
   0
ENDSEC
   0
SECTION
   2
ENTITIES
   0
LINE
   8
LEVEL100
   6
CONTINUOUS
  62
7
  10
 858.750
  20
 162.000
  30
0.0
  11
 858.750
  21
 141.000
  31
0.0
   0
LINE
   8
LEVEL100
   6
CONTINUOUS
  62
7
  10
 948.750
  20
 162.000
  30
0.0
  11
 948.750
  21
 93.0000
  31
0.0
   0
LINE
   8
LEVEL100
   6
CONTINUOUS
  62
7
  10
 1008.75
  20
 162.000
  30
0.0
  11
 1008.75
  21
 141.000
  31
0.0
   0
LINE
   8
LEVEL100
   6
CONTINUOUS
  62
7
  10
 1032.75
  20
 162.000
  30
0.0
  11
 1032.75
  21
 141.000
  31
0.0
   0
LINE
   8
LEVEL100
   6
CONTINUOUS
  62
7
  10
 1067.25
  20
 162.000
  30
0.0
  11
 1067.25
  21
 141.000
  31
0.0
   0
LINE
   8
LEVEL100
   6
CONTINUOUS
  62
7
  10
 920.250
  20
 141.000
  30
0.0
  11
 920.250
  21
 93.0000
  31
0.0
   0
LINE
   8
LEVEL100
   6
CONTINUOUS
  62
7
  10
 870.750
  20
 49.5000
  30
0.0
  11
 885.750
  21
 64.5000
  31
0.0
   0
CIRCLE
   8
LEVEL100
   6
CONTINUOUS
  62
7
  10
 849.750
  20
 4.50000
  30
0.0
  40
 1.20000
   0
CIRCLE
   8
LEVEL100
   6
CONTINUOUS
  62
7
  10
 870.750
  20
 4.50000
  30
0.0
  40
 1.20000
   0
CIRCLE
   8
LEVEL100
   6
CONTINUOUS
  62
7
  10
 849.750
  20
 4.50000
  30
0.0
  40
 0.750000
   0
CIRCLE
   8
LEVEL100
   6
CONTINUOUS
  62
7
  10
 870.750
  20
 4.50000
  30
0.0
  40
 0.750000
   0
LINE
   8
LEVEL100
   6
CONTINUOUS
  62
7
  10
 963.000
  20
 16.5000
  30
0.0
  11
 963.000
  21
 19.5000
  31
0.0
   0
LINE
   8
LEVEL100
   6
CONTINUOUS
  62
7
  10
 963.000
  20
 19.5000
  30
0.0
  11
 972.000
  21
 19.5000
  31
0.0
   0
LINE
   8
LEVEL100
   6
CONTINUOUS
  62
7
  10
 972.000
  20
 19.5000
  30
0.0
  11
 972.000
  21
 16.5000
  31
0.0
   0
LINE
   8
LEVEL100
   6
CONTINUOUS
  62
7
  10
 972.000
  20
 16.5000
  30
0.0
  11
 963.000
  21
 16.5000
  31
0.0
   0
LINE
   8
LEVEL100
   6
CONTINUOUS
  62
7
  10
 828.750
  20
0.0
  30
0.0
  11
 828.750
  21
 162.000
  31
0.0
   0
LINE
   8
LEVEL100
   6
CONTINUOUS
  62
7
  10
 891.750
  20
 141.000
  30
0.0
  11
 891.750
  21
0.0
  31
0.0
   0
LINE
   8
LEVEL100
   6
CONTINUOUS
  62
7
  10
 828.750
  20
 69.0000
  30
0.0
  11
 891.750
  21
 69.0000
  31
0.0
   0
TEXT
   8
LEVEL100
  62
7
  10
 902.250
  20
 10.5000
  30
0.0
  40
 15.0000
   1
ＯＪ
  41
 0.700000
   7
STANDARD
   0
LINE
   8
LEVEL100
   6
CONTINUOUS
  62
7
  10
 828.750
  20
 141.000
  30
0.0
  11
 1149.45
  21
 141.000
  31
0.0
   0
LINE
   8
LEVEL100
   6
CONTINUOUS
  62
7
  10
 828.750
  20
 129.000
  30
0.0
  11
 1149.45
  21
 129.000
  31
0.0
   0
LINE
   8
LEVEL100
   6
CONTINUOUS
  62
7
  10
 828.750
  20
 162.000
  30
0.0
  11
 1149.45
  21
 162.000
  31
0.0
   0
LINE
   8
LEVEL100
   6
CONTINUOUS
  62
7
  10
 906.450
  20
 759.000
  30
0.0
  11
 906.450
  21
 834.000
  31
0.0
   0
LINE
   8
LEVEL100
   6
CONTINUOUS
  62
7
  10
 906.450
  20
 819.000
  30
0.0
  11
 1149.45
  21
 819.000
  31
0.0
   0
LINE
   8
LEVEL100
   6
CONTINUOUS
  62
7
  10
 906.450
  20
 804.000
  30
0.0
  11
 1149.45
  21
 804.000
  31
0.0
   0
LINE
   8
LEVEL100
   6
CONTINUOUS
  62
7
  10
 933.450
  20
 819.000
  30
0.0
  11
 933.450
  21
 804.000
  31
0.0
   0
LINE
   8
LEVEL100
   6
CONTINUOUS
  62
7
  10
 1089.45
  20
 819.000
  30
0.0
  11
 1089.45
  21
 804.000
  31
0.0
   0
LINE
   8
LEVEL100
   6
CONTINUOUS
  62
7
  10
 1125.45
  20
 819.000
  30
0.0
  11
 1125.45
  21
 804.000
  31
0.0
   0
LINE
   8
LEVEL100
   6
CONTINUOUS
  62
7
  10
 828.750
  20
 93.0000
  30
0.0
  11
 1149.45
  21
 93.0000
  31
0.0
   0
LINE
   8
LEVEL100
   6
CONTINUOUS
  62
7
  10
 828.750
  20
 45.0000
  30
0.0
  11
 1149.45
  21
 45.0000
  31
0.0
   0
LINE
   8
LEVEL100
   6
CONTINUOUS
  62
7
  10
 1065.45
  20
 45.0000
  30
0.0
  11
 1065.45
  21
0.0
  31
0.0
   0
LINE
   8
LEVEL100
   6
CONTINUOUS
  62
7
  10
 1077.45
  20
0.0
  30
0.0
  11
 1128.45
  21
 30.0000
  31
0.0
   0
LINE
   8
LEVEL100
   6
CONTINUOUS
  62
7
  10
0.0
  20
 834.000
  30
0.0
  11
 1149.45
  21
 834.000
  31
0.0
   0
LINE
   8
LEVEL100
   6
CONTINUOUS
  62
7
  10
 1149.45
  20
 834.000
  30
0.0
  11
 1149.45
  21
0.0
  31
0.0
   0
LINE
   8
LEVEL100
   6
CONTINUOUS
  62
7
  10
 1149.45
  20
0.0
  30
0.0
  11
0.0
  21
0.0
  31
0.0
   0
LINE
   8
LEVEL100
   6
CONTINUOUS
  62
7
  10
0.0
  20
 807.600
  30
0.0
  11
 150.450
  21
 807.600
  31
0.0
   0
LINE
   8
LEVEL100
   6
CONTINUOUS
  62
7
  10
 150.450
  20
 807.600
  30
0.0
  11
 150.450
  21
 834.000
  31
0.0
   0
TEXT
   8
LEVEL100
  62
7
  10
 147.450
  20
 828.300
  30
0.0
  40
 15.0000
   1
ＯＪ．
  50
 180.000
  41
 0.900000
   7
STANDARD
   0
LINE
   8
LEVEL100
   6
CONTINUOUS
  62
7
  10
 96.4501
  20
 822.300
  30
0.0
  11
 87.4501
  21
 822.300
  31
0.0
   0
LINE
   8
LEVEL100
   6
CONTINUOUS
  62
7
  10
 87.4501
  20
 822.300
  30
0.0
  11
 87.4501
  21
 819.300
  31
0.0
   0
LINE
   8
LEVEL100
   6
CONTINUOUS
  62
7
  10
 87.4501
  20
 819.300
  30
0.0
  11
 96.4501
  21
 819.300
  31
0.0
   0
LINE
   8
LEVEL100
   6
CONTINUOUS
  62
7
  10
 96.4501
  20
 819.300
  30
0.0
  11
 96.4501
  21
 822.300
  31
0.0
   0
TEXT
   8
LEVEL100
  62
7
  10
 861.750
  20
 144.000
  30
0.0
  40
 12.0000
   1
Ｓ．ＩＭＡＮＩＳＨＩ
  41
 0.625000
   7
STANDARD
   0
LINE
   8
LEVEL001
   6
DASHDOT
  62
1
  10
 341.921
  20
 154.249
  30
0.0
  11
 334.721
  21
 154.249
  31
0.0
   0
LINE
   8
LEVEL001
   6
DASHDOT
  62
1
  10
 338.321
  20
 157.849
  30
0.0
  11
 338.321
  21
 150.649
  31
0.0
   0
LINE
   8
LEVEL001
   6
DASHDOT
  62
1
  10
 361.921
  20
 154.249
  30
0.0
  11
 354.721
  21
 154.249
  31
0.0
   0
LINE
   8
LEVEL001
   6
DASHDOT
  62
1
  10
 358.321
  20
 157.849
  30
0.0
  11
 358.321
  21
 150.649
  31
0.0
   0
ARC
   8
LEVEL001
   6
CONTINUOUS
  62
7
  10
 368.321
  20
 211.291
  30
0.0
  40
 3.00000
  50
 180.000
  51
 270.000
   0
LINE
   8
LEVEL001
   6
CONTINUOUS
  62
7
  10
 368.321
  20
 208.291
  30
0.0
  11
 369.566
  21
 208.291
  31
0.0
   0
ARC
   8
LEVEL001
   6
CONTINUOUS
  62
7
  10
 369.566
  20
 206.291
  30
0.0
  40
 2.00000
  50
0.0
  51
 90.0000
   0
ARC
   8
LEVEL001
   6
CONTINUOUS
  62
7
  10
 323.321
  20
 227.249
  30
0.0
  40
 3.00000
  50
 180.000
  51
 270.000
   0
LINE
   8
LEVEL001
   6
CONTINUOUS
  62
7
  10
 320.321
  20
 227.249
  30
0.0
  11
 320.321
  21
 227.894
  31
0.0
   0
LINE
   8
LEVEL001
   6
CONTINUOUS
  62
7
  10
 323.321
  20
 224.249
  30
0.0
  11
 325.321
  21
 224.249
  31
0.0
   0
LINE
   8
LEVEL001
   6
CONTINUOUS
  62
7
  10
 365.321
  20
 224.249
  30
0.0
  11
 364.321
  21
 225.249
  31
0.0
   0
LINE
   8
LEVEL001
   6
CONTINUOUS
  62
7
  10
 326.321
  20
 225.249
  30
0.0
  11
 325.321
  21
 224.249
  31
0.0
   0
LINE
   8
LEVEL001
   6
CONTINUOUS
  62
7
  10
 365.321
  20
 211.291
  30
0.0
  11
 365.321
  21
 224.249
  31
0.0
   0
LINE
   8
LEVEL001
   6
DASHDOT
  62
1
  10
 324.321
  20
 178.249
  30
0.0
  11
 324.321
  21
 172.249
  31
0.0
   0
LINE
   8
LEVEL001
   6
DASHDOT
  62
1
  10
 294.321
  20
 175.249
  30
0.0
  11
 358.321
  21
 175.249
  31
0.0
   0
ARC
   8
LEVEL001
   6
CONTINUOUS
  62
7
  10
 293.321
  20
 202.645
  30
0.0
  40
 15.0000
  50
 0.238838E-11
  51
 32.3874
   0
LINE
   8
LEVEL001
   6
CONTINUOUS
  62
7
  10
 298.821
  20
 194.249
  30
0.0
  11
 298.821
  21
 159.249
  31
0.0
   0
ARC
   8
LEVEL001
   6
CONTINUOUS
  62
7
  10
 319.887
  20
 156.249
  30
0.0
  40
 3.00000
  50
 74.0373
  51
 90.0000
   0
ARC
   8
LEVEL001
   6
CONTINUOUS
  62
7
  10
 325.321
  20
 175.249
  30
0.0
  40
 16.7620
  50
 254.037
  51
 259.408
   0
LINE
   8
LEVEL001
   6
CONTINUOUS
  62
7
  10
 298.821
  20
 159.249
  30
0.0
  11
 319.887
  21
 159.249
  31
0.0
   0
ARC
   8
LEVEL001
   6
CONTINUOUS
  62
7
  10
 321.321
  20
 153.857
  30
0.0
  40
 5.00000
  50
0.0
  51
 79.4084
   0
LINE
   8
LEVEL001
   6
CONTINUOUS
  62
7
  10
 326.321
  20
 126.249
  30
0.0
  11
 366.311
  21
 126.249
  31
0.0
   0
LINE
   8
LEVEL001
   6
CONTINUOUS
  62
7
  10
 326.321
  20
 126.249
  30
0.0
  11
 326.321
  21
 153.857
  31
0.0
   0
LINE
   8
LEVEL001
   6
DASHDOT
  62
1
  10
 323.871
  20
 138.749
  30
0.0
  11
 351.284
  21
 138.749
  31
0.0
   0
ARC
   8
LEVEL001
   6
CONTINUOUS
  62
7
  10
 376.566
  20
 200.749
  30
0.0
  40
 5.00000
  50
 180.000
  51
 221.503
   0
LINE
   8
LEVEL001
   6
CONTINUOUS
  62
7
  10
 371.566
  20
 206.291
  30
0.0
  11
 371.566
  21
 200.749
  31
0.0
   0
ARC
   8
LEVEL001
   6
CONTINUOUS
  62
7
  10
 369.269
  20
 125.749
  30
0.0
  40
 3.00000
  50
 90.0000
  51
 170.406
   0
LINE
   8
LEVEL001
   6
CONTINUOUS
  62
7
  10
 369.269
  20
 128.749
  30
0.0
  11
 372.321
  21
 128.749
  31
0.0
   0
LINE
   8
LEVEL001
   6
CONTINUOUS
  62
7
  10
 372.321
  20
 128.749
  30
0.0
  11
 372.821
  21
 129.249
  31
0.0
   0
LINE
   8
LEVEL001
   6
CONTINUOUS
  62
7
  10
 372.821
  20
 129.249
  30
0.0
  11
 372.821
  21
 129.749
  31
0.0
   0
LINE
   8
LEVEL001
   6
DASHDOT
  62
1
  10
 345.321
  20
 126.249
  30
0.0
  11
 345.321
  21
 255.413
  31
0.0
   0
LINE
   8
LEVEL001
   6
CONTINUOUS
  62
7
  10
 364.321
  20
 225.249
  30
0.0
  11
 326.321
  21
 225.249
  31
0.0
   0
LINE
   8
LEVEL001
   6
DOT
  62
3
  10
 298.821
  20
 166.918
  30
0.0
  11
 299.705
  21
 167.801
  31
0.0
   0
LINE
   8
LEVEL001
   6
DOT
  62
3
  10
 298.821
  20
 183.580
  30
0.0
  11
 299.705
  21
 182.696
  31
0.0
   0
LINE
   8
LEVEL001
   6
CONTINUOUS
  62
7
  10
 319.321
  20
 227.249
  30
0.0
  11
 319.321
  21
 236.249
  31
0.0
   0
ARC
   8
LEVEL001
   6
CONTINUOUS
  62
7
  10
 323.321
  20
 227.248
  30
0.0
  40
 4.00000
  50
 179.998
  51
 270.000
   0
ARC
   8
LEVEL001
   6
CONTINUOUS
  62
7
  10
 323.321
  20
 227.249
  30
0.0
  40
 5.00000
  50
 180.000
  51
 269.867
   0
ARC
   8
LEVEL001
   6
CONTINUOUS
  62
7
  10
 323.321
  20
 227.249
  30
0.0
  40
 11.0000
  50
 180.000
  51
 270.000
   0
ARC
   8
LEVEL001
   6
CONTINUOUS
  62
7
  10
 323.321
  20
 227.249
  30
0.0
  40
 10.0000
  50
 180.000
  51
 269.900
   0
LINE
   8
LEVEL001
   6
CONTINUOUS
  62
7
  10
 338.321
  20
 187.644
  30
0.0
  11
 358.321
  21
 187.644
  31
0.0
   0
ARC
   8
LEVEL003
   6
CONTINUOUS
  62
7
  10
 365.821
  20
 211.418
  30
0.0
  40
 3.00000
  50
 120.000
  51
 180.000
   0
LINE
   8
LEVEL003
   6
CONTINUOUS
  62
7
  10
 327.821
  20
 213.749
  30
0.0
  11
 362.821
  21
 213.749
  31
0.0
   0
ARC
   8
LEVEL003
   6
CONTINUOUS
  62
7
  10
 324.821
  20
 211.418
  30
0.0
  40
 3.00000
  50
 0.651378E-11
  51
 60.0000
   0
ARC
   8
LEVEL003
   6
CONTINUOUS
  62
7
  10
 327.321
  20
 215.749
  30
0.0
  40
 2.00000
  50
 180.000
  51
 240.000
   0
LINE
   8
LEVEL003
   6
CONTINUOUS
  62
7
  10
 325.321
  20
 216.249
  30
0.0
  11
 325.321
  21
 215.749
  31
0.0
   0
ARC
   8
LEVEL003
   6
CONTINUOUS
  62
7
  10
 331.004
  20
 225.248
  30
0.0
  40
 2.00000
  50
 270.000
  51
0.0
   0
ARC
   8
LEVEL003
   6
CONTINUOUS
  62
7
  10
 331.004
  20
 224.249
  30
0.0
  40
 2.00000
  50
 270.000
  51
 0.325689E-11
   0
ARC
   8
LEVEL003
   6
CONTINUOUS
  62
7
  10
 331.004
  20
 214.249
  30
0.0
  40
 2.00000
  50
 0.227982E-10
  51
 90.0000
   0
ARC
   8
LEVEL003
   6
CONTINUOUS
  62
7
  10
 331.004
  20
 215.249
  30
0.0
  40
 2.00000
  50
0.0
  51
 90.0000
   0
LINE
   8
LEVEL001
   6
CONTINUOUS
  62
7
  10
 331.004
  20
 223.248
  30
0.0
  11
 323.321
  21
 223.248
  31
0.0
   0
LINE
   8
LEVEL001
   6
CONTINUOUS
  62
7
  10
 331.004
  20
 222.249
  30
0.0
  11
 323.310
  21
 222.249
  31
0.0
   0
LINE
   8
LEVEL001
   6
CONTINUOUS
  62
7
  10
 331.004
  20
 217.249
  30
0.0
  11
 323.304
  21
 217.249
  31
0.0
   0
LINE
   8
LEVEL001
   6
CONTINUOUS
  62
7
  10
 331.004
  20
 216.249
  30
0.0
  11
 323.321
  21
 216.249
  31
0.0
   0
LINE
   8
LEVEL003
   6
CONTINUOUS
  62
7
  10
 346.321
  20
 203.025
  30
0.0
  11
 346.259
  21
 203.366
  31
0.0
   0
LINE
   8
LEVEL003
   6
CONTINUOUS
  62
7
  10
 346.259
  20
 203.366
  30
0.0
  11
 346.073
  21
 203.702
  31
0.0
   0
LINE
   8
LEVEL003
   6
CONTINUOUS
  62
7
  10
 346.073
  20
 203.702
  30
0.0
  11
 345.766
  21
 204.027
  31
0.0
   0
LINE
   8
LEVEL003
   6
CONTINUOUS
  62
7
  10
 345.766
  20
 204.027
  30
0.0
  11
 345.342
  21
 204.337
  31
0.0
   0
LINE
   8
LEVEL003
   6
CONTINUOUS
  62
7
  10
 345.342
  20
 204.337
  30
0.0
  11
 344.809
  21
 204.626
  31
0.0
   0
LINE
   8
LEVEL003
   6
CONTINUOUS
  62
7
  10
 344.809
  20
 204.626
  30
0.0
  11
 344.175
  21
 204.890
  31
0.0
   0
LINE
   8
LEVEL003
   6
CONTINUOUS
  62
7
  10
 344.175
  20
 204.890
  30
0.0
  11
 343.449
  21
 205.125
  31
0.0
   0
LINE
   8
LEVEL003
   6
CONTINUOUS
  62
7
  10
 343.449
  20
 205.125
  30
0.0
  11
 342.644
  21
 205.327
  31
0.0
   0
LINE
   8
LEVEL003
   6
CONTINUOUS
  62
7
  10
 342.644
  20
 205.327
  30
0.0
  11
 341.771
  21
 205.494
  31
0.0
   0
LINE
   8
LEVEL003
   6
CONTINUOUS
  62
7
  10
 341.771
  20
 205.494
  30
0.0
  11
 340.844
  21
 205.621
  31
0.0
   0
LINE
   8
LEVEL003
   6
CONTINUOUS
  62
7
  10
 340.844
  20
 205.621
  30
0.0
  11
 339.878
  21
 205.709
  31
0.0
   0
LINE
   8
LEVEL003
   6
CONTINUOUS
  62
7
  10
 339.878
  20
 205.709
  30
0.0
  11
 338.887
  21
 205.754
  31
0.0
   0
LINE
   8
LEVEL003
   6
CONTINUOUS
  62
7
  10
 338.887
  20
 205.754
  30
0.0
  11
 337.888
  21
 205.757
  31
0.0
   0
LINE
   8
LEVEL003
   6
CONTINUOUS
  62
7
  10
 337.888
  20
 205.757
  30
0.0
  11
 336.896
  21
 205.717
  31
0.0
   0
LINE
   8
LEVEL003
   6
CONTINUOUS
  62
7
  10
 336.896
  20
 205.717
  30
0.0
  11
 335.925
  21
 205.635
  31
0.0
   0
LINE
   8
LEVEL003
   6
CONTINUOUS
  62
7
  10
 335.925
  20
 205.635
  30
0.0
  11
 334.992
  21
 205.513
  31
0.0
   0
LINE
   8
LEVEL003
   6
CONTINUOUS
  62
7
  10
 334.992
  20
 205.513
  30
0.0
  11
 334.111
  21
 205.351
  31
0.0
   0
LINE
   8
LEVEL003
   6
CONTINUOUS
  62
7
  10
 334.111
  20
 205.351
  30
0.0
  11
 333.296
  21
 205.154
  31
0.0
   0
LINE
   8
LEVEL003
   6
CONTINUOUS
  62
7
  10
 333.296
  20
 205.154
  30
0.0
  11
 332.559
  21
 204.923
  31
0.0
   0
LINE
   8
LEVEL003
   6
CONTINUOUS
  62
7
  10
 332.559
  20
 204.923
  30
0.0
  11
 331.912
  21
 204.662
  31
0.0
   0
LINE
   8
LEVEL003
   6
CONTINUOUS
  62
7
  10
 331.912
  20
 204.662
  30
0.0
  11
 331.365
  21
 204.376
  31
0.0
   0
LINE
   8
LEVEL003
   6
CONTINUOUS
  62
7
  10
 331.365
  20
 204.376
  30
0.0
  11
 330.927
  21
 204.069
  31
0.0
   0
LINE
   8
LEVEL003
   6
CONTINUOUS
  62
7
  10
 330.927
  20
 204.069
  30
0.0
  11
 330.604
  21
 203.746
  31
0.0
   0
LINE
   8
LEVEL003
   6
CONTINUOUS
  62
7
  10
 330.604
  20
 203.746
  30
0.0
  11
 330.402
  21
 203.411
  31
0.0
   0
LINE
   8
LEVEL003
   6
CONTINUOUS
  62
7
  10
 330.402
  20
 203.411
  30
0.0
  11
 330.323
  21
 203.070
  31
0.0
   0
LINE
   8
LEVEL003
   6
CONTINUOUS
  62
7
  10
 330.323
  20
 203.070
  30
0.0
  11
 330.368
  21
 202.729
  31
0.0
   0
LINE
   8
LEVEL003
   6
CONTINUOUS
  62
7
  10
 330.368
  20
 202.729
  30
0.0
  11
 330.538
  21
 202.392
  31
0.0
   0
LINE
   8
LEVEL003
   6
CONTINUOUS
  62
7
  10
 330.538
  20
 202.392
  30
0.0
  11
 330.830
  21
 202.065
  31
0.0
   0
LINE
   8
LEVEL003
   6
CONTINUOUS
  62
7
  10
 330.830
  20
 202.065
  30
0.0
  11
 331.238
  21
 201.753
  31
0.0
   0
LINE
   8
LEVEL003
   6
CONTINUOUS
  62
7
  10
 331.238
  20
 201.753
  30
0.0
  11
 331.757
  21
 201.461
  31
0.0
   0
LINE
   8
LEVEL003
   6
CONTINUOUS
  62
7
  10
 331.757
  20
 201.461
  30
0.0
  11
 332.378
  21
 201.193
  31
0.0
   0
LINE
   8
LEVEL003
   6
CONTINUOUS
  62
7
  10
 332.378
  20
 201.193
  30
0.0
  11
 333.092
  21
 200.954
  31
0.0
   0
LINE
   8
LEVEL003
   6
CONTINUOUS
  62
7
  10
 333.092
  20
 200.954
  30
0.0
  11
 333.888
  21
 200.747
  31
0.0
   0
LINE
   8
LEVEL003
   6
CONTINUOUS
  62
7
  10
 333.888
  20
 200.747
  30
0.0
  11
 334.753
  21
 200.576
  31
0.0
   0
LINE
   8
LEVEL003
   6
CONTINUOUS
  62
7
  10
 334.753
  20
 200.576
  30
0.0
  11
 335.673
  21
 200.443
  31
0.0
   0
LINE
   8
LEVEL003
   6
CONTINUOUS
  62
7
  10
 335.673
  20
 200.443
  30
0.0
  11
 336.635
  21
 200.350
  31
0.0
   0
LINE
   8
LEVEL003
   6
CONTINUOUS
  62
7
  10
 336.635
  20
 200.350
  30
0.0
  11
 337.623
  21
 200.299
  31
0.0
   0
LINE
   8
LEVEL003
   6
CONTINUOUS
  62
7
  10
 337.623
  20
 200.299
  30
0.0
  11
 338.622
  21
 200.291
  31
0.0
   0
LINE
   8
LEVEL003
   6
CONTINUOUS
  62
7
  10
 338.622
  20
 200.291
  30
0.0
  11
 339.617
  21
 200.325
  31
0.0
   0
LINE
   8
LEVEL003
   6
CONTINUOUS
  62
7
  10
 339.617
  20
 200.325
  30
0.0
  11
 340.591
  21
 200.401
  31
0.0
   0
LINE
   8
LEVEL003
   6
CONTINUOUS
  62
7
  10
 340.591
  20
 200.401
  30
0.0
  11
 341.529
  21
 200.518
  31
0.0
   0
LINE
   8
LEVEL003
   6
CONTINUOUS
  62
7
  10
 341.529
  20
 200.518
  30
0.0
  11
 342.418
  21
 200.675
  31
0.0
   0
LINE
   8
LEVEL003
   6
CONTINUOUS
  62
7
  10
 342.418
  20
 200.675
  30
0.0
  11
 343.243
  21
 200.868
  31
0.0
   0
LINE
   8
LEVEL003
   6
CONTINUOUS
  62
7
  10
 343.243
  20
 200.868
  30
0.0
  11
 343.991
  21
 201.094
  31
0.0
   0
LINE
   8
LEVEL003
   6
CONTINUOUS
  62
7
  10
 343.991
  20
 201.094
  30
0.0
  11
 344.650
  21
 201.351
  31
0.0
   0
LINE
   8
LEVEL003
   6
CONTINUOUS
  62
7
  10
 344.650
  20
 201.351
  30
0.0
  11
 345.211
  21
 201.634
  31
0.0
   0
LINE
   8
LEVEL003
   6
CONTINUOUS
  62
7
  10
 345.211
  20
 201.634
  30
0.0
  11
 345.664
  21
 201.939
  31
0.0
   0
LINE
   8
LEVEL003
   6
CONTINUOUS
  62
7
  10
 345.664
  20
 201.939
  30
0.0
  11
 346.003
  21
 202.260
  31
0.0
   0
LINE
   8
LEVEL003
   6
CONTINUOUS
  62
7
  10
 346.003
  20
 202.260
  30
0.0
  11
 346.222
  21
 202.594
  31
0.0
   0
LINE
   8
LEVEL003
   6
CONTINUOUS
  62
7
  10
 346.222
  20
 202.594
  30
0.0
  11
 346.317
  21
 202.934
  31
0.0
   0
LINE
   8
LEVEL003
   6
CONTINUOUS
  62
7
  10
 346.317
  20
 202.934
  30
0.0
  11
 346.321
  21
 203.025
  31
0.0
   0
LINE
   8
LEVEL003
   6
CONTINUOUS
  62
7
  10
 331.596
  20
 204.507
  30
0.0
  11
 330.903
  21
 204.204
  31
0.0
   0
LINE
   8
LEVEL003
   6
CONTINUOUS
  62
7
  10
 330.903
  20
 204.204
  30
0.0
  11
 330.325
  21
 203.874
  31
0.0
   0
LINE
   8
LEVEL003
   6
CONTINUOUS
  62
7
  10
 330.325
  20
 203.874
  30
0.0
  11
 329.873
  21
 203.522
  31
0.0
   0
LINE
   8
LEVEL003
   6
CONTINUOUS
  62
7
  10
 329.873
  20
 203.522
  30
0.0
  11
 329.552
  21
 203.153
  31
0.0
   0
LINE
   8
LEVEL003
   6
CONTINUOUS
  62
7
  10
 329.552
  20
 203.153
  30
0.0
  11
 329.368
  21
 202.774
  31
0.0
   0
LINE
   8
LEVEL003
   6
CONTINUOUS
  62
7
  10
 329.368
  20
 202.774
  30
0.0
  11
 329.324
  21
 202.390
  31
0.0
   0
LINE
   8
LEVEL003
   6
CONTINUOUS
  62
7
  10
 329.324
  20
 202.390
  30
0.0
  11
 329.420
  21
 202.007
  31
0.0
   0
LINE
   8
LEVEL003
   6
CONTINUOUS
  62
7
  10
 329.420
  20
 202.007
  30
0.0
  11
 329.655
  21
 201.631
  31
0.0
   0
LINE
   8
LEVEL003
   6
CONTINUOUS
  62
7
  10
 329.655
  20
 201.631
  30
0.0
  11
 330.025
  21
 201.268
  31
0.0
   0
LINE
   8
LEVEL003
   6
CONTINUOUS
  62
7
  10
 330.025
  20
 201.268
  30
0.0
  11
 330.525
  21
 200.923
  31
0.0
   0
LINE
   8
LEVEL003
   6
CONTINUOUS
  62
7
  10
 330.525
  20
 200.923
  30
0.0
  11
 331.147
  21
 200.603
  31
0.0
   0
LINE
   8
LEVEL003
   6
CONTINUOUS
  62
7
  10
 331.147
  20
 200.603
  30
0.0
  11
 331.880
  21
 200.311
  31
0.0
   0
LINE
   8
LEVEL003
   6
CONTINUOUS
  62
7
  10
 331.880
  20
 200.311
  30
0.0
  11
 332.714
  21
 200.053
  31
0.0
   0
LINE
   8
LEVEL003
   6
CONTINUOUS
  62
7
  10
 332.714
  20
 200.053
  30
0.0
  11
 333.635
  21
 199.833
  31
0.0
   0
LINE
   8
LEVEL003
   6
CONTINUOUS
  62
7
  10
 333.635
  20
 199.833
  30
0.0
  11
 334.630
  21
 199.654
  31
0.0
   0
LINE
   8
LEVEL003
   6
CONTINUOUS
  62
7
  10
 334.630
  20
 199.654
  30
0.0
  11
 335.682
  21
 199.518
  31
0.0
   0
LINE
   8
LEVEL003
   6
CONTINUOUS
  62
7
  10
 335.682
  20
 199.518
  30
0.0
  11
 336.775
  21
 199.429
  31
0.0
   0
LINE
   8
LEVEL003
   6
CONTINUOUS
  62
7
  10
 336.775
  20
 199.429
  30
0.0
  11
 337.893
  21
 199.386
  31
0.0
   0
LINE
   8
LEVEL003
   6
CONTINUOUS
  62
7
  10
 337.893
  20
 199.386
  30
0.0
  11
 339.017
  21
 199.392
  31
0.0
   0
LINE
   8
LEVEL003
   6
CONTINUOUS
  62
7
  10
 339.017
  20
 199.392
  30
0.0
  11
 340.130
  21
 199.446
  31
0.0
   0
LINE
   8
LEVEL003
   6
CONTINUOUS
  62
7
  10
 340.130
  20
 199.446
  30
0.0
  11
 341.215
  21
 199.546
  31
0.0
   0
LINE
   8
LEVEL003
   6
CONTINUOUS
  62
7
  10
 341.215
  20
 199.546
  30
0.0
  11
 342.255
  21
 199.693
  31
0.0
   0
LINE
   8
LEVEL003
   6
CONTINUOUS
  62
7
  10
 342.255
  20
 199.693
  30
0.0
  11
 343.234
  21
 199.882
  31
0.0
   0
LINE
   8
LEVEL003
   6
CONTINUOUS
  62
7
  10
 343.234
  20
 199.882
  30
0.0
  11
 344.136
  21
 200.111
  31
0.0
   0
LINE
   8
LEVEL003
   6
CONTINUOUS
  62
7
  10
 344.136
  20
 200.111
  30
0.0
  11
 344.947
  21
 200.378
  31
0.0
   0
LINE
   8
LEVEL003
   6
CONTINUOUS
  62
7
  10
 344.947
  20
 200.378
  30
0.0
  11
 345.655
  21
 200.676
  31
0.0
   0
LINE
   8
LEVEL003
   6
CONTINUOUS
  62
7
  10
 345.655
  20
 200.676
  30
0.0
  11
 346.248
  21
 201.003
  31
0.0
   0
LINE
   8
LEVEL003
   6
CONTINUOUS
  62
7
  10
 346.248
  20
 201.003
  30
0.0
  11
 346.717
  21
 201.352
  31
0.0
   0
LINE
   8
LEVEL003
   6
CONTINUOUS
  62
7
  10
 346.717
  20
 201.352
  30
0.0
  11
 347.056
  21
 201.719
  31
0.0
   0
LINE
   8
LEVEL003
   6
CONTINUOUS
  62
7
  10
 347.056
  20
 201.719
  30
0.0
  11
 347.258
  21
 202.097
  31
0.0
   0
LINE
   8
LEVEL003
   6
CONTINUOUS
  62
7
  10
 347.258
  20
 202.097
  30
0.0
  11
 347.321
  21
 202.481
  31
0.0
   0
LINE
   8
LEVEL003
   6
CONTINUOUS
  62
7
  10
 347.321
  20
 202.481
  30
0.0
  11
 347.244
  21
 202.865
  31
0.0
   0
LINE
   8
LEVEL003
   6
CONTINUOUS
  62
7
  10
 347.244
  20
 202.865
  30
0.0
  11
 347.027
  21
 203.242
  31
0.0
   0
LINE
   8
LEVEL003
   6
CONTINUOUS
  62
7
  10
 347.027
  20
 203.242
  30
0.0
  11
 346.674
  21
 203.607
  31
0.0
   0
LINE
   8
LEVEL003
   6
CONTINUOUS
  62
7
  10
 346.674
  20
 203.607
  30
0.0
  11
 346.191
  21
 203.955
  31
0.0
   0
LINE
   8
LEVEL003
   6
CONTINUOUS
  62
7
  10
 346.191
  20
 203.955
  30
0.0
  11
 345.585
  21
 204.278
  31
0.0
   0
LINE
   8
LEVEL003
   6
CONTINUOUS
  62
7
  10
 345.585
  20
 204.278
  30
0.0
  11
 345.047
  21
 204.507
  31
0.0
   0
LINE
   8
LEVEL003
   6
CONTINUOUS
  62
7
  10
 329.321
  20
 191.749
  30
0.0
  11
 329.392
  21
 191.365
  31
0.0
   0
LINE
   8
LEVEL003
   6
CONTINUOUS
  62
7
  10
 329.392
  20
 191.365
  30
0.0
  11
 329.601
  21
 190.987
  31
0.0
   0
LINE
   8
LEVEL003
   6
CONTINUOUS
  62
7
  10
 329.601
  20
 190.987
  30
0.0
  11
 329.947
  21
 190.621
  31
0.0
   0
LINE
   8
LEVEL003
   6
CONTINUOUS
  62
7
  10
 329.947
  20
 190.621
  30
0.0
  11
 330.423
  21
 190.273
  31
0.0
   0
LINE
   8
LEVEL003
   6
CONTINUOUS
  62
7
  10
 330.423
  20
 190.273
  30
0.0
  11
 331.023
  21
 189.948
  31
0.0
   0
LINE
   8
LEVEL003
   6
CONTINUOUS
  62
7
  10
 331.023
  20
 189.948
  30
0.0
  11
 331.736
  21
 189.650
  31
0.0
   0
LINE
   8
LEVEL003
   6
CONTINUOUS
  62
7
  10
 331.736
  20
 189.650
  30
0.0
  11
 332.552
  21
 189.386
  31
0.0
   0
LINE
   8
LEVEL003
   6
CONTINUOUS
  62
7
  10
 332.552
  20
 189.386
  30
0.0
  11
 333.459
  21
 189.158
  31
0.0
   0
LINE
   8
LEVEL003
   6
CONTINUOUS
  62
7
  10
 333.459
  20
 189.158
  30
0.0
  11
 334.441
  21
 188.971
  31
0.0
   0
LINE
   8
LEVEL003
   6
CONTINUOUS
  62
7
  10
 334.441
  20
 188.971
  30
0.0
  11
 335.484
  21
 188.827
  31
0.0
   0
LINE
   8
LEVEL003
   6
CONTINUOUS
  62
7
  10
 335.484
  20
 188.827
  30
0.0
  11
 336.571
  21
 188.729
  31
0.0
   0
LINE
   8
LEVEL003
   6
CONTINUOUS
  62
7
  10
 336.571
  20
 188.729
  30
0.0
  11
 337.685
  21
 188.678
  31
0.0
   0
LINE
   8
LEVEL003
   6
CONTINUOUS
  62
7
  10
 337.685
  20
 188.678
  30
0.0
  11
 338.809
  21
 188.675
  31
0.0
   0
LINE
   8
LEVEL003
   6
CONTINUOUS
  62
7
  10
 338.809
  20
 188.675
  30
0.0
  11
 339.926
  21
 188.720
  31
0.0
   0
LINE
   8
LEVEL003
   6
CONTINUOUS
  62
7
  10
 339.926
  20
 188.720
  30
0.0
  11
 341.017
  21
 188.812
  31
0.0
   0
LINE
   8
LEVEL003
   6
CONTINUOUS
  62
7
  10
 341.017
  20
 188.812
  30
0.0
  11
 342.067
  21
 188.950
  31
0.0
   0
LINE
   8
LEVEL003
   6
CONTINUOUS
  62
7
  10
 342.067
  20
 188.950
  30
0.0
  11
 343.058
  21
 189.131
  31
0.0
   0
LINE
   8
LEVEL003
   6
CONTINUOUS
  62
7
  10
 343.058
  20
 189.131
  30
0.0
  11
 343.975
  21
 189.354
  31
0.0
   0
LINE
   8
LEVEL003
   6
CONTINUOUS
  62
7
  10
 343.975
  20
 189.354
  30
0.0
  11
 344.804
  21
 189.613
  31
0.0
   0
LINE
   8
LEVEL003
   6
CONTINUOUS
  62
7
  10
 344.804
  20
 189.613
  30
0.0
  11
 345.532
  21
 189.906
  31
0.0
   0
LINE
   8
LEVEL003
   6
CONTINUOUS
  62
7
  10
 345.532
  20
 189.906
  30
0.0
  11
 346.147
  21
 190.228
  31
0.0
   0
LINE
   8
LEVEL003
   6
CONTINUOUS
  62
7
  10
 346.147
  20
 190.228
  30
0.0
  11
 346.640
  21
 190.574
  31
0.0
   0
LINE
   8
LEVEL003
   6
CONTINUOUS
  62
7
  10
 346.640
  20
 190.574
  30
0.0
  11
 347.004
  21
 190.938
  31
0.0
   0
LINE
   8
LEVEL003
   6
CONTINUOUS
  62
7
  10
 347.004
  20
 190.938
  30
0.0
  11
 347.231
  21
 191.314
  31
0.0
   0
LINE
   8
LEVEL003
   6
CONTINUOUS
  62
7
  10
 347.231
  20
 191.314
  30
0.0
  11
 347.320
  21
 191.698
  31
0.0
   0
LINE
   8
LEVEL003
   6
CONTINUOUS
  62
7
  10
 347.320
  20
 191.698
  30
0.0
  11
 347.321
  21
 191.749
  31
0.0
   0
LINE
   8
LEVEL003
   6
CONTINUOUS
  62
7
  10
 329.321
  20
 202.461
  30
0.0
  11
 329.321
  21
 191.749
  31
0.0
   0
LINE
   8
LEVEL003
   6
CONTINUOUS
  62
7
  10
 347.321
  20
 202.461
  30
0.0
  11
 347.321
  21
 191.749
  31
0.0
   0
LINE
   8
LEVEL003
   6
CONTINUOUS
  62
7
  10
 366.321
  20
 203.025
  30
0.0
  11
 366.259
  21
 203.366
  31
0.0
   0
LINE
   8
LEVEL003
   6
CONTINUOUS
  62
7
  10
 366.259
  20
 203.366
  30
0.0
  11
 366.073
  21
 203.702
  31
0.0
   0
LINE
   8
LEVEL003
   6
CONTINUOUS
  62
7
  10
 366.073
  20
 203.702
  30
0.0
  11
 365.766
  21
 204.027
  31
0.0
   0
LINE
   8
LEVEL003
   6
CONTINUOUS
  62
7
  10
 365.766
  20
 204.027
  30
0.0
  11
 365.342
  21
 204.337
  31
0.0
   0
LINE
   8
LEVEL003
   6
CONTINUOUS
  62
7
  10
 365.342
  20
 204.337
  30
0.0
  11
 364.809
  21
 204.626
  31
0.0
   0
LINE
   8
LEVEL003
   6
CONTINUOUS
  62
7
  10
 364.809
  20
 204.626
  30
0.0
  11
 364.175
  21
 204.890
  31
0.0
   0
LINE
   8
LEVEL003
   6
CONTINUOUS
  62
7
  10
 364.175
  20
 204.890
  30
0.0
  11
 363.449
  21
 205.125
  31
0.0
   0
LINE
   8
LEVEL003
   6
CONTINUOUS
  62
7
  10
 363.449
  20
 205.125
  30
0.0
  11
 362.644
  21
 205.327
  31
0.0
   0
LINE
   8
LEVEL003
   6
CONTINUOUS
  62
7
  10
 362.644
  20
 205.327
  30
0.0
  11
 361.771
  21
 205.494
  31
0.0
   0
LINE
   8
LEVEL003
   6
CONTINUOUS
  62
7
  10
 361.771
  20
 205.494
  30
0.0
  11
 360.844
  21
 205.621
  31
0.0
   0
LINE
   8
LEVEL003
   6
CONTINUOUS
  62
7
  10
 360.844
  20
 205.621
  30
0.0
  11
 359.878
  21
 205.709
  31
0.0
   0
LINE
   8
LEVEL003
   6
CONTINUOUS
  62
7
  10
 359.878
  20
 205.709
  30
0.0
  11
 358.887
  21
 205.754
  31
0.0
   0
LINE
   8
LEVEL003
   6
CONTINUOUS
  62
7
  10
 358.887
  20
 205.754
  30
0.0
  11
 357.888
  21
 205.757
  31
0.0
   0
LINE
   8
LEVEL003
   6
CONTINUOUS
  62
7
  10
 357.888
  20
 205.757
  30
0.0
  11
 356.896
  21
 205.717
  31
0.0
   0
LINE
   8
LEVEL003
   6
CONTINUOUS
  62
7
  10
 356.896
  20
 205.717
  30
0.0
  11
 355.925
  21
 205.635
  31
0.0
   0
LINE
   8
LEVEL003
   6
CONTINUOUS
  62
7
  10
 355.925
  20
 205.635
  30
0.0
  11
 354.992
  21
 205.513
  31
0.0
   0
LINE
   8
LEVEL003
   6
CONTINUOUS
  62
7
  10
 354.992
  20
 205.513
  30
0.0
  11
 354.111
  21
 205.351
  31
0.0
   0
LINE
   8
LEVEL003
   6
CONTINUOUS
  62
7
  10
 354.111
  20
 205.351
  30
0.0
  11
 353.296
  21
 205.154
  31
0.0
   0
LINE
   8
LEVEL003
   6
CONTINUOUS
  62
7
  10
 353.296
  20
 205.154
  30
0.0
  11
 352.559
  21
 204.923
  31
0.0
   0
LINE
   8
LEVEL003
   6
CONTINUOUS
  62
7
  10
 352.559
  20
 204.923
  30
0.0
  11
 351.912
  21
 204.662
  31
0.0
   0
LINE
   8
LEVEL003
   6
CONTINUOUS
  62
7
  10
 351.912
  20
 204.662
  30
0.0
  11
 351.365
  21
 204.376
  31
0.0
   0
LINE
   8
LEVEL003
   6
CONTINUOUS
  62
7
  10
 351.365
  20
 204.376
  30
0.0
  11
 350.927
  21
 204.069
  31
0.0
   0
LINE
   8
LEVEL003
   6
CONTINUOUS
  62
7
  10
 350.927
  20
 204.069
  30
0.0
  11
 350.604
  21
 203.746
  31
0.0
   0
LINE
   8
LEVEL003
   6
CONTINUOUS
  62
7
  10
 350.604
  20
 203.746
  30
0.0
  11
 350.402
  21
 203.411
  31
0.0
   0
LINE
   8
LEVEL003
   6
CONTINUOUS
  62
7
  10
 350.402
  20
 203.411
  30
0.0
  11
 350.323
  21
 203.070
  31
0.0
   0
LINE
   8
LEVEL003
   6
CONTINUOUS
  62
7
  10
 350.323
  20
 203.070
  30
0.0
  11
 350.368
  21
 202.729
  31
0.0
   0
LINE
   8
LEVEL003
   6
CONTINUOUS
  62
7
  10
 350.368
  20
 202.729
  30
0.0
  11
 350.538
  21
 202.392
  31
0.0
   0
LINE
   8
LEVEL003
   6
CONTINUOUS
  62
7
  10
 350.538
  20
 202.392
  30
0.0
  11
 350.830
  21
 202.065
  31
0.0
   0
LINE
   8
LEVEL003
   6
CONTINUOUS
  62
7
  10
 350.830
  20
 202.065
  30
0.0
  11
 351.238
  21
 201.753
  31
0.0
   0
LINE
   8
LEVEL003
   6
CONTINUOUS
  62
7
  10
 351.238
  20
 201.753
  30
0.0
  11
 351.757
  21
 201.461
  31
0.0
   0
LINE
   8
LEVEL003
   6
CONTINUOUS
  62
7
  10
 351.757
  20
 201.461
  30
0.0
  11
 352.378
  21
 201.193
  31
0.0
   0
LINE
   8
LEVEL003
   6
CONTINUOUS
  62
7
  10
 352.378
  20
 201.193
  30
0.0
  11
 353.092
  21
 200.954
  31
0.0
   0
LINE
   8
LEVEL003
   6
CONTINUOUS
  62
7
  10
 353.092
  20
 200.954
  30
0.0
  11
 353.888
  21
 200.747
  31
0.0
   0
LINE
   8
LEVEL003
   6
CONTINUOUS
  62
7
  10
 353.888
  20
 200.747
  30
0.0
  11
 354.753
  21
 200.576
  31
0.0
   0
LINE
   8
LEVEL003
   6
CONTINUOUS
  62
7
  10
 354.753
  20
 200.576
  30
0.0
  11
 355.673
  21
 200.443
  31
0.0
   0
LINE
   8
LEVEL003
   6
CONTINUOUS
  62
7
  10
 355.673
  20
 200.443
  30
0.0
  11
 356.635
  21
 200.350
  31
0.0
   0
LINE
   8
LEVEL003
   6
CONTINUOUS
  62
7
  10
 356.635
  20
 200.350
  30
0.0
  11
 357.623
  21
 200.299
  31
0.0
   0
LINE
   8
LEVEL003
   6
CONTINUOUS
  62
7
  10
 357.623
  20
 200.299
  30
0.0
  11
 358.622
  21
 200.291
  31
0.0
   0
LINE
   8
LEVEL003
   6
CONTINUOUS
  62
7
  10
 358.622
  20
 200.291
  30
0.0
  11
 359.617
  21
 200.325
  31
0.0
   0
LINE
   8
LEVEL003
   6
CONTINUOUS
  62
7
  10
 359.617
  20
 200.325
  30
0.0
  11
 360.591
  21
 200.401
  31
0.0
   0
LINE
   8
LEVEL003
   6
CONTINUOUS
  62
7
  10
 360.591
  20
 200.401
  30
0.0
  11
 361.529
  21
 200.518
  31
0.0
   0
LINE
   8
LEVEL003
   6
CONTINUOUS
  62
7
  10
 361.529
  20
 200.518
  30
0.0
  11
 362.418
  21
 200.675
  31
0.0
   0
LINE
   8
LEVEL003
   6
CONTINUOUS
  62
7
  10
 362.418
  20
 200.675
  30
0.0
  11
 363.243
  21
 200.868
  31
0.0
   0
LINE
   8
LEVEL003
   6
CONTINUOUS
  62
7
  10
 363.243
  20
 200.868
  30
0.0
  11
 363.991
  21
 201.094
  31
0.0
   0
LINE
   8
LEVEL003
   6
CONTINUOUS
  62
7
  10
 363.991
  20
 201.094
  30
0.0
  11
 364.650
  21
 201.351
  31
0.0
   0
LINE
   8
LEVEL003
   6
CONTINUOUS
  62
7
  10
 364.650
  20
 201.351
  30
0.0
  11
 365.211
  21
 201.634
  31
0.0
   0
LINE
   8
LEVEL003
   6
CONTINUOUS
  62
7
  10
 365.211
  20
 201.634
  30
0.0
  11
 365.664
  21
 201.939
  31
0.0
   0
LINE
   8
LEVEL003
   6
CONTINUOUS
  62
7
  10
 365.664
  20
 201.939
  30
0.0
  11
 366.003
  21
 202.260
  31
0.0
   0
LINE
   8
LEVEL003
   6
CONTINUOUS
  62
7
  10
 366.003
  20
 202.260
  30
0.0
  11
 366.222
  21
 202.594
  31
0.0
   0
LINE
   8
LEVEL003
   6
CONTINUOUS
  62
7
  10
 366.222
  20
 202.594
  30
0.0
  11
 366.317
  21
 202.934
  31
0.0
   0
LINE
   8
LEVEL003
   6
CONTINUOUS
  62
7
  10
 366.317
  20
 202.934
  30
0.0
  11
 366.321
  21
 203.025
  31
0.0
   0
LINE
   8
LEVEL003
   6
CONTINUOUS
  62
7
  10
 351.596
  20
 204.507
  30
0.0
  11
 350.903
  21
 204.204
  31
0.0
   0
LINE
   8
LEVEL003
   6
CONTINUOUS
  62
7
  10
 350.903
  20
 204.204
  30
0.0
  11
 350.325
  21
 203.874
  31
0.0
   0
LINE
   8
LEVEL003
   6
CONTINUOUS
  62
7
  10
 350.325
  20
 203.874
  30
0.0
  11
 349.873
  21
 203.522
  31
0.0
   0
LINE
   8
LEVEL003
   6
CONTINUOUS
  62
7
  10
 349.873
  20
 203.522
  30
0.0
  11
 349.552
  21
 203.153
  31
0.0
   0
LINE
   8
LEVEL003
   6
CONTINUOUS
  62
7
  10
 349.552
  20
 203.153
  30
0.0
  11
 349.368
  21
 202.774
  31
0.0
   0
LINE
   8
LEVEL003
   6
CONTINUOUS
  62
7
  10
 349.368
  20
 202.774
  30
0.0
  11
 349.324
  21
 202.390
  31
0.0
   0
LINE
   8
LEVEL003
   6
CONTINUOUS
  62
7
  10
 349.324
  20
 202.390
  30
0.0
  11
 349.420
  21
 202.007
  31
0.0
   0
LINE
   8
LEVEL003
   6
CONTINUOUS
  62
7
  10
 349.420
  20
 202.007
  30
0.0
  11
 349.655
  21
 201.631
  31
0.0
   0
LINE
   8
LEVEL003
   6
CONTINUOUS
  62
7
  10
 349.655
  20
 201.631
  30
0.0
  11
 350.025
  21
 201.268
  31
0.0
   0
LINE
   8
LEVEL003
   6
CONTINUOUS
  62
7
  10
 350.025
  20
 201.268
  30
0.0
  11
 350.525
  21
 200.923
  31
0.0
   0
LINE
   8
LEVEL003
   6
CONTINUOUS
  62
7
  10
 350.525
  20
 200.923
  30
0.0
  11
 351.147
  21
 200.603
  31
0.0
   0
LINE
   8
LEVEL003
   6
CONTINUOUS
  62
7
  10
 351.147
  20
 200.603
  30
0.0
  11
 351.880
  21
 200.311
  31
0.0
   0
LINE
   8
LEVEL003
   6
CONTINUOUS
  62
7
  10
 351.880
  20
 200.311
  30
0.0
  11
 352.714
  21
 200.053
  31
0.0
   0
LINE
   8
LEVEL003
   6
CONTINUOUS
  62
7
  10
 352.714
  20
 200.053
  30
0.0
  11
 353.635
  21
 199.833
  31
0.0
   0
LINE
   8
LEVEL003
   6
CONTINUOUS
  62
7
  10
 353.635
  20
 199.833
  30
0.0
  11
 354.630
  21
 199.654
  31
0.0
   0
LINE
   8
LEVEL003
   6
CONTINUOUS
  62
7
  10
 354.630
  20
 199.654
  30
0.0
  11
 355.682
  21
 199.518
  31
0.0
   0
LINE
   8
LEVEL003
   6
CONTINUOUS
  62
7
  10
 355.682
  20
 199.518
  30
0.0
  11
 356.775
  21
 199.429
  31
0.0
   0
LINE
   8
LEVEL003
   6
CONTINUOUS
  62
7
  10
 356.775
  20
 199.429
  30
0.0
  11
 357.893
  21
 199.386
  31
0.0
   0
LINE
   8
LEVEL003
   6
CONTINUOUS
  62
7
  10
 357.893
  20
 199.386
  30
0.0
  11
 359.017
  21
 199.392
  31
0.0
   0
LINE
   8
LEVEL003
   6
CONTINUOUS
  62
7
  10
 359.017
  20
 199.392
  30
0.0
  11
 360.130
  21
 199.446
  31
0.0
   0
LINE
   8
LEVEL003
   6
CONTINUOUS
  62
7
  10
 360.130
  20
 199.446
  30
0.0
  11
 361.215
  21
 199.546
  31
0.0
   0
LINE
   8
LEVEL003
   6
CONTINUOUS
  62
7
  10
 361.215
  20
 199.546
  30
0.0
  11
 362.255
  21
 199.693
  31
0.0
   0
LINE
   8
LEVEL003
   6
CONTINUOUS
  62
7
  10
 362.255
  20
 199.693
  30
0.0
  11
 363.234
  21
 199.882
  31
0.0
   0
LINE
   8
LEVEL003
   6
CONTINUOUS
  62
7
  10
 363.234
  20
 199.882
  30
0.0
  11
 364.136
  21
 200.111
  31
0.0
   0
LINE
   8
LEVEL003
   6
CONTINUOUS
  62
7
  10
 364.136
  20
 200.111
  30
0.0
  11
 364.947
  21
 200.378
  31
0.0
   0
LINE
   8
LEVEL003
   6
CONTINUOUS
  62
7
  10
 364.947
  20
 200.378
  30
0.0
  11
 365.655
  21
 200.676
  31
0.0
   0
LINE
   8
LEVEL003
   6
CONTINUOUS
  62
7
  10
 365.655
  20
 200.676
  30
0.0
  11
 366.248
  21
 201.003
  31
0.0
   0
LINE
   8
LEVEL003
   6
CONTINUOUS
  62
7
  10
 366.248
  20
 201.003
  30
0.0
  11
 366.717
  21
 201.352
  31
0.0
   0
LINE
   8
LEVEL003
   6
CONTINUOUS
  62
7
  10
 366.717
  20
 201.352
  30
0.0
  11
 367.056
  21
 201.719
  31
0.0
   0
LINE
   8
LEVEL003
   6
CONTINUOUS
  62
7
  10
 367.056
  20
 201.719
  30
0.0
  11
 367.258
  21
 202.097
  31
0.0
   0
LINE
   8
LEVEL003
   6
CONTINUOUS
  62
7
  10
 367.258
  20
 202.097
  30
0.0
  11
 367.321
  21
 202.481
  31
0.0
   0
LINE
   8
LEVEL003
   6
CONTINUOUS
  62
7
  10
 367.321
  20
 202.481
  30
0.0
  11
 367.244
  21
 202.865
  31
0.0
   0
LINE
   8
LEVEL003
   6
CONTINUOUS
  62
7
  10
 367.244
  20
 202.865
  30
0.0
  11
 367.027
  21
 203.242
  31
0.0
   0
LINE
   8
LEVEL003
   6
CONTINUOUS
  62
7
  10
 367.027
  20
 203.242
  30
0.0
  11
 366.674
  21
 203.607
  31
0.0
   0
LINE
   8
LEVEL003
   6
CONTINUOUS
  62
7
  10
 366.674
  20
 203.607
  30
0.0
  11
 366.191
  21
 203.955
  31
0.0
   0
LINE
   8
LEVEL003
   6
CONTINUOUS
  62
7
  10
 366.191
  20
 203.955
  30
0.0
  11
 365.585
  21
 204.278
  31
0.0
   0
LINE
   8
LEVEL003
   6
CONTINUOUS
  62
7
  10
 365.585
  20
 204.278
  30
0.0
  11
 365.047
  21
 204.507
  31
0.0
   0
LINE
   8
LEVEL003
   6
CONTINUOUS
  62
7
  10
 349.321
  20
 202.461
  30
0.0
  11
 349.321
  21
 191.749
  31
0.0
   0
LINE
   8
LEVEL003
   6
CONTINUOUS
  62
7
  10
 349.321
  20
 191.749
  30
0.0
  11
 349.392
  21
 191.365
  31
0.0
   0
LINE
   8
LEVEL003
   6
CONTINUOUS
  62
7
  10
 349.392
  20
 191.365
  30
0.0
  11
 349.601
  21
 190.987
  31
0.0
   0
LINE
   8
LEVEL003
   6
CONTINUOUS
  62
7
  10
 349.601
  20
 190.987
  30
0.0
  11
 349.947
  21
 190.621
  31
0.0
   0
LINE
   8
LEVEL003
   6
CONTINUOUS
  62
7
  10
 349.947
  20
 190.621
  30
0.0
  11
 350.423
  21
 190.273
  31
0.0
   0
LINE
   8
LEVEL003
   6
CONTINUOUS
  62
7
  10
 350.423
  20
 190.273
  30
0.0
  11
 351.023
  21
 189.948
  31
0.0
   0
LINE
   8
LEVEL003
   6
CONTINUOUS
  62
7
  10
 351.023
  20
 189.948
  30
0.0
  11
 351.736
  21
 189.650
  31
0.0
   0
LINE
   8
LEVEL003
   6
CONTINUOUS
  62
7
  10
 351.736
  20
 189.650
  30
0.0
  11
 352.552
  21
 189.386
  31
0.0
   0
LINE
   8
LEVEL003
   6
CONTINUOUS
  62
7
  10
 352.552
  20
 189.386
  30
0.0
  11
 353.459
  21
 189.158
  31
0.0
   0
LINE
   8
LEVEL003
   6
CONTINUOUS
  62
7
  10
 353.459
  20
 189.158
  30
0.0
  11
 354.441
  21
 188.971
  31
0.0
   0
LINE
   8
LEVEL003
   6
CONTINUOUS
  62
7
  10
 354.441
  20
 188.971
  30
0.0
  11
 355.484
  21
 188.827
  31
0.0
   0
LINE
   8
LEVEL003
   6
CONTINUOUS
  62
7
  10
 355.484
  20
 188.827
  30
0.0
  11
 356.571
  21
 188.729
  31
0.0
   0
LINE
   8
LEVEL003
   6
CONTINUOUS
  62
7
  10
 356.571
  20
 188.729
  30
0.0
  11
 357.685
  21
 188.678
  31
0.0
   0
LINE
   8
LEVEL003
   6
CONTINUOUS
  62
7
  10
 357.685
  20
 188.678
  30
0.0
  11
 358.809
  21
 188.675
  31
0.0
   0
LINE
   8
LEVEL003
   6
CONTINUOUS
  62
7
  10
 358.809
  20
 188.675
  30
0.0
  11
 359.926
  21
 188.720
  31
0.0
   0
LINE
   8
LEVEL003
   6
CONTINUOUS
  62
7
  10
 359.926
  20
 188.720
  30
0.0
  11
 361.017
  21
 188.812
  31
0.0
   0
LINE
   8
LEVEL003
   6
CONTINUOUS
  62
7
  10
 361.017
  20
 188.812
  30
0.0
  11
 362.067
  21
 188.950
  31
0.0
   0
LINE
   8
LEVEL003
   6
CONTINUOUS
  62
7
  10
 362.067
  20
 188.950
  30
0.0
  11
 363.058
  21
 189.131
  31
0.0
   0
LINE
   8
LEVEL003
   6
CONTINUOUS
  62
7
  10
 363.058
  20
 189.131
  30
0.0
  11
 363.975
  21
 189.354
  31
0.0
   0
LINE
   8
LEVEL003
   6
CONTINUOUS
  62
7
  10
 363.975
  20
 189.354
  30
0.0
  11
 364.804
  21
 189.613
  31
0.0
   0
LINE
   8
LEVEL003
   6
CONTINUOUS
  62
7
  10
 364.804
  20
 189.613
  30
0.0
  11
 365.532
  21
 189.906
  31
0.0
   0
LINE
   8
LEVEL003
   6
CONTINUOUS
  62
7
  10
 365.532
  20
 189.906
  30
0.0
  11
 366.147
  21
 190.228
  31
0.0
   0
LINE
   8
LEVEL003
   6
CONTINUOUS
  62
7
  10
 366.147
  20
 190.228
  30
0.0
  11
 366.640
  21
 190.574
  31
0.0
   0
LINE
   8
LEVEL003
   6
CONTINUOUS
  62
7
  10
 366.640
  20
 190.574
  30
0.0
  11
 367.004
  21
 190.938
  31
0.0
   0
LINE
   8
LEVEL003
   6
CONTINUOUS
  62
7
  10
 367.004
  20
 190.938
  30
0.0
  11
 367.231
  21
 191.314
  31
0.0
   0
LINE
   8
LEVEL003
   6
CONTINUOUS
  62
7
  10
 367.231
  20
 191.314
  30
0.0
  11
 367.320
  21
 191.698
  31
0.0
   0
LINE
   8
LEVEL003
   6
CONTINUOUS
  62
7
  10
 367.320
  20
 191.698
  30
0.0
  11
 367.321
  21
 191.749
  31
0.0
   0
ARC
   8
LEVEL001
   6
CONTINUOUS
  62
7
  10
 342.435
  20
 205.749
  30
0.0
  40
 3.00000
  50
 334.571
  51
 180.270
   0
LINE
   8
LEVEL001
   6
CONTINUOUS
  62
7
  10
 346.868
  20
 203.426
  30
0.0
  11
 349.940
  21
 208.749
  31
0.0
   0
LINE
   8
LEVEL001
   6
CONTINUOUS
  62
7
  10
 349.940
  20
 208.749
  30
0.0
  11
 355.714
  21
 208.749
  31
0.0
   0
LINE
   8
LEVEL001
   6
CONTINUOUS
  62
7
  10
 355.714
  20
 208.749
  30
0.0
  11
 353.698
  21
 205.258
  31
0.0
   0
LINE
   8
LEVEL001
   6
CONTINUOUS
  62
7
  10
 349.321
  20
 198.749
  30
0.0
  11
 347.321
  21
 198.749
  31
0.0
   0
LINE
   8
LEVEL003
   6
CONTINUOUS
  62
7
  10
 362.821
  20
 211.418
  30
0.0
  11
 362.821
  21
 205.287
  31
0.0
   0
ARC
   8
LEVEL003
   6
CONTINUOUS
  62
7
  10
 322.821
  20
 200.246
  30
0.0
  40
 5.00000
  50
 298.633
  51
 0.586240E-11
   0
LINE
   8
LEVEL003
   6
CONTINUOUS
  62
7
  10
 325.670
  20
 193.965
  30
0.0
  11
 326.373
  21
 191.370
  31
0.0
   0
LINE
   8
LEVEL003
   6
CONTINUOUS
  62
7
  10
 358.321
  20
 187.644
  30
0.0
  11
 359.818
  21
 187.676
  31
0.0
   0
LINE
   8
LEVEL003
   6
CONTINUOUS
  62
7
  10
 359.818
  20
 187.676
  30
0.0
  11
 361.290
  21
 187.772
  31
0.0
   0
LINE
   8
LEVEL003
   6
CONTINUOUS
  62
7
  10
 361.290
  20
 187.772
  30
0.0
  11
 362.717
  21
 187.930
  31
0.0
   0
LINE
   8
LEVEL003
   6
CONTINUOUS
  62
7
  10
 362.717
  20
 187.930
  30
0.0
  11
 364.075
  21
 188.147
  31
0.0
   0
LINE
   8
LEVEL003
   6
CONTINUOUS
  62
7
  10
 364.075
  20
 188.147
  30
0.0
  11
 365.343
  21
 188.420
  31
0.0
   0
LINE
   8
LEVEL003
   6
CONTINUOUS
  62
7
  10
 365.343
  20
 188.420
  30
0.0
  11
 366.501
  21
 188.746
  31
0.0
   0
LINE
   8
LEVEL003
   6
CONTINUOUS
  62
7
  10
 366.501
  20
 188.746
  30
0.0
  11
 367.532
  21
 189.118
  31
0.0
   0
LINE
   8
LEVEL003
   6
CONTINUOUS
  62
7
  10
 367.532
  20
 189.118
  30
0.0
  11
 368.419
  21
 189.531
  31
0.0
   0
LINE
   8
LEVEL003
   6
CONTINUOUS
  62
7
  10
 368.419
  20
 189.531
  30
0.0
  11
 369.149
  21
 189.979
  31
0.0
   0
LINE
   8
LEVEL003
   6
CONTINUOUS
  62
7
  10
 369.149
  20
 189.979
  30
0.0
  11
 369.709
  21
 190.454
  31
0.0
   0
LINE
   8
LEVEL003
   6
CONTINUOUS
  62
7
  10
 369.709
  20
 190.454
  30
0.0
  11
 370.092
  21
 190.950
  31
0.0
   0
LINE
   8
LEVEL003
   6
CONTINUOUS
  62
7
  10
 370.092
  20
 190.950
  30
0.0
  11
 370.270
  21
 191.370
  31
0.0
   0
LINE
   8
LEVEL003
   6
CONTINUOUS
  62
7
  10
 347.321
  20
 195.570
  30
0.0
  11
 349.321
  21
 195.570
  31
0.0
   0
LINE
   8
LEVEL003
   6
CONTINUOUS
  62
7
  10
 326.254
  20
 196.055
  30
0.0
  11
 329.321
  21
 195.932
  31
0.0
   0
LINE
   8
LEVEL003
   6
CONTINUOUS
  62
7
  10
 327.821
  20
 211.418
  30
0.0
  11
 327.821
  21
 200.246
  31
0.0
   0
LINE
   8
LEVEL003
   6
CONTINUOUS
  62
7
  10
 326.373
  20
 191.370
  30
0.0
  11
 326.604
  21
 190.863
  31
0.0
   0
LINE
   8
LEVEL003
   6
CONTINUOUS
  62
7
  10
 326.604
  20
 190.863
  30
0.0
  11
 327.018
  21
 190.371
  31
0.0
   0
LINE
   8
LEVEL003
   6
CONTINUOUS
  62
7
  10
 327.018
  20
 190.371
  30
0.0
  11
 327.609
  21
 189.899
  31
0.0
   0
LINE
   8
LEVEL003
   6
CONTINUOUS
  62
7
  10
 327.609
  20
 189.899
  30
0.0
  11
 328.366
  21
 189.457
  31
0.0
   0
LINE
   8
LEVEL003
   6
CONTINUOUS
  62
7
  10
 328.366
  20
 189.457
  30
0.0
  11
 329.279
  21
 189.050
  31
0.0
   0
LINE
   8
LEVEL003
   6
CONTINUOUS
  62
7
  10
 329.279
  20
 189.050
  30
0.0
  11
 330.333
  21
 188.686
  31
0.0
   0
LINE
   8
LEVEL003
   6
CONTINUOUS
  62
7
  10
 330.333
  20
 188.686
  30
0.0
  11
 331.512
  21
 188.369
  31
0.0
   0
LINE
   8
LEVEL003
   6
CONTINUOUS
  62
7
  10
 331.512
  20
 188.369
  30
0.0
  11
 332.797
  21
 188.105
  31
0.0
   0
LINE
   8
LEVEL003
   6
CONTINUOUS
  62
7
  10
 332.797
  20
 188.105
  30
0.0
  11
 334.168
  21
 187.898
  31
0.0
   0
LINE
   8
LEVEL003
   6
CONTINUOUS
  62
7
  10
 334.168
  20
 187.898
  30
0.0
  11
 335.605
  21
 187.751
  31
0.0
   0
LINE
   8
LEVEL003
   6
CONTINUOUS
  62
7
  10
 335.605
  20
 187.751
  30
0.0
  11
 337.083
  21
 187.666
  31
0.0
   0
LINE
   8
LEVEL003
   6
CONTINUOUS
  62
7
  10
 337.083
  20
 187.666
  30
0.0
  11
 338.321
  21
 187.644
  31
0.0
   0
ARC
   8
LEVEL003
   6
CONTINUOUS
  62
7
  10
 363.321
  20
 215.749
  30
0.0
  40
 2.00000
  50
 300.000
  51
 0.708373E-10
   0
LINE
   8
LEVEL003
   6
CONTINUOUS
  62
7
  10
 367.321
  20
 202.461
  30
0.0
  11
 367.321
  21
 191.749
  31
0.0
   0
LINE
   8
LEVEL003
   6
CONTINUOUS
  62
7
  10
 370.952
  20
 193.887
  30
0.0
  11
 370.270
  21
 191.370
  31
0.0
   0
LINE
   8
LEVEL003
   6
CONTINUOUS
  62
7
  10
 371.552
  20
 196.102
  30
0.0
  11
 367.321
  21
 195.932
  31
0.0
   0
ARC
   8
LEVEL003
   6
CONTINUOUS
  62
7
  10
 373.848
  20
 193.102
  30
0.0
  40
 3.00000
  50
 110.005
  51
 164.840
   0
LINE
   8
LEVEL003
   6
CONTINUOUS
  62
7
  10
 358.321
  20
 156.558
  30
0.0
  11
 360.321
  21
 155.403
  31
0.0
   0
LINE
   8
LEVEL003
   6
CONTINUOUS
  62
7
  10
 360.321
  20
 155.403
  30
0.0
  11
 360.321
  21
 153.094
  31
0.0
   0
LINE
   8
LEVEL003
   6
CONTINUOUS
  62
7
  10
 360.321
  20
 153.094
  30
0.0
  11
 358.321
  21
 151.939
  31
0.0
   0
LINE
   8
LEVEL003
   6
CONTINUOUS
  62
7
  10
 358.321
  20
 151.939
  30
0.0
  11
 356.321
  21
 153.094
  31
0.0
   0
LINE
   8
LEVEL003
   6
CONTINUOUS
  62
7
  10
 356.321
  20
 153.094
  30
0.0
  11
 356.321
  21
 155.403
  31
0.0
   0
LINE
   8
LEVEL003
   6
CONTINUOUS
  62
7
  10
 356.321
  20
 155.403
  30
0.0
  11
 358.321
  21
 156.558
  31
0.0
   0
CIRCLE
   8
LEVEL003
   6
CONTINUOUS
  62
7
  10
 358.321
  20
 154.249
  30
0.0
  40
 4.00000
   0
LINE
   8
LEVEL003
   6
CONTINUOUS
  62
7
  10
 338.321
  20
 156.558
  30
0.0
  11
 340.321
  21
 155.403
  31
0.0
   0
LINE
   8
LEVEL003
   6
CONTINUOUS
  62
7
  10
 340.321
  20
 155.403
  30
0.0
  11
 340.321
  21
 153.094
  31
0.0
   0
LINE
   8
LEVEL003
   6
CONTINUOUS
  62
7
  10
 340.321
  20
 153.094
  30
0.0
  11
 338.321
  21
 151.939
  31
0.0
   0
LINE
   8
LEVEL003
   6
CONTINUOUS
  62
7
  10
 338.321
  20
 151.939
  30
0.0
  11
 336.321
  21
 153.094
  31
0.0
   0
LINE
   8
LEVEL003
   6
CONTINUOUS
  62
7
  10
 336.321
  20
 153.094
  30
0.0
  11
 336.321
  21
 155.403
  31
0.0
   0
LINE
   8
LEVEL003
   6
CONTINUOUS
  62
7
  10
 336.321
  20
 155.403
  30
0.0
  11
 338.321
  21
 156.558
  31
0.0
   0
CIRCLE
   8
LEVEL003
   6
CONTINUOUS
  62
7
  10
 338.321
  20
 154.249
  30
0.0
  40
 4.00000
   0
CIRCLE
   8
LEVEL003
   6
CONTINUOUS
  62
3
  10
 338.321
  20
 154.249
  30
0.0
  40
 3.37500
   0
CIRCLE
   8
LEVEL003
   6
CONTINUOUS
  62
3
  10
 358.321
  20
 154.249
  30
0.0
  40
 3.37500
   0
ARC
   8
LEVEL003
   6
CONTINUOUS
  62
7
  10
 321.431
  20
 199.249
  30
0.0
  40
 5.00000
  50
 270.000
  51
 312.674
   0
LINE
   8
LEVEL003
   6
CONTINUOUS
  62
7
  10
 325.462
  20
 158.408
  30
0.0
  11
 336.499
  21
 170.538
  31
0.0
   0
ARC
   8
LEVEL003
   6
CONTINUOUS
  62
7
  10
 331.321
  20
 175.249
  30
0.0
  40
 7.00000
  50
 317.701
  51
 40.7825
   0
LINE
   8
LEVEL003
   6
CONTINUOUS
  62
7
  10
 338.321
  20
 147.249
  30
0.0
  11
 358.321
  21
 147.249
  31
0.0
   0
LINE
   8
LEVEL003
   6
CONTINUOUS
  62
7
  10
 338.321
  20
 161.249
  30
0.0
  11
 358.321
  21
 161.249
  31
0.0
   0
ARC
   8
LEVEL003
   6
CONTINUOUS
  62
7
  10
 338.321
  20
 154.249
  30
0.0
  40
 7.00000
  50
 90.0000
  51
 270.000
   0
LINE
   8
LEVEL003
   6
CONTINUOUS
  62
7
  10
 331.448
  20
 185.819
  30
0.0
  11
 336.622
  21
 179.821
  31
0.0
   0
LINE
   8
LEVEL001
   6
CONTINUOUS
  62
7
  10
 308.321
  20
 199.249
  30
0.0
  11
 308.321
  21
 202.645
  31
0.0
   0
ARC
   8
LEVEL001
   6
CONTINUOUS
  62
7
  10
 303.321
  20
 199.249
  30
0.0
  40
 5.00000
  50
 270.000
  51
0.0
   0
LINE
   8
LEVEL001
   6
CONTINUOUS
  62
7
  10
 298.821
  20
 194.249
  30
0.0
  11
 321.431
  21
 194.249
  31
0.0
   0
LINE
   8
LEVEL001
   6
CONTINUOUS
  62
7
  10
 324.346
  20
 195.186
  30
0.0
  11
 325.736
  21
 196.183
  31
0.0
   0
ARC
   8
LEVEL001
   6
CONTINUOUS
  62
7
  10
 332.866
  20
 130.249
  30
0.0
  40
 2.00000
  50
 90.0000
  51
 180.000
   0
LINE
   8
LEVEL001
   6
CONTINUOUS
  62
7
  10
 330.866
  20
 130.249
  30
0.0
  11
 330.866
  21
 126.749
  31
0.0
   0
LINE
   8
LEVEL001
   6
CONTINUOUS
  62
7
  10
 332.866
  20
 134.898
  30
0.0
  11
 359.772
  21
 134.898
  31
0.0
   0
LINE
   8
LEVEL001
   6
CONTINUOUS
  62
7
  10
 327.366
  20
 130.304
  30
0.0
  11
 328.961
  21
 132.772
  31
0.0
   0
ARC
   8
LEVEL001
   6
CONTINUOUS
  62
7
  10
 332.866
  20
 130.249
  30
0.0
  40
 4.64950
  50
 90.0000
  51
 147.123
   0
ARC
   8
LEVEL003
   6
CONTINUOUS
  62
7
  10
 359.772
  20
 130.249
  30
0.0
  40
 2.00000
  50
 0.211698E-10
  51
 90.0000
   0
LINE
   8
LEVEL001
   6
CONTINUOUS
  62
7
  10
 361.772
  20
 130.249
  30
0.0
  11
 361.772
  21
 126.749
  31
0.0
   0
LINE
   8
LEVEL001
   6
CONTINUOUS
  62
7
  10
 365.273
  20
 130.304
  30
0.0
  11
 363.677
  21
 132.772
  31
0.0
   0
ARC
   8
LEVEL001
   6
CONTINUOUS
  62
7
  10
 359.772
  20
 130.249
  30
0.0
  40
 4.64950
  50
 32.8767
  51
 90.0000
   0
ARC
   8
LEVEL001
   6
CONTINUOUS
  62
7
  10
 332.866
  20
 126.749
  30
0.0
  40
 2.00000
  50
 180.000
  51
 194.478
   0
ARC
   8
LEVEL001
   6
CONTINUOUS
  62
7
  10
 359.772
  20
 126.749
  30
0.0
  40
 2.00000
  50
 345.522
  51
0.0
   0
LINE
   8
LEVEL001
   6
DASHDOT
  62
1
  10
 345.321
  20
 249.749
  30
0.0
  11
 345.321
  21
 228.749
  31
0.0
   0
ARC
   8
LEVEL060
   6
CONTINUOUS
  62
7
  10
 553.623
  20
 237.249
  30
0.0
  40
 15.0000
  50
 5.19443
  51
 90.0000
   0
LINE
   8
LEVEL060
   6
CONTINUOUS
  62
7
  10
 556.321
  20
 282.249
  30
0.0
  11
 405.321
  21
 282.249
  31
0.0
   0
ARC
   8
LEVEL060
   6
CONTINUOUS
  62
7
  10
 556.321
  20
 242.249
  30
0.0
  40
 40.0000
  50
 3.07503
  51
 90.0000
   0
LINE
   8
LEVEL060
   6
CONTINUOUS
  62
7
  10
 556.321
  20
 273.249
  30
0.0
  11
 405.770
  21
 273.249
  31
0.0
   0
LINE
   8
LEVEL060
   6
CONTINUOUS
  62
7
  10
 556.321
  20
 272.249
  30
0.0
  11
 405.820
  21
 272.249
  31
0.0
   0
ARC
   8
LEVEL060
   6
CONTINUOUS
  62
7
  10
 556.321
  20
 242.249
  30
0.0
  40
 30.0000
  50
 3.07503
  51
 90.0000
   0
ARC
   8
LEVEL060
   6
CONTINUOUS
  62
7
  10
 556.321
  20
 242.249
  30
0.0
  40
 31.0000
  50
 3.07503
  51
 90.0000
   0
LINE
   8
LEVEL060
   6
DASHDOT
  62
1
  10
 575.821
  20
 172.249
  30
0.0
  11
 590.821
  21
 172.249
  31
0.0
   0
LINE
   8
LEVEL060
   6
DASHDOT
  62
1
  10
 583.321
  20
 179.749
  30
0.0
  11
 583.321
  21
 164.749
  31
0.0
   0
LINE
   8
LEVEL060
   6
CONTINUOUS
  62
7
  10
 645.518
  20
 120.249
  30
0.0
  11
 606.718
  21
 120.249
  31
0.0
   0
ARC
   8
LEVEL060
   6
CONTINUOUS
  62
7
  10
 606.718
  20
 150.249
  30
0.0
  40
 30.0000
  50
 185.194
  51
 270.000
   0
LINE
   8
LEVEL060
   6
CONTINUOUS
  62
7
  10
 601.205
  20
 152.422
  30
0.0
  11
 596.264
  21
 244.394
  31
0.0
   0
ARC
   8
LEVEL060
   6
CONTINUOUS
  62
7
  10
 604.200
  20
 152.583
  30
0.0
  40
 3.00000
  50
 183.075
  51
 255.000
   0
LINE
   8
LEVEL060
   6
CONTINUOUS
  62
7
  10
 586.278
  20
 243.858
  30
0.0
  11
 591.219
  21
 151.886
  31
0.0
   0
LINE
   8
LEVEL060
   6
CONTINUOUS
  62
7
  10
 587.277
  20
 243.912
  30
0.0
  11
 592.218
  21
 151.939
  31
0.0
   0
LINE
   8
LEVEL060
   6
CONTINUOUS
  62
7
  10
 661.777
  20
 124.732
  30
0.0
  11
 601.095
  21
 140.992
  31
0.0
   0
LINE
   8
LEVEL060
   6
CONTINUOUS
  62
7
  10
 600.836
  20
 140.026
  30
0.0
  11
 661.518
  21
 123.766
  31
0.0
   0
ARC
   8
LEVEL060
   6
CONTINUOUS
  62
7
  10
 604.200
  20
 152.583
  30
0.0
  40
 12.0000
  50
 183.075
  51
 255.000
   0
ARC
   8
LEVEL060
   6
CONTINUOUS
  62
7
  10
 604.200
  20
 152.583
  30
0.0
  40
 13.0000
  50
 183.075
  51
 255.000
   0
LINE
   8
LEVEL060
   6
CONTINUOUS
  62
7
  10
 635.129
  20
 141.190
  30
0.0
  11
 635.707
  21
 139.482
  31
0.0
   0
LINE
   8
LEVEL060
   6
CONTINUOUS
  62
7
  10
 635.707
  20
 139.482
  30
0.0
  11
 639.570
  21
 138.447
  31
0.0
   0
LINE
   8
LEVEL060
   6
CONTINUOUS
  62
7
  10
 639.570
  20
 138.447
  30
0.0
  11
 640.924
  21
 139.637
  31
0.0
   0
LINE
   8
LEVEL060
   6
CONTINUOUS
  62
7
  10
 640.924
  20
 139.637
  30
0.0
  11
 644.788
  21
 138.602
  31
0.0
   0
LINE
   8
LEVEL060
   6
CONTINUOUS
  62
7
  10
 644.788
  20
 138.602
  30
0.0
  11
 645.366
  21
 136.894
  31
0.0
   0
LINE
   8
LEVEL060
   6
CONTINUOUS
  62
7
  10
 645.366
  20
 136.894
  30
0.0
  11
 649.230
  21
 135.859
  31
0.0
   0
LINE
   8
LEVEL060
   6
CONTINUOUS
  62
7
  10
 649.230
  20
 135.859
  30
0.0
  11
 650.584
  21
 137.049
  31
0.0
   0
LINE
   8
LEVEL060
   6
CONTINUOUS
  62
7
  10
 650.584
  20
 137.049
  30
0.0
  11
 654.447
  21
 136.014
  31
0.0
   0
LINE
   8
LEVEL060
   6
CONTINUOUS
  62
7
  10
 654.447
  20
 136.014
  30
0.0
  11
 655.025
  21
 134.306
  31
0.0
   0
LINE
   8
LEVEL060
   6
CONTINUOUS
  62
7
  10
 655.025
  20
 134.306
  30
0.0
  11
 658.889
  21
 133.271
  31
0.0
   0
LINE
   8
LEVEL060
   6
CONTINUOUS
  62
7
  10
 658.889
  20
 133.271
  30
0.0
  11
 660.243
  21
 134.461
  31
0.0
   0
LINE
   8
LEVEL060
   6
CONTINUOUS
  62
7
  10
 660.243
  20
 134.461
  30
0.0
  11
 664.107
  21
 133.426
  31
0.0
   0
LINE
   8
LEVEL060
   6
CONTINUOUS
  62
7
  10
 664.107
  20
 133.426
  30
0.0
  11
 664.682
  21
 131.710
  31
0.0
   0
LINE
   8
LEVEL060
   6
CONTINUOUS
  62
7
  10
 603.424
  20
 149.685
  30
0.0
  11
 635.129
  21
 141.190
  31
0.0
   0
LINE
   8
LEVEL060
   6
CONTINUOUS
  62
7
  10
 668.488
  20
 130.478
  30
0.0
  11
 669.936
  21
 131.540
  31
0.0
   0
LINE
   8
LEVEL060
   6
CONTINUOUS
  62
7
  10
 673.741
  20
 129.938
  30
0.0
  11
 674.016
  21
 128.150
  31
0.0
   0
LINE
   8
LEVEL060
   6
CONTINUOUS
  62
7
  10
 677.556
  20
 126.288
  30
0.0
  11
 679.164
  21
 127.089
  31
0.0
   0
LINE
   8
LEVEL060
   6
CONTINUOUS
  62
7
  10
 682.641
  20
 124.863
  30
0.0
  11
 682.608
  21
 123.054
  31
0.0
   0
LINE
   8
LEVEL060
   6
CONTINUOUS
  62
7
  10
 685.780
  20
 120.617
  30
0.0
  11
 687.500
  21
 121.132
  31
0.0
   0
ARC
   8
LEVEL060
   6
CONTINUOUS
  62
7
  10
 648.577
  20
 75.4700
  30
0.0
  40
 58.5000
  50
 70.1021
  51
 74.0205
   0
ARC
   8
LEVEL060
   6
CONTINUOUS
  62
7
  10
 648.577
  20
 75.4700
  30
0.0
  40
 60.0000
  50
 65.2042
  51
 69.1471
   0
ARC
   8
LEVEL060
   6
CONTINUOUS
  62
7
  10
 648.577
  20
 75.4700
  30
0.0
  40
 58.5000
  50
 60.3063
  51
 64.2248
   0
ARC
   8
LEVEL060
   6
CONTINUOUS
  62
7
  10
 648.577
  20
 75.4700
  30
0.0
  40
 58.5000
  50
 50.5106
  51
 54.4290
   0
ARC
   8
LEVEL060
   6
CONTINUOUS
  62
7
  10
 648.577
  20
 75.4700
  30
0.0
  40
 60.0000
  50
 55.4085
  51
 59.3514
   0
ARC
   8
LEVEL060
   6
CONTINUOUS
  62
7
  10
 378.262
  20
 264.468
  30
0.0
  40
 5.00000
  50
 95.7106
  51
 185.711
   0
ARC
   8
LEVEL060
   6
CONTINUOUS
  62
7
  10
 378.162
  20
 265.463
  30
0.0
  40
 5.00000
  50
 95.7106
  51
 185.711
   0
LINE
   8
LEVEL060
   6
CONTINUOUS
  62
7
  10
 405.770
  20
 273.249
  30
0.0
  11
 377.665
  21
 270.438
  31
0.0
   0
LINE
   8
LEVEL060
   6
CONTINUOUS
  62
7
  10
 405.820
  20
 272.249
  30
0.0
  11
 377.764
  21
 269.443
  31
0.0
   0
LINE
   8
LEVEL060
   6
DASHDOT
  62
1
  10
 495.321
  20
 249.249
  30
0.0
  11
 495.321
  21
 274.558
  31
0.0
   0
ARC
   8
LEVEL060
   6
CONTINUOUS
  62
7
  10
 487.076
  20
 270.249
  30
0.0
  40
 2.00000
  50
 0.198670E-9
  51
 90.0000
   0
LINE
   8
LEVEL060
   6
CONTINUOUS
  62
7
  10
 489.076
  20
 270.249
  30
0.0
  11
 489.076
  21
 252.249
  31
0.0
   0
ARC
   8
LEVEL060
   6
CONTINUOUS
  62
7
  10
 503.566
  20
 270.249
  30
0.0
  40
 2.00000
  50
 90.0000
  51
 180.000
   0
LINE
   8
LEVEL060
   6
CONTINUOUS
  62
7
  10
 501.566
  20
 270.249
  30
0.0
  11
 501.566
  21
 252.249
  31
0.0
   0
LINE
   8
LEVEL060
   6
CONTINUOUS
  62
7
  10
 553.623
  20
 252.249
  30
0.0
  11
 451.321
  21
 252.249
  31
0.0
   0
ARC
   8
LEVEL060
   6
CONTINUOUS
  62
7
  10
 384.660
  20
 226.178
  30
0.0
  40
 15.0000
  50
 81.5779
  51
 133.911
   0
ARC
   8
LEVEL060
   6
CONTINUOUS
  62
7
  10
 388.321
  20
 250.909
  30
0.0
  40
 10.0000
  50
 261.578
  51
 313.911
   0
ARC
   8
LEVEL060
   6
CONTINUOUS
  62
7
  10
 405.660
  20
 232.898
  30
0.0
  40
 15.0000
  50
 81.5779
  51
 133.911
   0
ARC
   8
LEVEL060
   6
CONTINUOUS
  62
7
  10
 424.671
  20
 237.896
  30
0.0
  40
 15.0000
  50
 76.9380
  51
 127.879
   0
ARC
   8
LEVEL060
   6
CONTINUOUS
  62
7
  10
 409.321
  20
 257.628
  30
0.0
  40
 10.0000
  50
 261.578
  51
 307.879
   0
ARC
   8
LEVEL060
   6
CONTINUOUS
  62
7
  10
 440.821
  20
 239.561
  30
0.0
  40
 15.0000
  50
 65.1654
  51
 114.835
   0
ARC
   8
LEVEL060
   6
CONTINUOUS
  62
7
  10
 430.321
  20
 262.249
  30
0.0
  40
 10.0000
  50
 256.938
  51
 294.835
   0
ARC
   8
LEVEL060
   6
CONTINUOUS
  62
7
  10
 451.321
  20
 262.249
  30
0.0
  40
 10.0000
  50
 245.165
  51
 270.000
   0
LINE
   8
LEVEL060
   6
DASHDOT
  62
1
  10
 280.821
  20
 260.249
  30
0.0
  11
 289.821
  21
 260.249
  31
0.0
   0
LINE
   8
LEVEL060
   6
DASHDOT
  62
1
  10
 282.321
  20
 272.249
  30
0.0
  11
 282.321
  21
 248.111
  31
0.0
   0
LINE
   8
LEVEL060
   6
CONTINUOUS
  62
7
  10
 375.852
  20
 238.320
  30
0.0
  11
 373.187
  21
 264.965
  31
0.0
   0
ARC
   8
LEVEL060
   6
CONTINUOUS
  62
7
  10
 367.321
  20
 244.189
  30
0.0
  40
 10.0000
  50
 283.762
  51
 313.911
   0
LINE
   8
LEVEL060
   6
CONTINUOUS
  62
7
  10
 291.480
  20
 270.865
  30
0.0
  11
 290.580
  21
 269.749
  31
0.0
   0
ARC
   8
LEVEL060
   6
CONTINUOUS
  62
7
  10
 345.321
  20
 239.249
  30
0.0
  40
 12.0000
  50
 202.347
  51
 287.744
   0
ARC
   8
LEVEL060
   6
CONTINUOUS
  62
7
  10
 329.598
  20
 232.785
  30
0.0
  40
 5.00000
  50
 22.3467
  51
 113.845
   0
LINE
   8
LEVEL060
   6
CONTINUOUS
  62
7
  10
 301.321
  20
 246.249
  30
0.0
  11
 306.321
  21
 240.249
  31
0.0
   0
LINE
   8
LEVEL060
   6
CONTINUOUS
  62
7
  10
 327.505
  20
 261.171
  30
0.0
  11
 350.505
  21
 251.171
  31
0.0
   0
LINE
   8
LEVEL060
   6
CONTINUOUS
  62
7
  10
 369.706
  20
 234.452
  30
0.0
  11
 348.979
  21
 227.820
  31
0.0
   0
LINE
   8
LEVEL060
   6
CONTINUOUS
  62
7
  10
 306.321
  20
 240.249
  30
0.0
  11
 318.798
  21
 236.735
  31
0.0
   0
LINE
   8
LEVEL060
   6
DASHDOT
  62
1
  10
 311.821
  20
 249.249
  30
0.0
  11
 332.821
  21
 249.249
  31
0.0
   0
LINE
   8
LEVEL060
   6
DASHDOT
  62
1
  10
 322.321
  20
 259.749
  30
0.0
  11
 322.321
  21
 238.749
  31
0.0
   0
LINE
   8
LEVEL060
   6
DASHDOT
  62
1
  10
 334.821
  20
 239.249
  30
0.0
  11
 355.821
  21
 239.249
  31
0.0
   0
LINE
   8
LEVEL060
   6
DASHDOT
  62
1
  10
 345.321
  20
 249.749
  30
0.0
  11
 345.321
  21
 228.749
  31
0.0
   0
LINE
   8
LEVEL001
   6
DASHDOT
  62
1
  10
 542.321
  20
 149.604
  30
0.0
  11
 542.321
  21
 114.547
  31
0.0
   0
LINE
   8
LEVEL001
   6
CONTINUOUS
  62
7
  10
 554.253
  20
 147.195
  30
0.0
  11
 554.321
  21
 147.197
  31
0.0
   0
LINE
   8
LEVEL003
   6
CONTINUOUS
  62
7
  10
 554.321
  20
 151.249
  30
0.0
  11
 558.321
  21
 151.249
  31
0.0
   0
ARC
   8
LEVEL001
   6
CONTINUOUS
  62
7
  10
 553.321
  20
 175.784
  30
0.0
  40
 1.00000
  50
0.0
  51
 60.0000
   0
ARC
   8
LEVEL001
   6
CONTINUOUS
  62
7
  10
 555.321
  20
 179.249
  30
0.0
  40
 3.00000
  50
 180.000
  51
 240.000
   0
ARC
   8
LEVEL001
   6
CONTINUOUS
  62
7
  10
 553.321
  20
 148.025
  30
0.0
  40
 1.00000
  50
 289.471
  51
 0.512960E-9
   0
ARC
   8
LEVEL001
   6
CONTINUOUS
  62
7
  10
 554.321
  20
 145.196
  30
0.0
  40
 2.00000
  50
 109.471
  51
 180.000
   0
LINE
   8
LEVEL003
   6
CONTINUOUS
  62
7
  10
 554.321
  20
 173.249
  30
0.0
  11
 558.321
  21
 173.249
  31
0.0
   0
LINE
   8
LEVEL001
   6
DASHDOT
  62
1
  10
 360.321
  20
 162.249
  30
0.0
  11
 572.213
  21
 162.249
  31
0.0
   0
LINE
   8
LEVEL060
   6
CONTINUOUS
  62
7
  10
 405.321
  20
 282.249
  30
0.0
  11
 288.550
  21
 270.572
  31
0.0
   0
LINE
   8
LEVEL060
   6
DASHDOT
  62
1
  10
 297.891
  20
 275.455
  30
0.0
  11
 299.832
  21
 257.648
  31
0.0
   0
LINE
   8
LEVEL060
   6
CONTINUOUS
  62
7
  10
 293.433
  20
 271.060
  30
0.0
  11
 292.713
  21
 278.265
  31
0.0
   0
LINE
   8
LEVEL060
   6
CONTINUOUS
  62
7
  10
 303.200
  20
 272.037
  30
0.0
  11
 302.479
  21
 279.241
  31
0.0
   0
ARC
   8
LEVEL060
   6
CONTINUOUS
  62
7
  10
 299.137
  20
 263.349
  30
0.0
  40
 16.2407
  50
 78.1225
  51
 113.299
   0
ARC
   8
LEVEL060
   6
CONTINUOUS
  62
7
  10
 306.589
  20
 272.378
  30
0.0
  40
 8.00000
  50
 94.3758
  51
 120.910
   0
ARC
   8
LEVEL060
   6
CONTINUOUS
  62
7
  10
 290.044
  20
 270.723
  30
0.0
  40
 8.00000
  50
 70.5111
  51
 97.0454
   0
LINE
   8
LEVEL060
   6
CONTINUOUS
  62
7
  10
 287.257
  20
 283.507
  30
0.0
  11
 306.789
  21
 285.460
  31
0.0
   0
LINE
   8
LEVEL060
   6
CONTINUOUS
  62
7
  10
 306.789
  20
 285.460
  30
0.0
  11
 306.168
  21
 291.670
  31
0.0
   0
LINE
   8
LEVEL060
   6
CONTINUOUS
  62
7
  10
 306.168
  20
 291.670
  30
0.0
  11
 304.784
  21
 292.295
  31
0.0
   0
LINE
   8
LEVEL060
   6
CONTINUOUS
  62
7
  10
 304.784
  20
 292.295
  30
0.0
  11
 287.869
  21
 290.603
  31
0.0
   0
LINE
   8
LEVEL060
   6
CONTINUOUS
  62
7
  10
 287.869
  20
 290.603
  30
0.0
  11
 286.636
  21
 289.717
  31
0.0
   0
LINE
   8
LEVEL060
   6
CONTINUOUS
  62
7
  10
 286.636
  20
 289.717
  30
0.0
  11
 287.257
  21
 283.507
  31
0.0
   0
LINE
   8
LEVEL060
   6
CONTINUOUS
  62
7
  10
 292.140
  20
 283.995
  30
0.0
  11
 291.519
  21
 290.205
  31
0.0
   0
LINE
   8
LEVEL060
   6
CONTINUOUS
  62
7
  10
 301.906
  20
 284.972
  30
0.0
  11
 301.285
  21
 291.182
  31
0.0
   0
ARC
   8
LEVEL060
   6
CONTINUOUS
  62
7
  10
 297.943
  20
 275.289
  30
0.0
  40
 16.2409
  50
 78.1228
  51
 113.298
   0
ARC
   8
LEVEL060
   6
CONTINUOUS
  62
7
  10
 305.395
  20
 284.318
  30
0.0
  40
 8.00000
  50
 94.3756
  51
 120.910
   0
ARC
   8
LEVEL060
   6
CONTINUOUS
  62
7
  10
 288.850
  20
 282.664
  30
0.0
  40
 8.00000
  50
 70.5111
  51
 97.0454
   0
LINE
   8
LEVEL060
   6
DASHDOT
  62
1
  10
 296.028
  20
 294.434
  30
0.0
  11
 298.317
  21
 271.548
  31
0.0
   0
LINE
   8
LEVEL060
   6
CONTINUOUS
  62
7
  10
 292.048
  20
 283.986
  30
0.0
  11
 292.545
  21
 279.011
  31
0.0
   0
LINE
   8
LEVEL060
   6
CONTINUOUS
  62
7
  10
 302.496
  20
 280.006
  30
0.0
  11
 301.998
  21
 284.981
  31
0.0
   0
LINE
   8
LEVEL060
   6
CONTINUOUS
  62
3
  10
 293.292
  20
 279.086
  30
0.0
  11
 292.794
  21
 284.061
  31
0.0
   0
LINE
   8
LEVEL060
   6
CONTINUOUS
  62
3
  10
 301.750
  20
 279.931
  30
0.0
  11
 301.252
  21
 284.907
  31
0.0
   0
LINE
   8
LEVEL060
   6
CONTINUOUS
  62
7
  10
 308.083
  20
 272.525
  30
0.0
  11
 307.362
  21
 279.730
  31
0.0
   0
LINE
   8
LEVEL060
   6
CONTINUOUS
  62
7
  10
 307.362
  20
 279.730
  30
0.0
  11
 305.978
  21
 280.354
  31
0.0
   0
LINE
   8
LEVEL060
   6
CONTINUOUS
  62
7
  10
 305.978
  20
 280.354
  30
0.0
  11
 289.063
  21
 278.663
  31
0.0
   0
LINE
   8
LEVEL060
   6
CONTINUOUS
  62
7
  10
 289.063
  20
 278.663
  30
0.0
  11
 287.830
  21
 277.777
  31
0.0
   0
LINE
   8
LEVEL060
   6
CONTINUOUS
  62
7
  10
 287.830
  20
 277.777
  30
0.0
  11
 288.550
  21
 270.572
  31
0.0
   0
LINE
   8
LEVEL001
   6
CONTINUOUS
  62
7
  10
 501.095
  20
 252.249
  30
0.0
  11
 489.548
  21
 252.249
  31
0.0
   0
LINE
   8
LEVEL001
   6
CONTINUOUS
  62
7
  10
 489.548
  20
 252.249
  30
0.0
  11
 489.548
  21
 247.695
  31
0.0
   0
LINE
   8
LEVEL001
   6
CONTINUOUS
  62
7
  10
 489.548
  20
 247.695
  30
0.0
  11
 490.321
  21
 247.249
  31
0.0
   0
LINE
   8
LEVEL001
   6
CONTINUOUS
  62
7
  10
 490.321
  20
 247.249
  30
0.0
  11
 500.321
  21
 247.249
  31
0.0
   0
LINE
   8
LEVEL001
   6
CONTINUOUS
  62
7
  10
 500.321
  20
 247.249
  30
0.0
  11
 501.095
  21
 247.695
  31
0.0
   0
LINE
   8
LEVEL001
   6
CONTINUOUS
  62
7
  10
 501.095
  20
 247.695
  30
0.0
  11
 501.095
  21
 252.249
  31
0.0
   0
LINE
   8
LEVEL001
   6
CONTINUOUS
  62
7
  10
 498.208
  20
 252.249
  30
0.0
  11
 498.208
  21
 247.695
  31
0.0
   0
LINE
   8
LEVEL001
   6
CONTINUOUS
  62
7
  10
 492.435
  20
 252.249
  30
0.0
  11
 492.435
  21
 247.695
  31
0.0
   0
ARC
   8
LEVEL001
   6
CONTINUOUS
  62
7
  10
 495.321
  20
 256.802
  30
0.0
  40
 9.55315
  50
 252.412
  51
 287.588
   0
ARC
   8
LEVEL001
   6
CONTINUOUS
  62
7
  10
 490.321
  20
 252.472
  30
0.0
  40
 5.22330
  50
 270.001
  51
 293.865
   0
ARC
   8
LEVEL001
   6
CONTINUOUS
  62
7
  10
 500.321
  20
 252.472
  30
0.0
  40
 5.22330
  50
 246.135
  51
 270.000
   0
LINE
   8
LEVEL001
   6
DASHDOT
  62
1
  10
 495.321
  20
 242.549
  30
0.0
  11
 495.321
  21
 207.549
  31
0.0
   0
ARC
   8
LEVEL001
   6
CONTINUOUS
  62
7
  10
 486.321
  20
 234.249
  30
0.0
  40
 2.00000
  50
 89.9996
  51
 180.000
   0
ARC
   8
LEVEL001
   6
CONTINUOUS
  62
7
  10
 504.321
  20
 234.249
  30
0.0
  40
 2.00000
  50
 0.220272E-3
  51
 90.0004
   0
ARC
   8
LEVEL001
   6
CONTINUOUS
  62
7
  10
 509.321
  20
 224.249
  30
0.0
  40
 3.00000
  50
 180.000
  51
 270.000
   0
LINE
   8
LEVEL001
   6
CONTINUOUS
  62
7
  10
 506.321
  20
 234.249
  30
0.0
  11
 506.321
  21
 224.249
  31
0.0
   0
ARC
   8
LEVEL001
   6
CONTINUOUS
  62
7
  10
 481.321
  20
 224.249
  30
0.0
  40
 3.00000
  50
 270.000
  51
0.0
   0
LINE
   8
LEVEL001
   6
CONTINUOUS
  62
7
  10
 484.321
  20
 234.249
  30
0.0
  11
 484.321
  21
 224.249
  31
0.0
   0
LINE
   8
LEVEL001
   6
CONTINUOUS
  62
7
  10
 485.321
  20
 241.749
  30
0.0
  11
 485.321
  21
 236.249
  31
0.0
   0
LINE
   8
LEVEL001
   6
CONTINUOUS
  62
7
  10
 505.321
  20
 241.749
  30
0.0
  11
 505.321
  21
 236.249
  31
0.0
   0
LINE
   8
LEVEL001
   6
CONTINUOUS
  62
7
  10
 485.321
  20
 241.749
  30
0.0
  11
 505.321
  21
 241.749
  31
0.0
   0
LINE
   8
LEVEL001
   6
CONTINUOUS
  62
7
  10
 501.095
  20
 245.749
  30
0.0
  11
 489.548
  21
 245.749
  31
0.0
   0
LINE
   8
LEVEL001
   6
CONTINUOUS
  62
7
  10
 489.548
  20
 245.749
  30
0.0
  11
 489.548
  21
 242.195
  31
0.0
   0
LINE
   8
LEVEL001
   6
CONTINUOUS
  62
7
  10
 489.548
  20
 242.195
  30
0.0
  11
 490.321
  21
 241.749
  31
0.0
   0
LINE
   8
LEVEL001
   6
CONTINUOUS
  62
7
  10
 490.321
  20
 241.749
  30
0.0
  11
 500.321
  21
 241.749
  31
0.0
   0
LINE
   8
LEVEL001
   6
CONTINUOUS
  62
7
  10
 500.321
  20
 241.749
  30
0.0
  11
 501.095
  21
 242.195
  31
0.0
   0
LINE
   8
LEVEL001
   6
CONTINUOUS
  62
7
  10
 501.095
  20
 242.195
  30
0.0
  11
 501.095
  21
 245.749
  31
0.0
   0
LINE
   8
LEVEL001
   6
CONTINUOUS
  62
7
  10
 498.208
  20
 245.749
  30
0.0
  11
 498.208
  21
 242.195
  31
0.0
   0
LINE
   8
LEVEL001
   6
CONTINUOUS
  62
7
  10
 492.435
  20
 245.749
  30
0.0
  11
 492.435
  21
 242.195
  31
0.0
   0
ARC
   8
LEVEL001
   6
CONTINUOUS
  62
7
  10
 495.321
  20
 251.303
  30
0.0
  40
 9.55408
  50
 252.413
  51
 287.587
   0
ARC
   8
LEVEL001
   6
CONTINUOUS
  62
7
  10
 490.322
  20
 246.972
  30
0.0
  40
 5.22330
  50
 269.999
  51
 293.864
   0
ARC
   8
LEVEL001
   6
CONTINUOUS
  62
7
  10
 500.321
  20
 246.972
  30
0.0
  40
 5.22330
  50
 246.136
  51
 270.001
   0
LINE
   8
LEVEL001
   6
DASHDOT
  62
1
  10
 495.321
  20
 238.749
  30
0.0
  11
 495.321
  21
 259.788
  31
0.0
   0
LINE
   8
LEVEL001
   6
CONTINUOUS
  62
3
  10
 492.821
  20
 247.249
  30
0.0
  11
 492.821
  21
 245.749
  31
0.0
   0
LINE
   8
LEVEL001
   6
CONTINUOUS
  62
7
  10
 492.321
  20
 247.249
  30
0.0
  11
 492.321
  21
 245.749
  31
0.0
   0
LINE
   8
LEVEL001
   6
CONTINUOUS
  62
3
  10
 497.821
  20
 247.249
  30
0.0
  11
 497.821
  21
 245.749
  31
0.0
   0
LINE
   8
LEVEL001
   6
CONTINUOUS
  62
7
  10
 498.321
  20
 245.749
  30
0.0
  11
 498.321
  21
 247.249
  31
0.0
   0
ARC
   8
LEVEL001
   6
CONTINUOUS
  62
7
  10
 396.321
  20
 196.249
  30
0.0
  40
 5.00000
  50
 270.000
  51
 354.261
   0
ARC
   8
LEVEL001
   6
CONTINUOUS
  62
7
  10
 406.321
  20
 216.249
  30
0.0
  40
 5.00000
  50
 90.0000
  51
 180.000
   0
ARC
   8
LEVEL001
   6
CONTINUOUS
  62
7
  10
 547.321
  20
 216.249
  30
0.0
  40
 5.00000
  50
0.0
  51
 90.0000
   0
LINE
   8
LEVEL001
   6
DASHDOT
  62
1
  10
 431.321
  20
 179.749
  30
0.0
  11
 431.321
  21
 143.249
  31
0.0
   0
LINE
   8
LEVEL001
   6
DASHDOT
  62
1
  10
 528.321
  20
 196.016
  30
0.0
  11
 528.321
  21
 239.624
  31
0.0
   0
LINE
   8
LEVEL001
   6
CONTINUOUS
  62
7
  10
 520.071
  20
 222.642
  30
0.0
  11
 536.571
  21
 222.642
  31
0.0
   0
ARC
   8
LEVEL001
   6
CONTINUOUS
  62
7
  10
 536.108
  20
 222.142
  30
0.0
  40
 0.500000
  50
 310.000
  51
 90.0000
   0
LINE
   8
LEVEL001
   6
DASHDOT
  62
1
  10
 528.321
  20
 164.537
  30
0.0
  11
 528.321
  21
 240.840
  31
0.0
   0
LINE
   8
LEVEL050
   6
CONTINUOUS
  62
7
  10
 518.321
  20
 224.392
  30
0.0
  11
 538.321
  21
 224.392
  31
0.0
   0
LINE
   8
LEVEL050
   6
CONTINUOUS
  62
7
  10
 538.321
  20
 224.392
  30
0.0
  11
 536.571
  21
 222.642
  31
0.0
   0
ARC
   8
LEVEL001
   6
CONTINUOUS
  62
7
  10
 520.535
  20
 222.142
  30
0.0
  40
 0.500000
  50
 90.0000
  51
 230.000
   0
LINE
   8
LEVEL050
   6
CONTINUOUS
  62
7
  10
 518.321
  20
 224.392
  30
0.0
  11
 520.071
  21
 222.642
  31
0.0
   0
LINE
   8
LEVEL001
   6
CONTINUOUS
  62
3
  10
 519.321
  20
 231.642
  30
0.0
  11
 519.321
  21
 224.392
  31
0.0
   0
LINE
   8
LEVEL001
   6
CONTINUOUS
  62
3
  10
 520.821
  20
 232.142
  30
0.0
  11
 520.821
  21
 224.392
  31
0.0
   0
LINE
   8
LEVEL001
   6
CONTINUOUS
  62
3
  10
 522.321
  20
 232.142
  30
0.0
  11
 522.321
  21
 224.392
  31
0.0
   0
LINE
   8
LEVEL001
   6
CONTINUOUS
  62
3
  10
 523.821
  20
 232.142
  30
0.0
  11
 523.821
  21
 224.392
  31
0.0
   0
LINE
   8
LEVEL001
   6
CONTINUOUS
  62
3
  10
 525.321
  20
 232.142
  30
0.0
  11
 525.321
  21
 224.392
  31
0.0
   0
LINE
   8
LEVEL001
   6
CONTINUOUS
  62
3
  10
 526.821
  20
 232.142
  30
0.0
  11
 526.821
  21
 224.392
  31
0.0
   0
LINE
   8
LEVEL001
   6
CONTINUOUS
  62
3
  10
 529.821
  20
 232.142
  30
0.0
  11
 529.821
  21
 224.392
  31
0.0
   0
LINE
   8
LEVEL001
   6
CONTINUOUS
  62
3
  10
 531.321
  20
 232.142
  30
0.0
  11
 531.321
  21
 224.392
  31
0.0
   0
LINE
   8
LEVEL001
   6
CONTINUOUS
  62
3
  10
 532.821
  20
 232.142
  30
0.0
  11
 532.821
  21
 224.392
  31
0.0
   0
LINE
   8
LEVEL001
   6
CONTINUOUS
  62
3
  10
 534.321
  20
 232.142
  30
0.0
  11
 534.321
  21
 224.392
  31
0.0
   0
LINE
   8
LEVEL001
   6
CONTINUOUS
  62
3
  10
 535.821
  20
 232.142
  30
0.0
  11
 535.821
  21
 224.392
  31
0.0
   0
LINE
   8
LEVEL001
   6
CONTINUOUS
  62
3
  10
 537.321
  20
 231.642
  30
0.0
  11
 537.321
  21
 224.392
  31
0.0
   0
ARC
   8
LEVEL050
   6
CONTINUOUS
  62
7
  10
 523.321
  20
 229.642
  30
0.0
  40
 5.00000
  50
 90.0000
  51
 180.000
   0
LINE
   8
LEVEL050
   6
CONTINUOUS
  62
7
  10
 518.321
  20
 224.392
  30
0.0
  11
 518.321
  21
 229.642
  31
0.0
   0
LINE
   8
LEVEL050
   6
CONTINUOUS
  62
7
  10
 523.321
  20
 234.642
  30
0.0
  11
 533.321
  21
 234.642
  31
0.0
   0
ARC
   8
LEVEL050
   6
CONTINUOUS
  62
7
  10
 533.321
  20
 229.642
  30
0.0
  40
 5.00000
  50
0.0
  51
 90.0000
   0
LINE
   8
LEVEL050
   6
CONTINUOUS
  62
7
  10
 538.321
  20
 224.392
  30
0.0
  11
 538.321
  21
 229.642
  31
0.0
   0
ARC
   8
LEVEL087
   6
CONTINUOUS
  62
7
  10
 697.321
  20
 114.249
  30
0.0
  40
 3.00000
  50
0.0
  51
 90.0000
   0
LINE
   8
LEVEL087
   6
CONTINUOUS
  62
7
  10
 700.321
  20
 114.249
  30
0.0
  11
 700.321
  21
 103.249
  31
0.0
   0
ARC
   8
LEVEL087
   6
CONTINUOUS
  62
7
  10
 266.321
  20
 114.249
  30
0.0
  40
 3.00000
  50
 90.0000
  51
 180.000
   0
LINE
   8
LEVEL087
   6
CONTINUOUS
  62
7
  10
 263.321
  20
 114.249
  30
0.0
  11
 263.321
  21
 103.249
  31
0.0
   0
LINE
   8
LEVEL087
   6
CONTINUOUS
  62
7
  10
 629.321
  20
 120.249
  30
0.0
  11
 641.321
  21
 120.249
  31
0.0
   0
ARC
   8
LEVEL087
   6
CONTINUOUS
  62
7
  10
 645.194
  20
 119.249
  30
0.0
  40
 2.00000
  50
 194.478
  51
 270.000
   0
ARC
   8
LEVEL087
   6
CONTINUOUS
  62
7
  10
 641.321
  20
 118.249
  30
0.0
  40
 2.00000
  50
 14.4775
  51
 90.0000
   0
ARC
   8
LEVEL087
   6
CONTINUOUS
  62
7
  10
 625.448
  20
 119.249
  30
0.0
  40
 2.00000
  50
 270.000
  51
 345.522
   0
ARC
   8
LEVEL087
   6
CONTINUOUS
  62
7
  10
 629.321
  20
 118.249
  30
0.0
  40
 2.00000
  50
 90.0000
  51
 165.522
   0
ARC
   8
LEVEL087
   6
CONTINUOUS
  62
7
  10
 558.194
  20
 119.249
  30
0.0
  40
 2.00000
  50
 194.478
  51
 270.000
   0
ARC
   8
LEVEL087
   6
CONTINUOUS
  62
7
  10
 554.321
  20
 118.249
  30
0.0
  40
 2.00000
  50
 14.4775
  51
 90.0000
   0
ARC
   8
LEVEL087
   6
CONTINUOUS
  62
7
  10
 526.448
  20
 119.249
  30
0.0
  40
 2.00000
  50
 270.000
  51
 345.522
   0
ARC
   8
LEVEL087
   6
CONTINUOUS
  62
7
  10
 530.321
  20
 118.249
  30
0.0
  40
 2.00000
  50
 90.0000
  51
 165.522
   0
ARC
   8
LEVEL087
   6
CONTINUOUS
  62
7
  10
 650.321
  20
 103.249
  30
0.0
  40
 3.00000
  50
0.0
  51
 90.0000
   0
LINE
   8
LEVEL087
   6
CONTINUOUS
  62
7
  10
 653.321
  20
 103.249
  30
0.0
  11
 700.321
  21
 103.249
  31
0.0
   0
ARC
   8
LEVEL087
   6
CONTINUOUS
  62
7
  10
 498.321
  20
 103.249
  30
0.0
  40
 3.00000
  50
 90.0000
  51
 180.000
   0
ARC
   8
LEVEL087
   6
CONTINUOUS
  62
7
  10
 462.321
  20
 103.249
  30
0.0
  40
 3.00000
  50
0.0
  51
 90.0000
   0
ARC
   8
LEVEL087
   6
CONTINUOUS
  62
7
  10
 286.321
  20
 103.249
  30
0.0
  40
 3.00000
  50
 90.0000
  51
 180.000
   0
LINE
   8
LEVEL087
   6
CONTINUOUS
  62
7
  10
 263.321
  20
 103.249
  30
0.0
  11
 283.321
  21
 103.249
  31
0.0
   0
LINE
   8
LEVEL087
   6
CONTINUOUS
  62
7
  10
 465.321
  20
 103.249
  30
0.0
  11
 495.321
  21
 103.249
  31
0.0
   0
ARC
   8
LEVEL087
   6
CONTINUOUS
  62
7
  10
 365.194
  20
 119.249
  30
0.0
  40
 2.00000
  50
 194.478
  51
 270.000
   0
ARC
   8
LEVEL087
   6
CONTINUOUS
  62
7
  10
 361.321
  20
 118.249
  30
0.0
  40
 2.00000
  50
 14.4775
  51
 90.0000
   0
ARC
   8
LEVEL087
   6
CONTINUOUS
  62
7
  10
 305.448
  20
 119.249
  30
0.0
  40
 2.00000
  50
 270.000
  51
 345.522
   0
ARC
   8
LEVEL087
   6
CONTINUOUS
  62
7
  10
 309.321
  20
 118.249
  30
0.0
  40
 2.00000
  50
 90.0000
  51
 165.522
   0
LINE
   8
LEVEL087
   6
CONTINUOUS
  62
7
  10
 286.321
  20
 106.249
  30
0.0
  11
 462.321
  21
 106.249
  31
0.0
   0
LINE
   8
LEVEL087
   6
CONTINUOUS
  62
7
  10
 498.321
  20
 106.249
  30
0.0
  11
 650.321
  21
 106.249
  31
0.0
   0
LINE
   8
LEVEL087
   6
CONTINUOUS
  62
7
  10
 266.321
  20
 117.249
  30
0.0
  11
 697.321
  21
 117.249
  31
0.0
   0
LINE
   8
LEVEL087
   6
DASHDOT
  62
1
  10
 288.321
  20
 121.249
  30
0.0
  11
 282.321
  21
 121.249
  31
0.0
   0
ARC
   8
LEVEL087
   6
CONTINUOUS
  62
7
  10
 287.321
  20
 124.249
  30
0.0
  40
 3.00000
  50
0.0
  51
 90.0000
   0
ARC
   8
LEVEL087
   6
CONTINUOUS
  62
7
  10
 283.321
  20
 124.249
  30
0.0
  40
 3.00000
  50
 90.0000
  51
 180.000
   0
LINE
   8
LEVEL087
   6
CONTINUOUS
  62
7
  10
 290.321
  20
 124.249
  30
0.0
  11
 290.321
  21
 120.249
  31
0.0
   0
ARC
   8
LEVEL087
   6
CONTINUOUS
  62
7
  10
 293.321
  20
 120.249
  30
0.0
  40
 3.00000
  50
 180.000
  51
 270.000
   0
ARC
   8
LEVEL087
   6
CONTINUOUS
  62
7
  10
 277.321
  20
 120.249
  30
0.0
  40
 3.00000
  50
 270.000
  51
0.0
   0
LINE
   8
LEVEL087
   6
CONTINUOUS
  62
7
  10
 280.321
  20
 124.249
  30
0.0
  11
 280.321
  21
 120.249
  31
0.0
   0
LINE
   8
LEVEL087
   6
CONTINUOUS
  62
7
  10
 527.321
  20
 120.249
  30
0.0
  11
 557.321
  21
 120.249
  31
0.0
   0
LINE
   8
LEVEL087
   6
DASHDOT
  62
1
  10
 285.321
  20
 265.298
  30
0.0
  11
 285.321
  21
 118.249
  31
0.0
   0
LINE
   8
LEVEL087
   6
CONTINUOUS
  62
7
  10
 283.321
  20
 127.249
  30
0.0
  11
 284.172
  21
 127.249
  31
0.0
   0
LINE
   8
LEVEL087
   6
CONTINUOUS
  62
7
  10
 286.472
  20
 127.249
  30
0.0
  11
 287.321
  21
 127.249
  31
0.0
   0
LINE
   8
LEVEL087
   6
CONTINUOUS
  62
7
  10
 309.321
  20
 120.249
  30
0.0
  11
 367.321
  21
 120.249
  31
0.0
   0
LINE
   8
LEVEL001
   6
CONTINUOUS
  62
7
  10
 317.321
  20
 120.249
  30
0.0
  11
 317.321
  21
 126.249
  31
0.0
   0
LINE
   8
LEVEL001
   6
CONTINUOUS
  62
7
  10
 317.321
  20
 126.249
  30
0.0
  11
 367.321
  21
 126.249
  31
0.0
   0
LINE
   8
LEVEL001
   6
CONTINUOUS
  62
7
  10
 367.321
  20
 126.249
  30
0.0
  11
 367.321
  21
 120.249
  31
0.0
   0
ARC
   8
LEVEL001
   6
CONTINUOUS
  62
7
  10
 331.321
  20
 226.749
  30
0.0
  40
 30.0000
  50
 150.421
  51
 212.388
   0
LINE
   8
LEVEL001
   6
CONTINUOUS
  62
7
  10
 312.321
  20
 227.249
  30
0.0
  11
 312.321
  21
 238.559
  31
0.0
   0
LINE
   8
LEVEL001
   6
CONTINUOUS
  62
7
  10
 313.321
  20
 227.249
  30
0.0
  11
 313.321
  21
 238.278
  31
0.0
   0
LINE
   8
LEVEL001
   6
CONTINUOUS
  62
7
  10
 318.321
  20
 227.249
  30
0.0
  11
 318.321
  21
 236.870
  31
0.0
   0
ARC
   8
LEVEL001
   6
CONTINUOUS
  62
7
  10
 322.321
  20
 236.249
  30
0.0
  40
 3.00000
  50
 173.371
  51
 180.000
   0
ARC
   8
LEVEL001
   6
CONTINUOUS
  62
7
  10
 335.321
  20
 227.894
  30
0.0
  40
 15.0000
  50
 146.101
  51
 180.000
   0
LINE
   8
LEVEL001
   6
CONTINUOUS
  62
7
  10
 331.321
  20
 224.749
  30
0.0
  11
 332.321
  21
 225.749
  31
0.0
   0
ARC
   8
LEVEL001
   6
CONTINUOUS
  62
7
  10
 334.821
  20
 226.749
  30
0.0
  40
 1.00000
  50
 270.000
  51
0.0
   0
LINE
   8
LEVEL001
   6
CONTINUOUS
  62
7
  10
 358.321
  20
 225.749
  30
0.0
  11
 332.321
  21
 225.749
  31
0.0
   0
LINE
   8
LEVEL001
   6
CONTINUOUS
  62
7
  10
 359.321
  20
 224.749
  30
0.0
  11
 358.321
  21
 225.749
  31
0.0
   0
ARC
   8
LEVEL001
   6
CONTINUOUS
  62
7
  10
 355.821
  20
 226.749
  30
0.0
  40
 1.00000
  50
 180.000
  51
 270.000
   0
LINE
   8
LEVEL001
   6
CONTINUOUS
  62
7
  10
 335.821
  20
 226.749
  30
0.0
  11
 335.821
  21
 231.917
  31
0.0
   0
LINE
   8
LEVEL001
   6
CONTINUOUS
  62
7
  10
 354.821
  20
 226.749
  30
0.0
  11
 354.821
  21
 229.689
  31
0.0
   0
ARC
   8
LEVEL003
   6
CONTINUOUS
  62
7
  10
 288.772
  20
 129.959
  30
0.0
  40
 4.60000
  50
 94.1083
  51
 179.997
   0
LINE
   8
LEVEL003
   6
CONTINUOUS
  62
7
  10
 277.322
  20
 136.549
  30
0.0
  11
 293.322
  21
 138.198
  31
0.0
   0
LINE
   8
LEVEL003
   6
CONTINUOUS
  62
7
  10
 277.322
  20
 134.249
  30
0.0
  11
 293.322
  21
 135.898
  31
0.0
   0
LINE
   8
LEVEL003
   6
CONTINUOUS
  62
7
  10
 288.442
  20
 134.548
  30
0.0
  11
 293.322
  21
 134.898
  31
0.0
   0
LINE
   8
LEVEL003
   6
CONTINUOUS
  62
7
  10
 277.322
  20
 134.249
  30
0.0
  11
 285.701
  21
 133.384
  31
0.0
   0
LINE
   8
LEVEL003
   6
CONTINUOUS
  62
7
  10
 288.474
  20
 135.398
  30
0.0
  11
 293.322
  21
 134.898
  31
0.0
   0
LINE
   8
LEVEL003
   6
CONTINUOUS
  62
7
  10
 277.322
  20
 137.549
  30
0.0
  11
 282.171
  21
 137.049
  31
0.0
   0
ARC
   8
LEVEL003
   6
CONTINUOUS
  62
7
  10
 277.317
  20
 135.399
  30
0.0
  40
 1.15000
  50
 89.7592
  51
 270.236
   0
LINE
   8
LEVEL003
   6
CONTINUOUS
  62
7
  10
 277.322
  20
 139.849
  30
0.0
  11
 293.322
  21
 141.498
  31
0.0
   0
LINE
   8
LEVEL003
   6
CONTINUOUS
  62
7
  10
 277.322
  20
 137.549
  30
0.0
  11
 293.322
  21
 139.198
  31
0.0
   0
LINE
   8
LEVEL003
   6
CONTINUOUS
  62
7
  10
 288.474
  20
 138.698
  30
0.0
  11
 293.322
  21
 138.198
  31
0.0
   0
ARC
   8
LEVEL003
   6
CONTINUOUS
  62
7
  10
 277.322
  20
 138.699
  30
0.0
  40
 1.15000
  50
 89.9970
  51
 269.997
   0
LINE
   8
LEVEL003
   6
CONTINUOUS
  62
7
  10
 277.323
  20
 143.149
  30
0.0
  11
 293.323
  21
 144.798
  31
0.0
   0
LINE
   8
LEVEL003
   6
CONTINUOUS
  62
7
  10
 277.322
  20
 140.849
  30
0.0
  11
 293.322
  21
 142.498
  31
0.0
   0
LINE
   8
LEVEL003
   6
CONTINUOUS
  62
7
  10
 277.323
  20
 144.149
  30
0.0
  11
 282.171
  21
 143.649
  31
0.0
   0
LINE
   8
LEVEL003
   6
CONTINUOUS
  62
7
  10
 277.323
  20
 146.449
  30
0.0
  11
 293.323
  21
 148.098
  31
0.0
   0
LINE
   8
LEVEL003
   6
CONTINUOUS
  62
7
  10
 277.323
  20
 144.149
  30
0.0
  11
 293.323
  21
 145.798
  31
0.0
   0
LINE
   8
LEVEL003
   6
CONTINUOUS
  62
7
  10
 288.474
  20
 145.298
  30
0.0
  11
 293.323
  21
 144.798
  31
0.0
   0
LINE
   8
LEVEL003
   6
CONTINUOUS
  62
7
  10
 288.474
  20
 141.998
  30
0.0
  11
 293.322
  21
 141.498
  31
0.0
   0
ARC
   8
LEVEL003
   6
CONTINUOUS
  62
7
  10
 277.318
  20
 141.999
  30
0.0
  40
 1.15000
  50
 89.7529
  51
 270.241
   0
ARC
   8
LEVEL003
   6
CONTINUOUS
  62
7
  10
 277.318
  20
 145.299
  30
0.0
  40
 1.15000
  50
 89.7529
  51
 270.241
   0
LINE
   8
LEVEL003
   6
CONTINUOUS
  62
7
  10
 277.322
  20
 140.849
  30
0.0
  11
 282.171
  21
 140.349
  31
0.0
   0
ARC
   8
LEVEL003
   6
CONTINUOUS
  62
7
  10
 293.317
  20
 133.748
  30
0.0
  40
 1.15000
  50
 270.246
  51
 89.7467
   0
ARC
   8
LEVEL003
   6
CONTINUOUS
  62
7
  10
 293.327
  20
 137.048
  30
0.0
  40
 1.15000
  50
 269.753
  51
 90.2413
   0
ARC
   8
LEVEL003
   6
CONTINUOUS
  62
7
  10
 293.327
  20
 140.348
  30
0.0
  40
 1.15000
  50
 269.753
  51
 90.2413
   0
ARC
   8
LEVEL003
   6
CONTINUOUS
  62
7
  10
 293.323
  20
 143.648
  30
0.0
  40
 1.15000
  50
 269.997
  51
 89.9970
   0
ARC
   8
LEVEL003
   6
CONTINUOUS
  62
7
  10
 293.328
  20
 146.948
  30
0.0
  40
 1.15000
  50
 269.753
  51
 90.2413
   0
LINE
   8
LEVEL003
   6
CONTINUOUS
  62
7
  10
 288.607
  20
 132.260
  30
0.0
  11
 293.322
  21
 132.598
  31
0.0
   0
LINE
   8
LEVEL003
   6
CONTINUOUS
  62
7
  10
 284.171
  20
 122.099
  30
0.0
  11
 284.172
  21
 129.960
  31
0.0
   0
LINE
   8
LEVEL003
   6
CONTINUOUS
  62
7
  10
 286.471
  20
 122.099
  30
0.0
  11
 286.472
  21
 129.966
  31
0.0
   0
ARC
   8
LEVEL003
   6
CONTINUOUS
  62
7
  10
 288.772
  20
 129.965
  30
0.0
  40
 2.30000
  50
 94.1083
  51
 179.997
   0
LINE
   8
LEVEL003
   6
DASHDOT
  62
1
  10
 277.328
  20
 253.684
  30
0.0
  11
 277.322
  21
 131.990
  31
0.0
   0
LINE
   8
LEVEL003
   6
DASHDOT
  62
1
  10
 293.328
  20
 252.025
  30
0.0
  11
 293.322
  21
 131.989
  31
0.0
   0
ARC
   8
LEVEL003
   6
CONTINUOUS
  62
7
  10
 285.321
  20
 122.099
  30
0.0
  40
 1.15001
  50
 179.997
  51
 359.997
   0
LINE
   8
LEVEL081
   6
CONTINUOUS
  62
7
  10
 315.890
  20
 148.698
  30
0.0
  11
 317.321
  21
 124.741
  31
0.0
   0
LINE
   8
LEVEL081
   6
CONTINUOUS
  62
7
  10
 308.902
  20
 148.281
  30
0.0
  11
 310.036
  21
 129.315
  31
0.0
   0
ARC
   8
LEVEL081
   6
CONTINUOUS
  62
7
  10
 325.872
  20
 149.295
  30
0.0
  40
 17.0000
  50
 144.480
  51
 183.419
   0
ARC
   8
LEVEL081
   6
CONTINUOUS
  62
7
  10
 315.027
  20
 129.613
  30
0.0
  40
 5.00000
  50
 183.419
  51
 273.419
   0
ARC
   8
LEVEL081
   6
CONTINUOUS
  62
7
  10
 440.987
  20
 244.560
  30
0.0
  40
 10.0000
  50
 48.4194
  51
 114.270
   0
LINE
   8
LEVEL081
   6
CONTINUOUS
  62
7
  10
 447.624
  20
 252.040
  30
0.0
  11
 451.911
  21
 248.236
  31
0.0
   0
ARC
   8
LEVEL081
   6
CONTINUOUS
  62
7
  10
 458.548
  20
 255.716
  30
0.0
  40
 10.0000
  50
 228.419
  51
 318.419
   0
LINE
   8
LEVEL081
   6
CONTINUOUS
  62
7
  10
 466.028
  20
 249.080
  30
0.0
  11
 468.840
  21
 252.249
  31
0.0
   0
ARC
   8
LEVEL081
   6
CONTINUOUS
  62
7
  10
 490.597
  20
 74.9874
  30
0.0
  40
 200.000
  50
 127.166
  51
 131.263
   0
ARC
   8
LEVEL081
   6
CONTINUOUS
  62
7
  10
 490.597
  20
 74.9874
  30
0.0
  40
 192.000
  50
 115.808
  51
 130.729
   0
ARC
   8
LEVEL081
   6
CONTINUOUS
  62
7
  10
 521.140
  20
 66.7946
  30
0.0
  40
 205.000
  50
 114.270
  51
 136.997
   0
LINE
   8
LEVEL001
   6
CONTINUOUS
  62
7
  10
 315.325
  20
 124.622
  30
0.0
  11
 317.321
  21
 124.741
  31
0.0
   0
ARC
   8
LEVEL081
   6
CONTINUOUS
  62
7
  10
 325.872
  20
 149.295
  30
0.0
  40
 10.0000
  50
 109.633
  51
 183.419
   0
LINE
   8
LEVEL081
   6
CONTINUOUS
  62
7
  10
 308.657
  20
 159.249
  30
0.0
  11
 308.876
  21
 148.934
  31
0.0
   0
LINE
   8
LEVEL001
   6
CONTINUOUS
  62
7
  10
 557.321
  20
 120.249
  30
0.0
  11
 557.321
  21
 137.249
  31
0.0
   0
ARC
   8
LEVEL001
   6
CONTINUOUS
  62
7
  10
 560.321
  20
 145.311
  30
0.0
  40
 8.00000
  50
 180.000
  51
 243.612
   0
ARC
   8
LEVEL001
   6
CONTINUOUS
  62
7
  10
 556.321
  20
 137.249
  30
0.0
  40
 1.00000
  50
 0.763740E-9
  51
 63.6122
   0
LINE
   8
LEVEL001
   6
CONTINUOUS
  62
7
  10
 335.821
  20
 133.849
  30
0.0
  11
 348.821
  21
 133.849
  31
0.0
   0
LINE
   8
LEVEL001
   6
DASHDOT
  62
1
  10
 342.321
  20
 137.249
  30
0.0
  11
 342.321
  21
 109.757
  31
0.0
   0
LINE
   8
LEVEL003
   6
CONTINUOUS
  62
7
  10
 332.866
  20
 132.249
  30
0.0
  11
 335.821
  21
 132.249
  31
0.0
   0
LINE
   8
LEVEL003
   6
CONTINUOUS
  62
7
  10
 348.821
  20
 132.249
  30
0.0
  11
 359.772
  21
 132.249
  31
0.0
   0
LINE
   8
LEVEL001
   6
DASHDOT
  62
1
  10
 346.321
  20
 109.249
  30
0.0
  11
 346.321
  21
 136.740
  31
0.0
   0
LINE
   8
LEVEL001
   6
DOT
  62
3
  10
 352.821
  20
 112.649
  30
0.0
  11
 339.821
  21
 112.649
  31
0.0
   0
LINE
   8
LEVEL001
   6
DOT
  62
3
  10
 339.821
  20
 120.249
  30
0.0
  11
 339.821
  21
 112.649
  31
0.0
   0
LINE
   8
LEVEL001
   6
DOT
  62
3
  10
 339.821
  20
 112.649
  30
0.0
  11
 340.514
  21
 112.249
  31
0.0
   0
LINE
   8
LEVEL001
   6
DOT
  62
3
  10
 340.514
  20
 112.249
  30
0.0
  11
 352.129
  21
 112.249
  31
0.0
   0
LINE
   8
LEVEL001
   6
DOT
  62
3
  10
 352.129
  20
 112.249
  30
0.0
  11
 352.821
  21
 112.649
  31
0.0
   0
LINE
   8
LEVEL001
   6
DOT
  62
3
  10
 352.821
  20
 112.649
  30
0.0
  11
 352.821
  21
 120.249
  31
0.0
   0
LINE
   8
LEVEL001
   6
CONTINUOUS
  62
7
  10
 348.821
  20
 126.249
  30
0.0
  11
 348.821
  21
 133.849
  31
0.0
   0
LINE
   8
LEVEL001
   6
CONTINUOUS
  62
7
  10
 348.821
  20
 133.849
  30
0.0
  11
 348.129
  21
 134.249
  31
0.0
   0
LINE
   8
LEVEL001
   6
CONTINUOUS
  62
7
  10
 348.129
  20
 134.249
  30
0.0
  11
 336.514
  21
 134.249
  31
0.0
   0
LINE
   8
LEVEL001
   6
CONTINUOUS
  62
7
  10
 336.514
  20
 134.249
  30
0.0
  11
 335.821
  21
 133.849
  31
0.0
   0
LINE
   8
LEVEL001
   6
CONTINUOUS
  62
7
  10
 335.821
  20
 133.849
  30
0.0
  11
 335.821
  21
 126.249
  31
0.0
   0
ARC
   8
LEVEL087
   6
CONTINUOUS
  62
7
  10
 285.321
  20
 121.249
  30
0.0
  40
 2.00000
  50
 125.099
  51
 54.8992
   0
ARC
   8
LEVEL060
   6
DASHDOT
  62
1
  10
 286.996
  20
 227.498
  30
0.0
  40
 8.00000
  50
 146.694
  51
 300.427
   0
LINE
   8
LEVEL060
   6
DASHDOT
  62
1
  10
 310.193
  20
 231.845
  30
0.0
  11
 317.991
  21
 231.409
  31
0.0
   0
LINE
   8
LEVEL060
   6
DASHDOT
  62
1
  10
 310.193
  20
 231.845
  30
0.0
  11
 303.039
  21
 227.644
  31
0.0
   0
LINE
   8
LEVEL060
   6
DASHDOT
  62
1
  10
 317.991
  20
 231.409
  30
0.0
  11
 329.069
  21
 238.137
  31
0.0
   0
CIRCLE
   8
LEVEL060
   6
DASHDOT
  62
1
  10
 345.321
  20
 259.249
  30
0.0
  40
 5.00000
   0
LINE
   8
LEVEL003
   6
CONTINUOUS
  62
7
  10
 313.321
  20
 231.249
  30
0.0
  11
 319.321
  21
 231.249
  31
0.0
   0
LINE
   8
LEVEL001
   6
CONTINUOUS
  62
7
  10
 392.321
  20
 191.249
  30
0.0
  11
 396.321
  21
 191.249
  31
0.0
   0
LINE
   8
LEVEL001
   6
CONTINUOUS
  62
7
  10
 392.321
  20
 191.249
  30
0.0
  11
 391.321
  21
 190.249
  31
0.0
   0
LINE
   8
LEVEL001
   6
CONTINUOUS
  62
7
  10
 392.321
  20
 133.249
  30
0.0
  11
 391.321
  21
 134.249
  31
0.0
   0
LINE
   8
LEVEL001
   6
CONTINUOUS
  62
7
  10
 392.321
  20
 133.249
  30
0.0
  11
 519.321
  21
 133.249
  31
0.0
   0
LINE
   8
LEVEL001
   6
DOT
  62
3
  10
 298.821
  20
 183.580
  30
0.0
  11
 310.205
  21
 183.193
  31
0.0
   0
LINE
   8
LEVEL001
   6
DOT
  62
3
  10
 310.205
  20
 182.345
  30
0.0
  11
 299.705
  21
 182.696
  31
0.0
   0
LINE
   8
LEVEL001
   6
DOT
  62
3
  10
 299.705
  20
 182.696
  30
0.0
  11
 299.705
  21
 167.801
  31
0.0
   0
LINE
   8
LEVEL001
   6
DOT
  62
3
  10
 299.705
  20
 167.801
  30
0.0
  11
 310.205
  21
 168.153
  31
0.0
   0
LINE
   8
LEVEL001
   6
DOT
  62
3
  10
 298.821
  20
 166.918
  30
0.0
  11
 310.205
  21
 167.305
  31
0.0
   0
ARC
   8
LEVEL003
   6
CONTINUOUS
  62
7
  10
 358.321
  20
 154.249
  30
0.0
  40
 7.00000
  50
 270.000
  51
 90.0000
   0
LINE
   8
LEVEL003
   6
CONTINUOUS
  62
7
  10
 370.321
  20
 190.643
  30
0.0
  11
 370.321
  21
 129.249
  31
0.0
   0
LINE
   8
LEVEL001
   6
CONTINUOUS
  62
7
  10
 372.821
  20
 129.749
  30
0.0
  11
 372.821
  21
 197.435
  31
0.0
   0
LINE
   8
LEVEL001
   6
CONTINUOUS
  62
7
  10
 401.321
  20
 216.249
  30
0.0
  11
 401.321
  21
 136.176
  31
0.0
   0
LINE
   8
LEVEL003
   6
CONTINUOUS
  62
7
  10
 391.321
  20
 190.249
  30
0.0
  11
 391.321
  21
 134.249
  31
0.0
   0
LINE
   8
LEVEL003
   6
CONTINUOUS
  62
7
  10
 392.321
  20
 133.249
  30
0.0
  11
 392.321
  21
 191.249
  31
0.0
   0
LINE
   8
LEVEL001
   6
CONTINUOUS
  62
7
  10
 520.214
  20
 221.759
  30
0.0
  11
 520.821
  21
 221.249
  31
0.0
   0
LINE
   8
LEVEL001
   6
CONTINUOUS
  62
7
  10
 536.429
  20
 221.759
  30
0.0
  11
 535.821
  21
 221.249
  31
0.0
   0
ARC
   8
LEVEL001
   6
CONTINUOUS
  62
7
  10
 534.321
  20
 125.249
  30
0.0
  40
 2.00000
  50
 90.0000
  51
 180.000
   0
ARC
   8
LEVEL001
   6
CONTINUOUS
  62
7
  10
 529.321
  20
 127.249
  30
0.0
  40
 2.00000
  50
 90.0000
  51
 180.000
   0
LINE
   8
LEVEL001
   6
CONTINUOUS
  62
7
  10
 532.321
  20
 125.249
  30
0.0
  11
 532.321
  21
 120.249
  31
0.0
   0
ARC
   8
LEVEL001
   6
CONTINUOUS
  62
7
  10
 519.321
  20
 125.249
  30
0.0
  40
 8.00000
  50
0.0
  51
 90.0000
   0
LINE
   8
LEVEL001
   6
CONTINUOUS
  62
7
  10
 527.321
  20
 120.249
  30
0.0
  11
 527.321
  21
 125.249
  31
0.0
   0
ARC
   8
LEVEL001
   6
CONTINUOUS
  62
7
  10
 550.321
  20
 125.249
  30
0.0
  40
 2.00000
  50
0.0
  51
 90.0000
   0
ARC
   8
LEVEL001
   6
CONTINUOUS
  62
7
  10
 555.321
  20
 127.249
  30
0.0
  40
 2.00000
  50
0.0
  51
 90.0000
   0
LINE
   8
LEVEL001
   6
CONTINUOUS
  62
7
  10
 552.321
  20
 125.249
  30
0.0
  11
 552.321
  21
 120.249
  31
0.0
   0
LINE
   8
LEVEL001
   6
CONTINUOUS
  62
7
  10
 534.321
  20
 127.249
  30
0.0
  11
 550.321
  21
 127.249
  31
0.0
   0
LINE
   8
LEVEL001
   6
CONTINUOUS
  62
7
  10
 552.321
  20
 216.249
  30
0.0
  11
 552.321
  21
 145.311
  31
0.0
   0
LINE
   8
LEVEL003
   6
CONTINUOUS
  62
7
  10
 554.321
  20
 175.784
  30
0.0
  11
 554.321
  21
 148.025
  31
0.0
   0
LINE
   8
LEVEL003
   6
CONTINUOUS
  62
7
  10
 558.321
  20
 169.177
  30
0.0
  11
 568.250
  21
 169.177
  31
0.0
   0
ARC
   8
LEVEL003
   6
CONTINUOUS
  62
7
  10
 556.786
  20
 174.249
  30
0.0
  40
 12.5359
  50
 336.135
  51
0.0
   0
TEXT
   8
LEVEL003
  62
3
  10
 435.583
  20
 312.510
  30
0.0
  40
 12.0000
   1
オイルタンク
   7
STANDARD
   0
TEXT
   8
LEVEL003
  62
3
  10
 555.583
  20
 312.510
  30
0.0
  40
 12.0000
   1
検油棒
   7
STANDARD
   0
TEXT
   8
LEVEL003
  62
3
  10
 555.583
  20
 296.510
  30
0.0
  40
 12.0000
   1
給油口兼用
   7
STANDARD
   0
TEXT
   8
LEVEL003
  62
3
  10
 630.583
  20
 237.510
  30
0.0
  40
 12.0000
   1
フートペダル
   7
STANDARD
   0
LINE
   8
LEVEL003
   6
CONTINUOUS
  62
3
  10
 419.482
  20
 220.944
  30
0.0
  11
 434.262
  21
 312.446
  31
0.0
   0
LINE
   8
LEVEL003
   6
CONTINUOUS
  62
3
  10
 434.262
  20
 312.446
  30
0.0
  11
 507.330
  21
 312.446
  31
0.0
   0
LINE
   8
LEVEL003
   6
CONTINUOUS
  62
3
  10
 419.482
  20
 220.944
  30
0.0
  11
 422.484
  21
 229.576
  31
0.0
   0
LINE
   8
LEVEL003
   6
CONTINUOUS
  62
3
  10
 419.482
  20
 220.944
  30
0.0
  11
 419.350
  21
 230.082
  31
0.0
   0
LINE
   8
LEVEL003
   6
CONTINUOUS
  62
3
  10
 531.576
  20
 234.894
  30
0.0
  11
 552.002
  21
 310.453
  31
0.0
   0
LINE
   8
LEVEL003
   6
CONTINUOUS
  62
3
  10
 552.002
  20
 310.453
  30
0.0
  11
 616.767
  21
 310.453
  31
0.0
   0
LINE
   8
LEVEL003
   6
CONTINUOUS
  62
3
  10
 531.576
  20
 234.894
  30
0.0
  11
 535.456
  21
 243.168
  31
0.0
   0
LINE
   8
LEVEL003
   6
CONTINUOUS
  62
3
  10
 531.576
  20
 234.894
  30
0.0
  11
 532.392
  21
 243.996
  31
0.0
   0
LINE
   8
LEVEL003
   6
CONTINUOUS
  62
3
  10
 598.334
  20
 199.024
  30
0.0
  11
 628.890
  21
 235.558
  31
0.0
   0
LINE
   8
LEVEL003
   6
CONTINUOUS
  62
3
  10
 628.890
  20
 235.558
  30
0.0
  11
 704.384
  21
 235.558
  31
0.0
   0
LINE
   8
LEVEL003
   6
CONTINUOUS
  62
3
  10
 598.334
  20
 199.024
  30
0.0
  11
 605.325
  21
 204.909
  31
0.0
   0
LINE
   8
LEVEL003
   6
CONTINUOUS
  62
3
  10
 598.334
  20
 199.024
  30
0.0
  11
 602.890
  21
 206.945
  31
0.0
   0
CIRCLE
   8
LEVEL060
   6
DASHDOT
  62
1
  10
 345.321
  20
 259.249
  30
0.0
  40
 7.00000
   0
ARC
   8
LEVEL060
   6
DASHDOT
  62
1
  10
 345.321
  20
 259.249
  30
0.0
  40
 13.0000
  50
 357.361
  51
 113.499
   0
LINE
   8
LEVEL060
   6
DASHDOT
  62
1
  10
 365.460
  20
 273.810
  30
0.0
  11
 356.174
  21
 254.128
  31
0.0
   0
ARC
   8
LEVEL060
   6
DASHDOT
  62
1
  10
 356.714
  20
 278.707
  30
0.0
  40
 10.0000
  50
 330.759
  51
 0.907807
   0
ARC
   8
LEVEL060
   6
DASHDOT
  62
1
  10
 349.345
  20
 300.539
  30
0.0
  40
 5.00000
  50
 142.708
  51
 232.708
   0
ARC
   8
LEVEL060
   6
DASHDOT
  62
1
  10
 348.549
  20
 301.145
  30
0.0
  40
 5.00000
  50
 142.708
  51
 232.708
   0
ARC
   8
LEVEL060
   6
DASHDOT
  62
1
  10
 381.710
  20
 279.103
  30
0.0
  40
 15.0000
  50
 128.575
  51
 180.908
   0
ARC
   8
LEVEL060
   6
DASHDOT
  62
1
  10
 366.122
  20
 298.648
  30
0.0
  40
 10.0000
  50
 308.575
  51
 0.907807
   0
ARC
   8
LEVEL060
   6
DASHDOT
  62
1
  10
 391.119
  20
 299.044
  30
0.0
  40
 15.0000
  50
 128.575
  51
 180.908
   0
ARC
   8
LEVEL060
   6
DASHDOT
  62
1
  10
 400.430
  20
 316.356
  30
0.0
  40
 15.0000
  50
 123.935
  51
 174.876
   0
ARC
   8
LEVEL060
   6
DASHDOT
  62
1
  10
 375.530
  20
 318.589
  30
0.0
  40
 10.0000
  50
 308.575
  51
 354.876
   0
ARC
   8
LEVEL060
   6
DASHDOT
  62
1
  10
 386.474
  20
 337.098
  30
0.0
  40
 10.0000
  50
 303.935
  51
 341.832
   0
LINE
   8
LEVEL060
   6
DASHDOT
  62
1
  10
 361.685
  20
 326.645
  30
0.0
  11
 344.571
  21
 304.174
  31
0.0
   0
LINE
   8
LEVEL060
   6
DASHDOT
  62
1
  10
 362.450
  20
 326.000
  30
0.0
  11
 345.367
  21
 303.569
  31
0.0
   0
LINE
   8
LEVEL060
   6
DASHDOT
  62
1
  10
 366.824
  20
 280.943
  30
0.0
  11
 345.520
  21
 297.167
  31
0.0
   0
LINE
   8
LEVEL060
   6
DASHDOT
  62
1
  10
 354.797
  20
 332.455
  30
0.0
  11
 283.695
  21
 239.094
  31
0.0
   0
ARC
   8
LEVEL060
   6
DASHDOT
  62
1
  10
 488.853
  20
 410.220
  30
0.0
  40
 15.0000
  50
 52.1916
  51
 136.997
   0
ARC
   8
LEVEL060
   6
DASHDOT
  62
1
  10
 487.037
  20
 415.603
  30
0.0
  40
 40.0000
  50
 50.0722
  51
 136.997
   0
ARC
   8
LEVEL060
   6
DASHDOT
  62
1
  10
 487.037
  20
 415.603
  30
0.0
  40
 30.0000
  50
 50.0722
  51
 136.997
   0
ARC
   8
LEVEL060
   6
DASHDOT
  62
1
  10
 487.037
  20
 415.603
  30
0.0
  40
 31.0000
  50
 50.0722
  51
 136.997
   0
ARC
   8
LEVEL060
   6
DASHDOT
  62
1
  10
 677.599
  20
 424.533
  30
0.0
  40
 4.50000
  50
 277.733
  51
 84.1347
   0
ARC
   8
LEVEL060
   6
DASHDOT
  62
1
  10
 671.927
  20
 369.323
  30
0.0
  40
 51.0000
  50
 82.9492
  51
 121.997
   0
ARC
   8
LEVEL060
   6
DASHDOT
  62
1
  10
 671.927
  20
 369.323
  30
0.0
  40
 50.0000
  50
 85.1712
  51
 121.997
   0
ARC
   8
LEVEL060
   6
DASHDOT
  62
1
  10
 680.972
  20
 356.705
  30
0.0
  40
 60.0000
  50
 111.086
  51
 136.997
   0
ARC
   8
LEVEL060
   6
DASHDOT
  62
1
  10
 588.690
  20
 389.712
  30
0.0
  40
 30.0000
  50
 232.192
  51
 316.997
   0
ARC
   8
LEVEL060
   6
DASHDOT
  62
1
  10
 585.266
  20
 389.463
  30
0.0
  40
 3.00000
  50
 230.072
  51
 301.997
   0
ARC
   8
LEVEL060
   6
DASHDOT
  62
1
  10
 585.266
  20
 389.463
  30
0.0
  40
 12.0000
  50
 230.072
  51
 301.997
   0
ARC
   8
LEVEL060
   6
DASHDOT
  62
1
  10
 585.266
  20
 389.463
  30
0.0
  40
 13.0000
  50
 230.072
  51
 301.997
   0
ARC
   8
LEVEL060
   6
DASHDOT
  62
1
  10
 671.927
  20
 369.323
  30
0.0
  40
 58.5000
  50
 117.099
  51
 121.018
   0
ARC
   8
LEVEL060
   6
DASHDOT
  62
1
  10
 671.927
  20
 369.323
  30
0.0
  40
 60.0000
  50
 112.201
  51
 116.144
   0
ARC
   8
LEVEL060
   6
DASHDOT
  62
1
  10
 671.927
  20
 369.323
  30
0.0
  40
 58.5000
  50
 107.304
  51
 111.222
   0
ARC
   8
LEVEL060
   6
DASHDOT
  62
1
  10
 671.927
  20
 369.323
  30
0.0
  40
 58.5000
  50
 97.5077
  51
 101.426
   0
ARC
   8
LEVEL060
   6
DASHDOT
  62
1
  10
 671.927
  20
 369.323
  30
0.0
  40
 60.0000
  50
 102.406
  51
 106.349
   0
ARC
   8
LEVEL060
   6
DASHDOT
  62
1
  10
 671.927
  20
 369.323
  30
0.0
  40
 60.0000
  50
 84.1347
  51
 96.5528
   0
ARC
   8
LEVEL060
   6
DASHDOT
  62
1
  10
 419.332
  20
 384.060
  30
0.0
  40
 2.00000
  50
 46.9972
  51
 136.997
   0
ARC
   8
LEVEL060
   6
DASHDOT
  62
1
  10
 430.579
  20
 396.120
  30
0.0
  40
 2.00000
  50
 136.997
  51
 226.997
   0
ARC
   8
LEVEL060
   6
DASHDOT
  62
1
  10
 400.797
  20
 352.455
  30
0.0
  40
 10.0000
  50
 292.163
  51
 316.997
   0
ARC
   8
LEVEL060
   6
DASHDOT
  62
1
  10
 410.228
  20
 329.303
  30
0.0
  40
 15.0000
  50
 112.163
  51
 161.832
   0
CIRCLE
   8
LEVEL060
   6
DASHDOT
  62
1
  10
 556.644
  20
 387.607
  30
0.0
  40
 3.00000
   0
CIRCLE
   8
LEVEL060
   6
DASHDOT
  62
1
  10
 556.644
  20
 387.607
  30
0.0
  40
 5.00000
   0
LINE
   8
LEVEL060
   6
DASHDOT
  62
1
  10
 551.529
  20
 382.122
  30
0.0
  11
 561.759
  21
 393.091
  31
0.0
   0
LINE
   8
LEVEL060
   6
DASHDOT
  62
1
  10
 551.159
  20
 392.722
  30
0.0
  11
 562.129
  21
 382.491
  31
0.0
   0
LINE
   8
LEVEL060
   6
DASHDOT
  62
1
  10
 659.386
  20
 412.687
  30
0.0
  11
 679.218
  21
 420.334
  31
0.0
   0
LINE
   8
LEVEL060
   6
DASHDOT
  62
1
  10
 637.093
  20
 397.627
  30
0.0
  11
 610.630
  21
 369.251
  31
0.0
   0
LINE
   8
LEVEL060
   6
DASHDOT
  62
1
  10
 583.341
  20
 387.163
  30
0.0
  11
 512.710
  21
 446.278
  31
0.0
   0
LINE
   8
LEVEL060
   6
DASHDOT
  62
1
  10
 506.291
  20
 438.609
  30
0.0
  11
 576.922
  21
 379.494
  31
0.0
   0
LINE
   8
LEVEL060
   6
DASHDOT
  62
1
  10
 506.933
  20
 439.376
  30
0.0
  11
 577.564
  21
 380.261
  31
0.0
   0
LINE
   8
LEVEL060
   6
DASHDOT
  62
1
  10
 644.904
  20
 412.575
  30
0.0
  11
 591.625
  21
 379.286
  31
0.0
   0
LINE
   8
LEVEL060
   6
DASHDOT
  62
1
  10
 592.155
  20
 378.438
  30
0.0
  11
 645.433
  21
 411.727
  31
0.0
   0
LINE
   8
LEVEL060
   6
DASHDOT
  62
1
  10
 614.692
  20
 404.311
  30
0.0
  11
 616.335
  21
 403.569
  31
0.0
   0
LINE
   8
LEVEL060
   6
DASHDOT
  62
1
  10
 616.335
  20
 403.569
  30
0.0
  11
 619.728
  21
 405.689
  31
0.0
   0
LINE
   8
LEVEL060
   6
DASHDOT
  62
1
  10
 619.728
  20
 405.689
  30
0.0
  11
 619.781
  21
 407.491
  31
0.0
   0
LINE
   8
LEVEL060
   6
DASHDOT
  62
1
  10
 619.781
  20
 407.491
  30
0.0
  11
 623.173
  21
 409.610
  31
0.0
   0
LINE
   8
LEVEL060
   6
DASHDOT
  62
1
  10
 623.173
  20
 409.610
  30
0.0
  11
 624.816
  21
 408.868
  31
0.0
   0
LINE
   8
LEVEL060
   6
DASHDOT
  62
1
  10
 624.816
  20
 408.868
  30
0.0
  11
 628.208
  21
 410.987
  31
0.0
   0
LINE
   8
LEVEL060
   6
DASHDOT
  62
1
  10
 628.208
  20
 410.987
  30
0.0
  11
 628.262
  21
 412.789
  31
0.0
   0
LINE
   8
LEVEL060
   6
DASHDOT
  62
1
  10
 628.262
  20
 412.789
  30
0.0
  11
 631.654
  21
 414.909
  31
0.0
   0
LINE
   8
LEVEL060
   6
DASHDOT
  62
1
  10
 631.654
  20
 414.909
  30
0.0
  11
 633.297
  21
 414.167
  31
0.0
   0
LINE
   8
LEVEL060
   6
DASHDOT
  62
1
  10
 633.297
  20
 414.167
  30
0.0
  11
 636.689
  21
 416.286
  31
0.0
   0
LINE
   8
LEVEL060
   6
DASHDOT
  62
1
  10
 636.689
  20
 416.286
  30
0.0
  11
 636.742
  21
 418.088
  31
0.0
   0
LINE
   8
LEVEL060
   6
DASHDOT
  62
1
  10
 636.742
  20
 418.088
  30
0.0
  11
 640.135
  21
 420.208
  31
0.0
   0
LINE
   8
LEVEL060
   6
DASHDOT
  62
1
  10
 640.135
  20
 420.208
  30
0.0
  11
 641.782
  21
 419.458
  31
0.0
   0
LINE
   8
LEVEL060
   6
DASHDOT
  62
1
  10
 586.856
  20
 386.919
  30
0.0
  11
 614.692
  21
 404.311
  31
0.0
   0
LINE
   8
LEVEL060
   6
DASHDOT
  62
1
  10
 645.279
  20
 421.401
  30
0.0
  11
 645.489
  21
 423.184
  31
0.0
   0
LINE
   8
LEVEL060
   6
DASHDOT
  62
1
  10
 649.255
  20
 424.875
  30
0.0
  11
 650.751
  21
 423.856
  31
0.0
   0
LINE
   8
LEVEL060
   6
DASHDOT
  62
1
  10
 654.527
  20
 425.176
  30
0.0
  11
 655.038
  21
 426.897
  31
0.0
   0
LINE
   8
LEVEL060
   6
DASHDOT
  62
1
  10
 659.037
  20
 427.922
  30
0.0
  11
 660.338
  21
 426.664
  31
0.0
   0
LINE
   8
LEVEL060
   6
DASHDOT
  62
1
  10
 664.284
  20
 427.322
  30
0.0
  11
 665.080
  21
 428.931
  31
0.0
   0
LINE
   8
LEVEL060
   6
DASHDOT
  62
1
  10
 420.696
  20
 385.523
  30
0.0
  11
 433.860
  21
 373.246
  31
0.0
   0
LINE
   8
LEVEL060
   6
DASHDOT
  62
1
  10
 429.215
  20
 394.657
  30
0.0
  11
 442.379
  21
 382.380
  31
0.0
   0
LINE
   8
LEVEL060
   6
DASHDOT
  62
1
  10
 477.883
  20
 420.450
  30
0.0
  11
 408.110
  21
 345.635
  31
0.0
   0
LINE
   8
LEVEL060
   6
DASHDOT
  62
1
  10
 457.784
  20
 442.885
  30
0.0
  11
 354.797
  21
 332.455
  31
0.0
   0
LINE
   8
LEVEL060
   6
DASHDOT
  62
1
  10
 464.366
  20
 436.746
  30
0.0
  11
 361.685
  21
 326.645
  31
0.0
   0
LINE
   8
LEVEL060
   6
DASHDOT
  62
1
  10
 465.097
  20
 436.064
  30
0.0
  11
 362.450
  21
 326.000
  31
0.0
   0
LINE
   8
LEVEL060
   6
DASHDOT
  62
1
  10
 498.048
  20
 422.071
  30
0.0
  11
 570.300
  21
 366.010
  31
0.0
   0
LINE
   8
LEVEL003
   6
CONTINUOUS
  62
3
  10
 559.321
  20
 282.249
  30
0.0
  11
 741.583
  21
 282.249
  31
0.0
   0
LINE
   8
LEVEL003
   6
CONTINUOUS
  62
3
  10
 703.321
  20
 103.249
  30
0.0
  11
 741.583
  21
 103.249
  31
0.0
   0
LINE
   8
LEVEL003
   6
CONTINUOUS
  62
3
  10
 735.583
  20
 282.249
  30
0.0
  11
 735.583
  21
 103.249
  31
0.0
   0
LINE
   8
LEVEL003
   6
CONTINUOUS
  62
3
  10
 735.583
  20
 282.249
  30
0.0
  11
 733.996
  21
 273.249
  31
0.0
   0
LINE
   8
LEVEL003
   6
CONTINUOUS
  62
3
  10
 735.583
  20
 282.249
  30
0.0
  11
 737.170
  21
 273.249
  31
0.0
   0
LINE
   8
LEVEL003
   6
CONTINUOUS
  62
3
  10
 735.583
  20
 103.249
  30
0.0
  11
 737.170
  21
 112.249
  31
0.0
   0
LINE
   8
LEVEL003
   6
CONTINUOUS
  62
3
  10
 735.583
  20
 103.249
  30
0.0
  11
 733.996
  21
 112.249
  31
0.0
   0
TEXT
   8
LEVEL003
  62
3
  10
 733.183
  20
 177.749
  30
0.0
  40
 12.0000
   1
約180
  50
 90.0000
   7
STANDARD
  72
1
  11
 733.183
  21
 192.749
  31
0.0
   0
LINE
   8
LEVEL003
   6
CONTINUOUS
  62
3
  10
 681.059
  20
 429.009
  30
0.0
  11
 771.583
  21
 429.009
  31
0.0
   0
LINE
   8
LEVEL003
   6
CONTINUOUS
  62
3
  10
 703.321
  20
 103.249
  30
0.0
  11
 771.583
  21
 103.249
  31
0.0
   0
LINE
   8
LEVEL003
   6
CONTINUOUS
  62
3
  10
 765.583
  20
 429.009
  30
0.0
  11
 765.583
  21
 103.249
  31
0.0
   0
LINE
   8
LEVEL003
   6
CONTINUOUS
  62
3
  10
 765.583
  20
 429.009
  30
0.0
  11
 763.996
  21
 420.009
  31
0.0
   0
LINE
   8
LEVEL003
   6
CONTINUOUS
  62
3
  10
 765.583
  20
 429.009
  30
0.0
  11
 767.170
  21
 420.009
  31
0.0
   0
LINE
   8
LEVEL003
   6
CONTINUOUS
  62
3
  10
 765.583
  20
 103.249
  30
0.0
  11
 767.170
  21
 112.249
  31
0.0
   0
LINE
   8
LEVEL003
   6
CONTINUOUS
  62
3
  10
 765.583
  20
 103.249
  30
0.0
  11
 763.996
  21
 112.249
  31
0.0
   0
TEXT
   8
LEVEL003
  62
3
  10
 763.183
  20
 251.129
  30
0.0
  40
 12.0000
   1
約330
  50
 90.0000
   7
STANDARD
  72
1
  11
 763.183
  21
 266.129
  31
0.0
   0
LINE
   8
LEVEL003
   6
CONTINUOUS
  62
3
  10
 703.321
  20
 103.249
  30
0.0
  11
 801.583
  21
 103.249
  31
0.0
   0
LINE
   8
LEVEL003
   6
CONTINUOUS
  62
3
  10
 491.853
  20
 455.562
  30
0.0
  11
 801.583
  21
 455.562
  31
0.0
   0
LINE
   8
LEVEL003
   6
CONTINUOUS
  62
3
  10
 795.583
  20
 103.249
  30
0.0
  11
 795.583
  21
 455.562
  31
0.0
   0
LINE
   8
LEVEL003
   6
CONTINUOUS
  62
3
  10
 795.583
  20
 103.249
  30
0.0
  11
 797.170
  21
 112.249
  31
0.0
   0
LINE
   8
LEVEL003
   6
CONTINUOUS
  62
3
  10
 795.583
  20
 103.249
  30
0.0
  11
 793.996
  21
 112.249
  31
0.0
   0
LINE
   8
LEVEL003
   6
CONTINUOUS
  62
3
  10
 795.583
  20
 455.562
  30
0.0
  11
 793.996
  21
 446.562
  31
0.0
   0
LINE
   8
LEVEL003
   6
CONTINUOUS
  62
3
  10
 795.583
  20
 455.562
  30
0.0
  11
 797.170
  21
 446.562
  31
0.0
   0
TEXT
   8
LEVEL003
  62
3
  10
 793.183
  20
 264.405
  30
0.0
  40
 12.0000
   1
約360
  50
 90.0000
   7
STANDARD
  72
1
  11
 793.183
  21
 279.405
  31
0.0
   0
ARC
   8
LEVEL060
   6
CONTINUOUS
  62
7
  10
 648.577
  20
 75.4700
  30
0.0
  40
 60.0000
  50
 44.1317
  51
 49.5556
   0
ARC
   8
LEVEL060
   6
CONTINUOUS
  62
7
  10
 648.577
  20
 75.4700
  30
0.0
  40
 51.0000
  50
 55.0036
  51
 75.0000
   0
ARC
   8
LEVEL060
   6
CONTINUOUS
  62
7
  10
 648.577
  20
 75.4700
  30
0.0
  40
 50.0000
  50
 56.6755
  51
 75.0000
   0
ARC
   8
LEVEL060
   6
CONTINUOUS
  62
7
  10
 645.518
  20
 60.2488
  30
0.0
  40
 60.0000
  50
 71.7434
  51
 90.0000
   0
ARC
   8
LEVEL060
   6
DOT
  62
3
  10
 692.821
  20
 108.977
  30
0.0
  40
 4.50000
  50
 230.736
  51
 37.1375
   0
LINE
   8
LEVEL060
   6
DOT
  62
3
  10
 671.737
  20
 114.217
  30
0.0
  11
 690.855
  21
 104.929
  31
0.0
   0
ARC
   8
LEVEL060
   6
DOT
  62
3
  10
 645.518
  20
 60.2488
  30
0.0
  40
 60.0000
  50
 64.0890
  51
 71.8046
   0
ARC
   8
LEVEL060
   6
DOT
  62
3
  10
 648.577
  20
 75.4700
  30
0.0
  40
 50.0000
  50
 38.1741
  51
 56.6755
   0
ARC
   8
LEVEL060
   6
DOT
  62
3
  10
 648.577
  20
 75.4700
  30
0.0
  40
 51.0000
  50
 35.9520
  51
 55.0036
   0
ARC
   8
LEVEL060
   6
DOT
  62
3
  10
 648.577
  20
 75.4700
  30
0.0
  40
 60.0000
  50
 37.1375
  51
 44.1317
   0
LINE
   8
LEVEL003
   6
CONTINUOUS
  62
3
  10
 263.321
  20
 100.249
  30
0.0
  11
 263.321
  21
 69.0000
  31
0.0
   0
LINE
   8
LEVEL003
   6
CONTINUOUS
  62
3
  10
 700.321
  20
 100.249
  30
0.0
  11
 700.321
  21
 69.0000
  31
0.0
   0
LINE
   8
LEVEL003
   6
CONTINUOUS
  62
3
  10
 263.321
  20
 75.0000
  30
0.0
  11
 700.321
  21
 75.0000
  31
0.0
   0
LINE
   8
LEVEL003
   6
CONTINUOUS
  62
3
  10
 263.321
  20
 75.0000
  30
0.0
  11
 272.321
  21
 73.4131
  31
0.0
   0
LINE
   8
LEVEL003
   6
CONTINUOUS
  62
3
  10
 263.321
  20
 75.0000
  30
0.0
  11
 272.321
  21
 76.5869
  31
0.0
   0
LINE
   8
LEVEL003
   6
CONTINUOUS
  62
3
  10
 700.321
  20
 75.0000
  30
0.0
  11
 691.321
  21
 76.5869
  31
0.0
   0
LINE
   8
LEVEL003
   6
CONTINUOUS
  62
3
  10
 700.321
  20
 75.0000
  30
0.0
  11
 691.321
  21
 73.4131
  31
0.0
   0
TEXT
   8
LEVEL003
  62
3
  10
 466.821
  20
 77.4000
  30
0.0
  40
 12.0000
   1
約440
   7
STANDARD
  72
1
  11
 481.821
  21
 77.4000
  31
0.0
   0
LINE
   8
LEVEL003
   6
CONTINUOUS
  62
7
  10
 535.821
  20
 133.849
  30
0.0
  11
 548.821
  21
 133.849
  31
0.0
   0
LINE
   8
LEVEL003
   6
CONTINUOUS
  62
7
  10
 548.821
  20
 127.249
  30
0.0
  11
 548.821
  21
 133.849
  31
0.0
   0
LINE
   8
LEVEL003
   6
CONTINUOUS
  62
7
  10
 548.821
  20
 133.849
  30
0.0
  11
 548.129
  21
 134.249
  31
0.0
   0
LINE
   8
LEVEL003
   6
CONTINUOUS
  62
7
  10
 548.129
  20
 134.249
  30
0.0
  11
 536.514
  21
 134.249
  31
0.0
   0
LINE
   8
LEVEL003
   6
CONTINUOUS
  62
7
  10
 536.514
  20
 134.249
  30
0.0
  11
 535.821
  21
 133.849
  31
0.0
   0
LINE
   8
LEVEL003
   6
CONTINUOUS
  62
7
  10
 535.821
  20
 133.849
  30
0.0
  11
 535.821
  21
 127.249
  31
0.0
   0
LINE
   8
LEVEL001
   6
CONTINUOUS
  62
7
  10
 529.321
  20
 129.249
  30
0.0
  11
 535.821
  21
 129.249
  31
0.0
   0
LINE
   8
LEVEL001
   6
CONTINUOUS
  62
7
  10
 548.821
  20
 129.249
  30
0.0
  11
 555.321
  21
 129.249
  31
0.0
   0
LINE
   8
LEVEL001
   6
CONTINUOUS
  62
7
  10
 547.321
  20
 221.249
  30
0.0
  11
 406.321
  21
 221.249
  31
0.0
   0
LINE
   8
LEVEL001
   6
CONTINUOUS
  62
7
  10
 485.321
  20
 236.249
  30
0.0
  11
 495.321
  21
 236.249
  31
0.0
   0
LINE
   8
LEVEL001
   6
CONTINUOUS
  62
7
  10
 495.321
  20
 236.249
  30
0.0
  11
 505.321
  21
 236.249
  31
0.0
   0
LINE
   8
LEVEL003
   6
CONTINUOUS
  62
3
  10
 170.093
  20
 175.249
  30
0.0
  11
 241.730
  21
 175.249
  31
0.0
   0
LINE
   8
LEVEL003
   6
CONTINUOUS
  62
3
  10
 208.675
  20
 103.249
  30
0.0
  11
 241.730
  21
 103.249
  31
0.0
   0
LINE
   8
LEVEL003
   6
CONTINUOUS
  62
3
  10
 235.730
  20
 175.249
  30
0.0
  11
 235.730
  21
 103.249
  31
0.0
   0
LINE
   8
LEVEL003
   6
CONTINUOUS
  62
3
  10
 235.730
  20
 175.249
  30
0.0
  11
 234.143
  21
 166.249
  31
0.0
   0
LINE
   8
LEVEL003
   6
CONTINUOUS
  62
3
  10
 235.730
  20
 175.249
  30
0.0
  11
 237.317
  21
 166.249
  31
0.0
   0
LINE
   8
LEVEL003
   6
CONTINUOUS
  62
3
  10
 235.730
  20
 103.249
  30
0.0
  11
 237.317
  21
 112.249
  31
0.0
   0
LINE
   8
LEVEL003
   6
CONTINUOUS
  62
3
  10
 235.730
  20
 103.249
  30
0.0
  11
 234.143
  21
 112.249
  31
0.0
   0
TEXT
   8
LEVEL003
  62
3
  10
 233.330
  20
 127.249
  30
0.0
  40
 12.0000
   1
約72
  50
 90.0000
   7
STANDARD
  72
1
  11
 233.330
  21
 139.249
  31
0.0
   0
TEXT
   8
LEVEL003
  62
3
  10
 184.664
  20
 226.844
  30
0.0
  40
 12.0000
   1
　吐出口
   7
STANDARD
   0
TEXT
   8
LEVEL003
  62
3
  10
 184.664
  20
 210.844
  30
0.0
  40
 12.0000
   1
Ｒｃ３／８
   7
STANDARD
   0
LINE
   8
LEVEL003
   6
CONTINUOUS
  62
3
  10
 136.749
  20
 180.950
  30
0.0
  11
 183.675
  21
 225.000
  31
0.0
   0
LINE
   8
LEVEL003
   6
CONTINUOUS
  62
3
  10
 183.675
  20
 225.000
  30
0.0
  11
 243.675
  21
 225.000
  31
0.0
   0
LINE
   8
LEVEL003
   6
CONTINUOUS
  62
3
  10
 136.749
  20
 180.950
  30
0.0
  11
 144.397
  21
 185.953
  31
0.0
   0
LINE
   8
LEVEL003
   6
CONTINUOUS
  62
3
  10
 136.749
  20
 180.950
  30
0.0
  11
 142.225
  21
 188.267
  31
0.0
   0
LINE
   8
LEVEL001
   6
DASHDOT
  62
1
  10
 574.433
  20
 131.249
  30
0.0
  11
 541.727
  21
 131.249
  31
0.0
   0
LINE
   8
LEVEL001
   6
DASHDOT
  62
1
  10
 576.123
  20
 131.249
  30
0.0
  11
 550.876
  21
 131.249
  31
0.0
   0
LINE
   8
LEVEL001
   6
DASHDOT
  62
1
  10
 559.928
  20
 135.499
  30
0.0
  11
 567.387
  21
 135.499
  31
0.0
   0
LINE
   8
LEVEL001
   6
DASHDOT
  62
1
  10
 559.928
  20
 126.999
  30
0.0
  11
 567.387
  21
 126.999
  31
0.0
   0
LINE
   8
LEVEL001
   6
DASHDOT
  62
1
  10
 560.363
  20
 142.924
  30
0.0
  11
 558.648
  21
 125.010
  31
0.0
   0
ARC
   8
LEVEL001
   6
CONTINUOUS
  62
7
  10
 558.771
  20
 126.299
  30
0.0
  40
 1.45000
  50
 174.769
  51
 354.294
   0
LINE
   8
LEVEL001
   6
CONTINUOUS
  62
7
  10
 561.807
  20
 142.786
  30
0.0
  11
 560.214
  21
 126.154
  31
0.0
   0
LINE
   8
LEVEL001
   6
CONTINUOUS
  62
7
  10
 558.920
  20
 143.062
  30
0.0
  11
 557.327
  21
 126.431
  31
0.0
   0
ARC
   8
LEVEL001
   6
DASHDOT
  62
1
  10
 571.761
  20
 141.833
  30
0.0
  40
 11.4500
  50
 129.531
  51
 174.531
   0
LINE
   8
LEVEL001
   6
DASHDOT
  62
1
  10
 561.848
  20
 137.043
  30
0.0
  11
 560.811
  21
 125.540
  31
0.0
   0
LINE
   8
LEVEL001
   6
CONTINUOUS
  62
7
  10
 558.076
  20
 134.249
  30
0.0
  11
 557.321
  21
 134.249
  31
0.0
   0
LINE
   8
LEVEL001
   6
CONTINUOUS
  62
3
  10
 557.321
  20
 133.749
  30
0.0
  11
 558.028
  21
 133.749
  31
0.0
   0
LINE
   8
LEVEL001
   6
DASHDOT
  62
1
  10
 564.473
  20
 150.664
  30
0.0
  11
 578.972
  21
 162.629
  31
0.0
   0
ARC
   8
LEVEL001
   6
DASHDOT
  62
1
  10
 571.684
  20
 171.460
  30
0.0
  40
 11.4500
  50
 309.531
  51
 354.531
   0
ARC
   8
LEVEL001
   6
CONTINUOUS
  62
7
  10
 571.684
  20
 171.460
  30
0.0
  40
 10.0000
  50
 309.532
  51
 354.531
   0
ARC
   8
LEVEL001
   6
CONTINUOUS
  62
7
  10
 571.684
  20
 171.460
  30
0.0
  40
 12.9000
  50
 309.531
  51
 354.531
   0
LINE
   8
LEVEL001
   6
CONTINUOUS
  62
7
  10
 582.066
  20
 174.974
  30
0.0
  11
 581.639
  21
 170.507
  31
0.0
   0
LINE
   8
LEVEL001
   6
CONTINUOUS
  62
7
  10
 584.959
  20
 174.762
  30
0.0
  11
 584.525
  21
 170.231
  31
0.0
   0
LINE
   8
LEVEL001
   6
DASHDOT
  62
1
  10
 583.548
  20
 175.240
  30
0.0
  11
 583.082
  21
 170.369
  31
0.0
   0
ARC
   8
LEVEL001
   6
CONTINUOUS
  62
7
  10
 571.761
  20
 141.833
  30
0.0
  40
 12.9000
  50
 129.531
  51
 174.531
   0
LINE
   8
LEVEL001
   6
CONTINUOUS
  62
7
  10
 563.550
  20
 151.782
  30
0.0
  11
 578.049
  21
 163.747
  31
0.0
   0
LINE
   8
LEVEL001
   6
CONTINUOUS
  62
7
  10
 565.396
  20
 149.545
  30
0.0
  11
 579.895
  21
 161.511
  31
0.0
   0
ARC
   8
LEVEL001
   6
CONTINUOUS
  62
7
  10
 571.761
  20
 141.833
  30
0.0
  40
 10.0000
  50
 129.531
  51
 174.532
   0
LINE
   8
LEVEL003
   6
CONTINUOUS
  62
7
  10
 564.213
  20
 148.392
  30
0.0
  11
 568.250
  21
 148.392
  31
0.0
   0
LINE
   8
LEVEL003
   6
CONTINUOUS
  62
7
  10
 568.250
  20
 148.392
  30
0.0
  11
 569.321
  21
 150.249
  31
0.0
   0
LINE
   8
LEVEL003
   6
CONTINUOUS
  62
7
  10
 569.321
  20
 150.249
  30
0.0
  11
 569.321
  21
 152.785
  31
0.0
   0
ARC
   8
LEVEL003
   6
CONTINUOUS
  62
7
  10
 556.786
  20
 150.249
  30
0.0
  40
 12.5359
  50
 0.208774E-4
  51
 10.8163
   0
ARC
   8
LEVEL003
   6
CONTINUOUS
  62
7
  10
 546.393
  20
 162.249
  30
0.0
  40
 22.9282
  50
 343.600
  51
 17.5880
   0
LINE
   8
LEVEL003
   6
CONTINUOUS
  62
7
  10
 558.321
  20
 155.320
  30
0.0
  11
 567.838
  21
 155.320
  31
0.0
   0
LINE
   8
LEVEL003
   6
CONTINUOUS
  62
7
  10
 560.653
  20
 148.392
  30
0.0
  11
 558.321
  21
 148.392
  31
0.0
   0
LINE
   8
LEVEL003
   6
CONTINUOUS
  62
7
  10
 558.321
  20
 148.392
  30
0.0
  11
 558.321
  21
 176.105
  31
0.0
   0
LINE
   8
LEVEL003
   6
CONTINUOUS
  62
7
  10
 558.321
  20
 176.105
  30
0.0
  11
 568.250
  21
 176.105
  31
0.0
   0
LINE
   8
LEVEL003
   6
CONTINUOUS
  62
7
  10
 568.250
  20
 176.105
  30
0.0
  11
 569.321
  21
 174.249
  31
0.0
   0
LINE
   8
LEVEL003
   6
CONTINUOUS
  62
7
  10
 569.321
  20
 174.249
  30
0.0
  11
 569.321
  21
 156.545
  31
0.0
   0
LINE
   8
LEVEL060
   6
CONTINUOUS
  62
7
  10
 568.562
  20
 238.607
  30
0.0
  11
 575.554
  21
 161.688
  31
0.0
   0
LINE
   8
LEVEL060
   6
CONTINUOUS
  62
7
  10
 575.872
  20
 158.191
  30
0.0
  11
 576.841
  21
 147.533
  31
0.0
   0
ARC
   8
LEVEL060
   6
CONTINUOUS
  62
7
  10
 583.321
  20
 172.249
  30
0.0
  40
 3.00000
  50
 291.650
  51
 233.809
   0
ARC
   8
LEVEL060
   6
CONTINUOUS
  62
7
  10
 583.321
  20
 172.249
  30
0.0
  40
 5.00000
  50
 276.511
  51
 242.316
   0
LINE
   8
LEVEL001
   6
CONTINUOUS
  62
7
  10
 130.225
  20
 159.410
  30
0.0
  11
 109.643
  21
 166.775
  31
0.0
   0
ARC
   8
LEVEL001
   6
CONTINUOUS
  62
7
  10
 130.899
  20
 161.293
  30
0.0
  40
 2.00000
  50
 250.311
  51
 277.178
   0
LINE
   8
LEVEL001
   6
CONTINUOUS
  62
7
  10
 131.149
  20
 159.308
  30
0.0
  11
 139.549
  21
 160.366
  31
0.0
   0
LINE
   8
LEVEL001
   6
CONTINUOUS
  62
7
  10
 103.675
  20
 175.249
  30
0.0
  11
 103.675
  21
 183.639
  31
0.0
   0
ARC
   8
LEVEL001
   6
CONTINUOUS
  62
7
  10
 112.675
  20
 183.639
  30
0.0
  40
 9.00000
  50
 95.0000
  51
 180.000
   0
ARC
   8
LEVEL001
   6
CONTINUOUS
  62
7
  10
 130.372
  20
 192.214
  30
0.0
  40
 2.00000
  50
 68.0242
  51
 95.0000
   0
ARC
   8
LEVEL001
   6
CONTINUOUS
  62
7
  10
 112.675
  20
 175.249
  30
0.0
  40
 9.00003
  50
 180.000
  51
 250.311
   0
LINE
   8
LEVEL001
   6
CONTINUOUS
  62
7
  10
 130.197
  20
 194.207
  30
0.0
  11
 111.891
  21
 192.605
  31
0.0
   0
ARC
   8
LEVEL001
   6
CONTINUOUS
  62
7
  10
 89.6752
  20
 130.416
  30
0.0
  40
 2.00000
  50
 95.0000
  51
 180.000
   0
LINE
   8
LEVEL001
   6
CONTINUOUS
  62
7
  10
 87.6752
  20
 126.249
  30
0.0
  11
 87.6752
  21
 130.416
  31
0.0
   0
ARC
   8
LEVEL001
   6
CONTINUOUS
  62
7
  10
 180.675
  20
 130.416
  30
0.0
  40
 2.00000
  50
0.0
  51
 85.0000
   0
LINE
   8
LEVEL001
   6
CONTINUOUS
  62
7
  10
 182.675
  20
 126.249
  30
0.0
  11
 182.675
  21
 130.416
  31
0.0
   0
LINE
   8
LEVEL001
   6
DASHDOT
  62
1
  10
 46.8267
  20
 175.249
  30
0.0
  11
 167.093
  21
 175.249
  31
0.0
   0
ARC
   8
LEVEL001
   6
CONTINUOUS
  62
7
  10
 113.612
  20
 205.829
  30
0.0
  40
 2.00000
  50
 95.0000
  51
 110.000
   0
ARC
   8
LEVEL001
   6
CONTINUOUS
  62
7
  10
 110.175
  20
 209.899
  30
0.0
  40
 3.00000
  50
 290.000
  51
0.0
   0
LINE
   8
LEVEL001
   6
CONTINUOUS
  62
7
  10
 92.6878
  20
 200.341
  30
0.0
  11
 113.414
  21
 207.885
  31
0.0
   0
LINE
   8
LEVEL001
   6
CONTINUOUS
  62
7
  10
 113.437
  20
 207.821
  30
0.0
  11
 123.937
  21
 208.740
  31
0.0
   0
ARC
   8
LEVEL001
   6
CONTINUOUS
  62
7
  10
 123.675
  20
 211.728
  30
0.0
  40
 3.00000
  50
 275.000
  51
0.0
   0
LINE
   8
LEVEL001
   6
CONTINUOUS
  62
7
  10
 110.675
  20
 224.249
  30
0.0
  11
 111.675
  21
 225.249
  31
0.0
   0
LINE
   8
LEVEL001
   6
CONTINUOUS
  62
7
  10
 111.675
  20
 225.249
  30
0.0
  11
 115.675
  21
 225.249
  31
0.0
   0
LINE
   8
LEVEL001
   6
CONTINUOUS
  62
7
  10
 145.675
  20
 225.249
  30
0.0
  11
 149.675
  21
 225.249
  31
0.0
   0
LINE
   8
LEVEL001
   6
CONTINUOUS
  62
7
  10
 149.675
  20
 225.249
  30
0.0
  11
 150.675
  21
 224.249
  31
0.0
   0
LINE
   8
LEVEL001
   6
CONTINUOUS
  62
7
  10
 110.675
  20
 224.249
  30
0.0
  11
 115.703
  21
 224.249
  31
0.0
   0
LINE
   8
LEVEL001
   6
CONTINUOUS
  62
7
  10
 150.675
  20
 224.249
  30
0.0
  11
 145.675
  21
 224.249
  31
0.0
   0
ARC
   8
LEVEL001
   6
CONTINUOUS
  62
7
  10
 137.675
  20
 246.249
  30
0.0
  40
 3.00000
  50
 90.0000
  51
 180.000
   0
ARC
   8
LEVEL001
   6
CONTINUOUS
  62
7
  10
 123.675
  20
 246.249
  30
0.0
  40
 3.00000
  50
0.0
  51
 90.0000
   0
LINE
   8
LEVEL001
   6
CONTINUOUS
  62
7
  10
 113.175
  20
 213.749
  30
0.0
  11
 123.675
  21
 213.749
  31
0.0
   0
ARC
   8
LEVEL001
   6
CONTINUOUS
  62
7
  10
 112.675
  20
 215.749
  30
0.0
  40
 2.00000
  50
 179.999
  51
 240.000
   0
ARC
   8
LEVEL001
   6
CONTINUOUS
  62
7
  10
 110.175
  20
 211.418
  30
0.0
  40
 3.00000
  50
 0.146560E-10
  51
 60.0000
   0
ARC
   8
LEVEL001
   6
CONTINUOUS
  62
7
  10
 151.175
  20
 211.418
  30
0.0
  40
 3.00000
  50
 120.000
  51
 180.000
   0
ARC
   8
LEVEL001
   6
CONTINUOUS
  62
7
  10
 148.675
  20
 215.749
  30
0.0
  40
 2.00000
  50
 300.000
  51
 0.928922E-3
   0
LINE
   8
LEVEL001
   6
CONTINUOUS
  62
7
  10
 110.675
  20
 215.749
  30
0.0
  11
 110.675
  21
 224.249
  31
0.0
   0
LINE
   8
LEVEL001
   6
CONTINUOUS
  62
7
  10
 150.675
  20
 224.249
  30
0.0
  11
 150.675
  21
 215.749
  31
0.0
   0
LINE
   8
LEVEL001
   6
CONTINUOUS
  62
7
  10
 113.175
  20
 211.418
  30
0.0
  11
 113.175
  21
 209.899
  31
0.0
   0
LINE
   8
LEVEL003
   6
CONTINUOUS
  62
7
  10
 148.175
  20
 198.749
  30
0.0
  11
 149.175
  21
 198.749
  31
0.0
   0
LINE
   8
LEVEL003
   6
CONTINUOUS
  62
7
  10
 149.175
  20
 198.749
  30
0.0
  11
 149.175
  21
 208.749
  31
0.0
   0
LINE
   8
LEVEL003
   6
CONTINUOUS
  62
7
  10
 149.175
  20
 208.749
  30
0.0
  11
 148.175
  21
 208.749
  31
0.0
   0
ARC
   8
LEVEL001
   6
CONTINUOUS
  62
7
  10
 143.675
  20
 219.081
  30
0.0
  40
 2.00000
  50
 275.000
  51
 0.545529E-10
   0
ARC
   8
LEVEL001
   6
CONTINUOUS
  62
7
  10
 137.675
  20
 213.537
  30
0.0
  40
 3.00000
  50
 95.0000
  51
 180.000
   0
LINE
   8
LEVEL001
   6
CONTINUOUS
  62
7
  10
 143.850
  20
 217.089
  30
0.0
  11
 137.414
  21
 216.526
  31
0.0
   0
ARC
   8
LEVEL001
   6
CONTINUOUS
  62
7
  10
 117.675
  20
 219.081
  30
0.0
  40
 2.00000
  50
 180.000
  51
 265.000
   0
ARC
   8
LEVEL001
   6
CONTINUOUS
  62
7
  10
 123.675
  20
 213.537
  30
0.0
  40
 3.00000
  50
0.0
  51
 85.0000
   0
LINE
   8
LEVEL001
   6
CONTINUOUS
  62
7
  10
 123.937
  20
 216.526
  30
0.0
  11
 117.501
  21
 217.089
  31
0.0
   0
ARC
   8
LEVEL003
   6
CONTINUOUS
  62
7
  10
 113.175
  20
 230.214
  30
0.0
  40
 1.00000
  50
 180.000
  51
 268.000
   0
ARC
   8
LEVEL003
   6
CONTINUOUS
  62
7
  10
 148.175
  20
 230.214
  30
0.0
  40
 1.00000
  50
 272.000
  51
0.0
   0
LINE
   8
LEVEL003
   6
CONTINUOUS
  62
7
  10
 115.675
  20
 229.127
  30
0.0
  11
 113.140
  21
 229.215
  31
0.0
   0
LINE
   8
LEVEL003
   6
CONTINUOUS
  62
7
  10
 145.675
  20
 229.127
  30
0.0
  11
 148.210
  21
 229.215
  31
0.0
   0
LINE
   8
LEVEL001
   6
DASHDOT
  62
1
  10
 102.728
  20
 249.249
  30
0.0
  11
 157.728
  21
 249.249
  31
0.0
   0
LINE
   8
LEVEL001
   6
CONTINUOUS
  62
7
  10
 149.425
  20
 244.249
  30
0.0
  11
 149.175
  21
 244.249
  31
0.0
   0
LINE
   8
LEVEL001
   6
CONTINUOUS
  62
7
  10
 111.925
  20
 244.249
  30
0.0
  11
 112.175
  21
 244.249
  31
0.0
   0
LINE
   8
LEVEL001
   6
CONTINUOUS
  62
7
  10
 154.175
  20
 254.249
  30
0.0
  11
 149.175
  21
 254.249
  31
0.0
   0
LINE
   8
LEVEL001
   6
CONTINUOUS
  62
7
  10
 149.425
  20
 244.249
  30
0.0
  11
 154.175
  21
 244.249
  31
0.0
   0
LINE
   8
LEVEL001
   6
CONTINUOUS
  62
7
  10
 107.175
  20
 254.249
  30
0.0
  11
 112.175
  21
 254.249
  31
0.0
   0
LINE
   8
LEVEL001
   6
CONTINUOUS
  62
7
  10
 150.875
  20
 246.624
  30
0.0
  11
 150.875
  21
 253.024
  31
0.0
   0
LINE
   8
LEVEL001
   6
CONTINUOUS
  62
7
  10
 150.875
  20
 255.498
  30
0.0
  11
 150.875
  21
 254.249
  31
0.0
   0
LINE
   8
LEVEL001
   6
CONTINUOUS
  62
7
  10
 152.475
  20
 255.498
  30
0.0
  11
 152.475
  21
 254.249
  31
0.0
   0
ARC
   8
LEVEL001
   6
CONTINUOUS
  62
7
  10
 151.675
  20
 255.498
  30
0.0
  40
 0.800000
  50
0.0
  51
 180.000
   0
LINE
   8
LEVEL001
   6
CONTINUOUS
  62
7
  10
 110.475
  20
 255.498
  30
0.0
  11
 110.475
  21
 254.249
  31
0.0
   0
LINE
   8
LEVEL001
   6
CONTINUOUS
  62
7
  10
 108.875
  20
 255.498
  30
0.0
  11
 108.875
  21
 254.249
  31
0.0
   0
ARC
   8
LEVEL001
   6
CONTINUOUS
  62
7
  10
 109.675
  20
 255.498
  30
0.0
  40
 0.800000
  50
0.0
  51
 180.000
   0
LINE
   8
LEVEL001
   6
CONTINUOUS
  62
7
  10
 110.475
  20
 246.624
  30
0.0
  11
 110.475
  21
 253.024
  31
0.0
   0
ARC
   8
LEVEL001
   6
CONTINUOUS
  62
7
  10
 117.675
  20
 230.916
  30
0.0
  40
 2.00000
  50
 170.420
  51
 180.000
   0
ARC
   8
LEVEL001
   6
CONTINUOUS
  62
7
  10
 117.675
  20
 230.727
  30
0.0
  40
 2.00000
  50
 170.420
  51
 180.000
   0
ARC
   8
LEVEL001
   6
CONTINUOUS
  62
7
  10
 143.675
  20
 230.727
  30
0.0
  40
 2.00000
  50
 0.626951E-10
  51
 9.57962
   0
LINE
   8
LEVEL001
   6
CONTINUOUS
  62
7
  10
 145.675
  20
 230.916
  30
0.0
  11
 145.675
  21
 219.081
  31
0.0
   0
ARC
   8
LEVEL001
   6
CONTINUOUS
  62
7
  10
 143.675
  20
 230.916
  30
0.0
  40
 2.00000
  50
0.0
  51
 4.17184
   0
LINE
   8
LEVEL001
   6
CONTINUOUS
  62
7
  10
 115.675
  20
 230.727
  30
0.0
  11
 115.675
  21
 219.081
  31
0.0
   0
LINE
   8
LEVEL001
   6
CONTINUOUS
  62
7
  10
 170.896
  20
 199.597
  30
0.0
  11
 153.877
  21
 205.458
  31
0.0
   0
LINE
   8
LEVEL001
   6
CONTINUOUS
  62
7
  10
 150.166
  20
 194.679
  30
0.0
  11
 153.877
  21
 205.458
  31
0.0
   0
LINE
   8
LEVEL001
   6
CONTINUOUS
  62
7
  10
 153.877
  20
 205.458
  30
0.0
  11
 155.055
  21
 205.687
  31
0.0
   0
LINE
   8
LEVEL001
   6
CONTINUOUS
  62
7
  10
 155.055
  20
 205.687
  30
0.0
  11
 170.109
  21
 200.503
  31
0.0
   0
LINE
   8
LEVEL001
   6
CONTINUOUS
  62
7
  10
 170.109
  20
 200.503
  30
0.0
  11
 170.896
  21
 199.597
  31
0.0
   0
LINE
   8
LEVEL001
   6
CONTINUOUS
  62
7
  10
 170.896
  20
 199.597
  30
0.0
  11
 167.185
  21
 188.818
  31
0.0
   0
LINE
   8
LEVEL001
   6
DASHDOT
  62
1
  10
 163.563
  20
 205.942
  30
0.0
  11
 138.883
  21
 134.268
  31
0.0
   0
LINE
   8
LEVEL001
   6
CONTINUOUS
  62
7
  10
 148.175
  20
 211.418
  30
0.0
  11
 148.175
  21
 197.504
  31
0.0
   0
ARC
   8
LEVEL001
   6
CONTINUOUS
  62
7
  10
 167.479
  20
 186.602
  30
0.0
  40
 2.00000
  50
 341.000
  51
 71.0000
   0
LINE
   8
LEVEL001
   6
CONTINUOUS
  62
7
  10
 169.370
  20
 185.951
  30
0.0
  11
 165.675
  21
 175.219
  31
0.0
   0
ARC
   8
LEVEL003
   6
CONTINUOUS
  62
7
  10
 147.756
  20
 193.393
  30
0.0
  40
 2.00000
  50
 71.0000
  51
 85.0000
   0
ARC
   8
LEVEL001
   6
CONTINUOUS
  62
7
  10
 151.175
  20
 197.504
  30
0.0
  40
 3.00000
  50
 180.000
  51
 251.000
   0
LINE
   8
LEVEL001
   6
CONTINUOUS
  62
7
  10
 149.983
  20
 194.912
  30
0.0
  11
 148.688
  21
 195.384
  31
0.0
   0
LINE
   8
LEVEL001
   6
CONTINUOUS
  62
7
  10
 168.130
  20
 188.493
  30
0.0
  11
 148.407
  21
 195.284
  31
0.0
   0
ARC
   8
LEVEL001
   6
CONTINUOUS
  62
7
  10
 137.675
  20
 194.659
  30
0.0
  40
 3.00000
  50
 180.000
  51
 248.024
   0
ARC
   8
LEVEL001
   6
CONTINUOUS
  62
7
  10
 137.675
  20
 199.294
  30
0.0
  40
 3.00000
  50
 180.000
  51
 265.000
   0
LINE
   8
LEVEL001
   6
CONTINUOUS
  62
7
  10
 134.675
  20
 246.249
  30
0.0
  11
 134.675
  21
 194.659
  31
0.0
   0
LINE
   8
LEVEL003
   6
CONTINUOUS
  62
7
  10
 137.414
  20
 196.306
  30
0.0
  11
 147.931
  21
 195.385
  31
0.0
   0
ARC
   8
LEVEL001
   6
CONTINUOUS
  62
7
  10
 121.675
  20
 198.480
  30
0.0
  40
 5.00000
  50
 275.000
  51
 0.651378E-12
   0
LINE
   8
LEVEL001
   6
CONTINUOUS
  62
7
  10
 126.675
  20
 246.249
  30
0.0
  11
 126.675
  21
 198.480
  31
0.0
   0
ARC
   8
LEVEL001
   6
CONTINUOUS
  62
7
  10
 111.787
  20
 190.262
  30
0.0
  40
 3.00000
  50
 55.8214
  51
 85.0000
   0
ARC
   8
LEVEL001
   6
CONTINUOUS
  62
7
  10
 137.675
  20
 175.249
  30
0.0
  40
 15.0000
  50
 277.178
  51
 292.393
   0
LINE
   8
LEVEL003
   6
CONTINUOUS
  62
7
  10
 143.389
  20
 161.380
  30
0.0
  11
 161.342
  21
 168.776
  31
0.0
   0
ARC
   8
LEVEL001
   6
CONTINUOUS
  62
7
  10
 137.675
  20
 175.249
  30
0.0
  40
 15.0000
  50
 67.6073
  51
 68.0242
   0
LINE
   8
LEVEL001
   6
CONTINUOUS
  62
7
  10
 131.120
  20
 194.069
  30
0.0
  11
 143.288
  21
 189.159
  31
0.0
   0
LINE
   8
LEVEL003
   6
CONTINUOUS
  62
7
  10
 143.389
  20
 189.117
  30
0.0
  11
 161.342
  21
 181.721
  31
0.0
   0
ARC
   8
LEVEL001
   6
CONTINUOUS
  62
7
  10
 173.580
  20
 167.460
  30
0.0
  40
 10.0000
  50
 161.000
  51
 222.095
   0
ARC
   8
LEVEL001
   6
CONTINUOUS
  62
7
  10
 130.675
  20
 162.249
  30
0.0
  40
 33.5000
  50
 3.38600
  51
 11.4809
   0
ARC
   8
LEVEL001
   6
CONTINUOUS
  62
7
  10
 158.675
  20
 175.249
  30
0.0
  40
 7.00000
  50
 294.901
  51
 71.9238
   0
ARC
   8
LEVEL001
   6
CONTINUOUS
  62
7
  10
 164.675
  20
 159.416
  30
0.0
  40
 2.00000
  50
 0.268693E-10
  51
 42.0945
   0
LINE
   8
LEVEL001
   6
CONTINUOUS
  62
7
  10
 166.675
  20
 154.249
  30
0.0
  11
 166.675
  21
 159.416
  31
0.0
   0
LINE
   8
LEVEL001
   6
CONTINUOUS
  62
7
  10
 158.675
  20
 177.558
  30
0.0
  11
 160.675
  21
 176.403
  31
0.0
   0
LINE
   8
LEVEL001
   6
CONTINUOUS
  62
7
  10
 160.675
  20
 176.403
  30
0.0
  11
 160.675
  21
 174.094
  31
0.0
   0
LINE
   8
LEVEL001
   6
CONTINUOUS
  62
7
  10
 160.675
  20
 174.094
  30
0.0
  11
 158.675
  21
 172.939
  31
0.0
   0
LINE
   8
LEVEL001
   6
CONTINUOUS
  62
7
  10
 158.675
  20
 172.939
  30
0.0
  11
 156.675
  21
 174.094
  31
0.0
   0
LINE
   8
LEVEL001
   6
CONTINUOUS
  62
7
  10
 156.675
  20
 174.094
  30
0.0
  11
 156.675
  21
 176.403
  31
0.0
   0
LINE
   8
LEVEL001
   6
CONTINUOUS
  62
7
  10
 156.675
  20
 176.403
  30
0.0
  11
 158.675
  21
 177.558
  31
0.0
   0
CIRCLE
   8
LEVEL001
   6
CONTINUOUS
  62
7
  10
 158.675
  20
 175.249
  30
0.0
  40
 4.00000
   0
CIRCLE
   8
LEVEL001
   6
CONTINUOUS
  62
3
  10
 158.675
  20
 175.249
  30
0.0
  40
 3.37500
   0
LINE
   8
LEVEL001
   6
DASHDOT
  62
1
  10
 158.675
  20
 182.249
  30
0.0
  11
 158.675
  21
 168.249
  31
0.0
   0
LINE
   8
LEVEL001
   6
DASHDOT
  62
1
  10
 167.093
  20
 162.249
  30
0.0
  11
 95.6752
  21
 162.249
  31
0.0
   0
LINE
   8
LEVEL001
   6
DASHDOT
  62
1
  10
 167.093
  20
 162.249
  30
0.0
  11
 95.6752
  21
 162.249
  31
0.0
   0
LINE
   8
LEVEL003
   6
CONTINUOUS
  62
7
  10
 144.872
  20
 148.218
  30
0.0
  11
 129.850
  21
 149.532
  31
0.0
   0
LINE
   8
LEVEL001
   6
CONTINUOUS
  62
7
  10
 138.675
  20
 141.635
  30
0.0
  11
 141.175
  21
 140.192
  31
0.0
   0
LINE
   8
LEVEL001
   6
CONTINUOUS
  62
7
  10
 141.175
  20
 140.192
  30
0.0
  11
 141.175
  21
 137.305
  31
0.0
   0
LINE
   8
LEVEL001
   6
CONTINUOUS
  62
7
  10
 141.175
  20
 137.305
  30
0.0
  11
 138.675
  21
 135.862
  31
0.0
   0
LINE
   8
LEVEL001
   6
CONTINUOUS
  62
7
  10
 138.675
  20
 135.862
  30
0.0
  11
 136.175
  21
 137.305
  31
0.0
   0
LINE
   8
LEVEL001
   6
CONTINUOUS
  62
7
  10
 136.175
  20
 137.305
  30
0.0
  11
 136.175
  21
 140.192
  31
0.0
   0
LINE
   8
LEVEL001
   6
CONTINUOUS
  62
7
  10
 136.175
  20
 140.192
  30
0.0
  11
 138.675
  21
 141.635
  31
0.0
   0
CIRCLE
   8
LEVEL001
   6
CONTINUOUS
  62
7
  10
 138.675
  20
 138.749
  30
0.0
  40
 4.86400
   0
CIRCLE
   8
LEVEL001
   6
CONTINUOUS
  62
3
  10
 138.675
  20
 138.749
  30
0.0
  40
 4.28300
   0
LINE
   8
LEVEL001
   6
DASHDOT
  62
1
  10
 146.539
  20
 138.749
  30
0.0
  11
 130.811
  21
 138.749
  31
0.0
   0
LINE
   8
LEVEL001
   6
DASHDOT
  62
1
  10
 138.675
  20
 146.613
  30
0.0
  11
 138.675
  21
 130.885
  31
0.0
   0
ARC
   8
LEVEL001
   6
CONTINUOUS
  62
7
  10
 122.675
  20
 140.330
  30
0.0
  40
 5.00000
  50
 275.000
  51
 0.325689E-12
   0
ARC
   8
LEVEL001
   6
CONTINUOUS
  62
7
  10
 129.675
  20
 147.540
  30
0.0
  40
 2.00000
  50
 85.0000
  51
 180.000
   0
LINE
   8
LEVEL001
   6
DASHDOT
  62
1
  10
 169.675
  20
 154.249
  30
0.0
  11
 111.688
  21
 154.249
  31
0.0
   0
ARC
   8
LEVEL001
   6
CONTINUOUS
  62
7
  10
 93.3718
  20
 198.462
  30
0.0
  40
 2.00000
  50
 110.000
  51
 200.000
   0
ARC
   8
LEVEL001
   6
CONTINUOUS
  62
7
  10
 92.5111
  20
 192.055
  30
0.0
  40
 3.00000
  50
 20.0000
  51
 73.1301
   0
ARC
   8
LEVEL001
   6
CONTINUOUS
  62
7
  10
 93.9621
  20
 196.840
  30
0.0
  40
 2.00000
  50
 200.000
  51
 253.130
   0
LINE
   8
LEVEL001
   6
CONTINUOUS
  62
7
  10
 91.4925
  20
 197.778
  30
0.0
  11
 92.0827
  21
 196.156
  31
0.0
   0
LINE
   8
LEVEL001
   6
CONTINUOUS
  62
7
  10
 112.049
  20
 193.250
  30
0.0
  11
 93.7878
  21
 194.848
  31
0.0
   0
LINE
   8
LEVEL001
   6
CONTINUOUS
  62
7
  10
 148.175
  20
 213.749
  30
0.0
  11
 137.675
  21
 213.749
  31
0.0
   0
LINE
   8
LEVEL001
   6
CONTINUOUS
  62
7
  10
 89.6752
  20
 188.336
  30
0.0
  11
 90.6714
  21
 189.423
  31
0.0
   0
LINE
   8
LEVEL001
   6
CONTINUOUS
  62
7
  10
 89.6752
  20
 162.161
  30
0.0
  11
 90.6714
  21
 161.074
  31
0.0
   0
LINE
   8
LEVEL001
   6
CONTINUOUS
  62
7
  10
 95.3302
  20
 193.081
  30
0.0
  11
 96.4768
  21
 189.931
  31
0.0
   0
LINE
   8
LEVEL001
   6
CONTINUOUS
  62
7
  10
 90.6714
  20
 189.423
  30
0.0
  11
 107.331
  21
 190.881
  31
0.0
   0
ARC
   8
LEVEL001
   6
CONTINUOUS
  62
7
  10
 103.907
  20
 154.897
  30
0.0
  40
 5.00000
  50
 20.0000
  51
 85.0000
   0
LINE
   8
LEVEL001
   6
CONTINUOUS
  62
7
  10
 108.606
  20
 156.607
  30
0.0
  11
 112.095
  21
 147.021
  31
0.0
   0
LINE
   8
LEVEL001
   6
CONTINUOUS
  62
7
  10
 90.6714
  20
 161.074
  30
0.0
  11
 123.111
  21
 158.236
  31
0.0
   0
ARC
   8
LEVEL001
   6
CONTINUOUS
  62
7
  10
 122.675
  20
 153.255
  30
0.0
  40
 5.00000
  50
 0.586240E-11
  51
 85.0000
   0
LINE
   8
LEVEL001
   6
CONTINUOUS
  62
7
  10
 127.675
  20
 153.255
  30
0.0
  11
 127.675
  21
 140.330
  31
0.0
   0
LINE
   8
LEVEL001
   6
CONTINUOUS
  62
7
  10
 90.6714
  20
 189.423
  30
0.0
  11
 90.6714
  21
 161.074
  31
0.0
   0
LINE
   8
LEVEL087
   6
DASHDOT
  62
1
  10
 166.203
  20
 121.249
  30
0.0
  11
 153.408
  21
 121.249
  31
0.0
   0
ARC
   8
LEVEL087
   6
CONTINUOUS
  62
7
  10
 160.675
  20
 125.249
  30
0.0
  40
 2.00000
  50
 15.0000
  51
 165.000
   0
LINE
   8
LEVEL087
   6
CONTINUOUS
  62
7
  10
 205.675
  20
 103.249
  30
0.0
  11
 55.6752
  21
 103.249
  31
0.0
   0
ARC
   8
LEVEL087
   6
CONTINUOUS
  62
7
  10
 58.6752
  20
 114.249
  30
0.0
  40
 3.00000
  50
 90.0000
  51
 180.000
   0
LINE
   8
LEVEL087
   6
CONTINUOUS
  62
7
  10
 164.294
  20
 119.472
  30
0.0
  11
 162.607
  21
 125.766
  31
0.0
   0
ARC
   8
LEVEL087
   6
CONTINUOUS
  62
7
  10
 167.191
  20
 120.249
  30
0.0
  40
 3.00000
  50
 195.000
  51
 270.000
   0
LINE
   8
LEVEL087
   6
CONTINUOUS
  62
7
  10
 157.057
  20
 119.472
  30
0.0
  11
 158.743
  21
 125.766
  31
0.0
   0
ARC
   8
LEVEL087
   6
CONTINUOUS
  62
7
  10
 154.159
  20
 120.249
  30
0.0
  40
 3.00000
  50
 270.000
  51
 345.000
   0
LINE
   8
LEVEL087
   6
DASHDOT
  62
1
  10
 160.675
  20
 134.335
  30
0.0
  11
 160.675
  21
 103.249
  31
0.0
   0
LINE
   8
LEVEL087
   6
DASHDOT
  62
1
  10
 95.1474
  20
 121.249
  30
0.0
  11
 107.942
  21
 121.249
  31
0.0
   0
ARC
   8
LEVEL087
   6
CONTINUOUS
  62
7
  10
 100.675
  20
 125.249
  30
0.0
  40
 2.00000
  50
 15.0000
  51
 165.000
   0
LINE
   8
LEVEL087
   6
CONTINUOUS
  62
7
  10
 97.0568
  20
 119.472
  30
0.0
  11
 98.7433
  21
 125.766
  31
0.0
   0
ARC
   8
LEVEL087
   6
CONTINUOUS
  62
7
  10
 94.1591
  20
 120.249
  30
0.0
  40
 3.00000
  50
 270.000
  51
 345.000
   0
LINE
   8
LEVEL087
   6
CONTINUOUS
  62
7
  10
 104.294
  20
 119.472
  30
0.0
  11
 102.607
  21
 125.766
  31
0.0
   0
ARC
   8
LEVEL087
   6
CONTINUOUS
  62
7
  10
 107.191
  20
 120.249
  30
0.0
  40
 3.00000
  50
 195.000
  51
 270.000
   0
LINE
   8
LEVEL087
   6
DASHDOT
  62
1
  10
 100.675
  20
 134.335
  30
0.0
  11
 100.675
  21
 103.249
  31
0.0
   0
LINE
   8
LEVEL087
   6
CONTINUOUS
  62
7
  10
 165.675
  20
 117.660
  30
0.0
  11
 165.675
  21
 118.249
  31
0.0
   0
ARC
   8
LEVEL087
   6
CONTINUOUS
  62
7
  10
 167.675
  20
 118.249
  30
0.0
  40
 2.00000
  50
 90.0000
  51
 180.000
   0
LINE
   8
LEVEL087
   6
CONTINUOUS
  62
7
  10
 202.675
  20
 117.249
  30
0.0
  11
 58.6752
  21
 117.249
  31
0.0
   0
ARC
   8
LEVEL087
   6
CONTINUOUS
  62
7
  10
 93.6752
  20
 118.249
  30
0.0
  40
 2.00000
  50
0.0
  51
 90.0000
   0
ARC
   8
LEVEL087
   6
CONTINUOUS
  62
7
  10
 57.6752
  20
 118.249
  30
0.0
  40
 2.00000
  50
 90.0000
  51
 180.000
   0
LINE
   8
LEVEL087
   6
CONTINUOUS
  62
7
  10
 55.6752
  20
 118.249
  30
0.0
  11
 55.6752
  21
 103.249
  31
0.0
   0
ARC
   8
LEVEL087
   6
CONTINUOUS
  62
7
  10
 202.675
  20
 114.249
  30
0.0
  40
 3.00000
  50
0.0
  51
 90.0000
   0
LINE
   8
LEVEL001
   6
CONTINUOUS
  62
7
  10
 104.294
  20
 120.249
  30
0.0
  11
 157.057
  21
 120.249
  31
0.0
   0
LINE
   8
LEVEL001
   6
CONTINUOUS
  62
7
  10
 132.175
  20
 117.249
  30
0.0
  11
 132.175
  21
 120.249
  31
0.0
   0
LINE
   8
LEVEL001
   6
CONTINUOUS
  62
7
  10
 119.175
  20
 120.249
  30
0.0
  11
 119.175
  21
 117.249
  31
0.0
   0
LINE
   8
LEVEL001
   6
DOT
  62
3
  10
 132.175
  20
 112.649
  30
0.0
  11
 119.175
  21
 112.649
  31
0.0
   0
LINE
   8
LEVEL001
   6
DOT
  62
3
  10
 119.175
  20
 117.249
  30
0.0
  11
 119.175
  21
 112.649
  31
0.0
   0
LINE
   8
LEVEL001
   6
DOT
  62
3
  10
 119.175
  20
 112.649
  30
0.0
  11
 119.868
  21
 112.249
  31
0.0
   0
LINE
   8
LEVEL001
   6
DOT
  62
3
  10
 119.868
  20
 112.249
  30
0.0
  11
 131.482
  21
 112.249
  31
0.0
   0
LINE
   8
LEVEL001
   6
DOT
  62
3
  10
 131.482
  20
 112.249
  30
0.0
  11
 132.175
  21
 112.649
  31
0.0
   0
LINE
   8
LEVEL001
   6
DOT
  62
3
  10
 132.175
  20
 112.649
  30
0.0
  11
 132.175
  21
 117.249
  31
0.0
   0
LINE
   8
LEVEL001
   6
DASHDOT
  62
1
  10
 125.675
  20
 109.249
  30
0.0
  11
 125.675
  21
 133.212
  31
0.0
   0
LINE
   8
LEVEL001
   6
CONTINUOUS
  62
7
  10
 89.6752
  20
 188.336
  30
0.0
  11
 89.6752
  21
 175.249
  31
0.0
   0
LINE
   8
LEVEL001
   6
CONTINUOUS
  62
7
  10
 89.6752
  20
 162.161
  30
0.0
  11
 89.6752
  21
 175.249
  31
0.0
   0
LINE
   8
LEVEL001
   6
CONTINUOUS
  62
7
  10
 184.175
  20
 126.249
  30
0.0
  11
 197.175
  21
 126.249
  31
0.0
   0
LINE
   8
LEVEL001
   6
CONTINUOUS
  62
7
  10
 197.175
  20
 126.249
  30
0.0
  11
 197.175
  21
 133.849
  31
0.0
   0
LINE
   8
LEVEL001
   6
CONTINUOUS
  62
7
  10
 197.175
  20
 133.849
  30
0.0
  11
 196.482
  21
 134.249
  31
0.0
   0
LINE
   8
LEVEL001
   6
CONTINUOUS
  62
7
  10
 196.482
  20
 134.249
  30
0.0
  11
 184.868
  21
 134.249
  31
0.0
   0
LINE
   8
LEVEL001
   6
CONTINUOUS
  62
7
  10
 184.868
  20
 134.249
  30
0.0
  11
 184.175
  21
 133.849
  31
0.0
   0
LINE
   8
LEVEL001
   6
CONTINUOUS
  62
7
  10
 184.175
  20
 133.849
  30
0.0
  11
 184.175
  21
 126.249
  31
0.0
   0
LINE
   8
LEVEL001
   6
CONTINUOUS
  62
7
  10
 184.175
  20
 133.849
  30
0.0
  11
 197.175
  21
 133.849
  31
0.0
   0
LINE
   8
LEVEL001
   6
CONTINUOUS
  62
7
  10
 200.675
  20
 126.249
  30
0.0
  11
 200.675
  21
 120.249
  31
0.0
   0
LINE
   8
LEVEL001
   6
DASHDOT
  62
1
  10
 190.675
  20
 137.249
  30
0.0
  11
 190.675
  21
 109.757
  31
0.0
   0
LINE
   8
LEVEL001
   6
CONTINUOUS
  62
7
  10
 72.1752
  20
 126.249
  30
0.0
  11
 85.1752
  21
 126.249
  31
0.0
   0
LINE
   8
LEVEL001
   6
CONTINUOUS
  62
7
  10
 85.1752
  20
 126.249
  30
0.0
  11
 85.1752
  21
 133.849
  31
0.0
   0
LINE
   8
LEVEL001
   6
CONTINUOUS
  62
7
  10
 85.1752
  20
 133.849
  30
0.0
  11
 84.4824
  21
 134.249
  31
0.0
   0
LINE
   8
LEVEL001
   6
CONTINUOUS
  62
7
  10
 84.4824
  20
 134.249
  30
0.0
  11
 72.8680
  21
 134.249
  31
0.0
   0
LINE
   8
LEVEL001
   6
CONTINUOUS
  62
7
  10
 72.8680
  20
 134.249
  30
0.0
  11
 72.1752
  21
 133.849
  31
0.0
   0
LINE
   8
LEVEL001
   6
CONTINUOUS
  62
7
  10
 72.1752
  20
 133.849
  30
0.0
  11
 72.1752
  21
 126.249
  31
0.0
   0
LINE
   8
LEVEL001
   6
CONTINUOUS
  62
7
  10
 72.1752
  20
 133.849
  30
0.0
  11
 85.1752
  21
 133.849
  31
0.0
   0
LINE
   8
LEVEL001
   6
DASHDOT
  62
1
  10
 78.6752
  20
 137.249
  30
0.0
  11
 78.6752
  21
 109.757
  31
0.0
   0
LINE
   8
LEVEL087
   6
CONTINUOUS
  62
7
  10
 97.0568
  20
 120.249
  30
0.0
  11
 57.6752
  21
 120.249
  31
0.0
   0
LINE
   8
LEVEL001
   6
CONTINUOUS
  62
7
  10
 89.6752
  20
 190.260
  30
0.0
  11
 89.6752
  21
 160.237
  31
0.0
   0
LINE
   8
LEVEL001
   6
CONTINUOUS
  62
7
  10
 89.6752
  20
 160.237
  30
0.0
  11
 80.8363
  21
 160.237
  31
0.0
   0
LINE
   8
LEVEL001
   6
CONTINUOUS
  62
7
  10
 80.8363
  20
 160.237
  30
0.0
  11
 79.6752
  21
 162.249
  31
0.0
   0
LINE
   8
LEVEL001
   6
CONTINUOUS
  62
7
  10
 79.6752
  20
 162.249
  30
0.0
  11
 79.6752
  21
 188.249
  31
0.0
   0
LINE
   8
LEVEL001
   6
CONTINUOUS
  62
7
  10
 79.6752
  20
 188.249
  30
0.0
  11
 80.8363
  21
 190.260
  31
0.0
   0
LINE
   8
LEVEL001
   6
CONTINUOUS
  62
7
  10
 80.8363
  20
 190.260
  30
0.0
  11
 89.6752
  21
 190.260
  31
0.0
   0
LINE
   8
LEVEL001
   6
CONTINUOUS
  62
7
  10
 89.6752
  20
 167.743
  30
0.0
  11
 80.8363
  21
 167.743
  31
0.0
   0
LINE
   8
LEVEL001
   6
CONTINUOUS
  62
7
  10
 89.6752
  20
 182.754
  30
0.0
  11
 80.8363
  21
 182.754
  31
0.0
   0
ARC
   8
LEVEL001
   6
CONTINUOUS
  62
7
  10
 104.514
  20
 175.249
  30
0.0
  40
 24.8389
  50
 162.412
  51
 197.588
   0
ARC
   8
LEVEL001
   6
CONTINUOUS
  62
7
  10
 93.2558
  20
 162.249
  30
0.0
  40
 13.5806
  50
 156.135
  51
 180.000
   0
ARC
   8
LEVEL001
   6
CONTINUOUS
  62
7
  10
 93.2558
  20
 188.249
  30
0.0
  40
 13.5806
  50
 180.000
  51
 203.865
   0
ARC
   8
LEVEL001
   6
CONTINUOUS
  62
7
  10
 51.6752
  20
 160.249
  30
0.0
  40
 1.00000
  50
 180.000
  51
 270.002
   0
ARC
   8
LEVEL001
   6
CONTINUOUS
  62
7
  10
 75.6752
  20
 160.249
  30
0.0
  40
 1.00000
  50
 269.998
  51
 0.435451E-3
   0
LINE
   8
LEVEL001
   6
CONTINUOUS
  62
7
  10
 76.6752
  20
 160.249
  30
0.0
  11
 76.6752
  21
 190.249
  31
0.0
   0
LINE
   8
LEVEL001
   6
CONTINUOUS
  62
7
  10
 79.6752
  20
 169.249
  30
0.0
  11
 76.6752
  21
 169.249
  31
0.0
   0
ARC
   8
LEVEL001
   6
CONTINUOUS
  62
7
  10
 75.6752
  20
 190.249
  30
0.0
  40
 1.00000
  50
0.0
  51
 90.0017
   0
LINE
   8
LEVEL001
   6
CONTINUOUS
  62
7
  10
 79.6752
  20
 181.249
  30
0.0
  11
 76.6752
  21
 181.249
  31
0.0
   0
ARC
   8
LEVEL081
   6
CONTINUOUS
  62
7
  10
 69.1752
  20
 127.249
  30
0.0
  40
 2.00000
  50
 270.000
  51
0.0
   0
LINE
   8
LEVEL081
   6
CONTINUOUS
  62
7
  10
 58.1752
  20
 125.249
  30
0.0
  11
 69.1752
  21
 125.249
  31
0.0
   0
ARC
   8
LEVEL081
   6
CONTINUOUS
  62
7
  10
 58.1752
  20
 127.249
  30
0.0
  40
 2.00000
  50
 180.000
  51
 270.000
   0
ARC
   8
LEVEL001
   6
CONTINUOUS
  62
7
  10
 51.1752
  20
 170.249
  30
0.0
  40
 5.00000
  50
 0.651378E-12
  51
 90.0000
   0
LINE
   8
LEVEL081
   6
CONTINUOUS
  62
7
  10
 56.1752
  20
 127.249
  30
0.0
  11
 56.1752
  21
 170.249
  31
0.0
   0
ARC
   8
LEVEL001
   6
CONTINUOUS
  62
7
  10
 76.1752
  20
 170.249
  30
0.0
  40
 5.00000
  50
 90.0000
  51
 180.000
   0
LINE
   8
LEVEL081
   6
CONTINUOUS
  62
7
  10
 71.1752
  20
 127.249
  30
0.0
  11
 71.1752
  21
 170.249
  31
0.0
   0
ARC
   8
LEVEL001
   6
CONTINUOUS
  62
7
  10
 73.6752
  20
 196.249
  30
0.0
  40
 5.00000
  50
 180.000
  51
 270.000
   0
LINE
   8
LEVEL001
   6
CONTINUOUS
  62
7
  10
 73.6752
  20
 191.249
  30
0.0
  11
 75.6752
  21
 191.249
  31
0.0
   0
LINE
   8
LEVEL001
   6
CONTINUOUS
  62
7
  10
 51.6753
  20
 159.249
  30
0.0
  11
 56.1752
  21
 159.249
  31
0.0
   0
LINE
   8
LEVEL001
   6
CONTINUOUS
  62
7
  10
 71.1752
  20
 159.249
  30
0.0
  11
 75.6752
  21
 159.249
  31
0.0
   0
ARC
   8
LEVEL001
   6
CONTINUOUS
  62
7
  10
 67.6752
  20
 130.249
  30
0.0
  40
 10.0000
  50
 210.000
  51
 270.000
   0
LINE
   8
LEVEL001
   6
DOT
  62
3
  10
 57.6752
  20
 135.249
  30
0.0
  11
 63.6752
  21
 135.249
  31
0.0
   0
LINE
   8
LEVEL001
   6
DOT
  62
3
  10
 63.6752
  20
 135.249
  30
0.0
  11
 63.6752
  21
 130.249
  31
0.0
   0
ARC
   8
LEVEL001
   6
DOT
  62
3
  10
 67.6752
  20
 130.249
  30
0.0
  40
 4.00000
  50
 180.000
  51
 270.000
   0
LINE
   8
LEVEL001
   6
DOT
  62
3
  10
 57.6752
  20
 135.249
  30
0.0
  11
 57.6752
  21
 130.249
  31
0.0
   0
ARC
   8
LEVEL001
   6
DOT
  62
3
  10
 67.6752
  20
 130.249
  30
0.0
  40
 10.0000
  50
 180.000
  51
 210.000
   0
LINE
   8
LEVEL003
   6
CONTINUOUS
  62
7
  10
 114.175
  20
 246.249
  30
0.0
  11
 121.175
  21
 246.249
  31
0.0
   0
LINE
   8
LEVEL003
   6
CONTINUOUS
  62
7
  10
 140.175
  20
 246.249
  30
0.0
  11
 147.175
  21
 246.249
  31
0.0
   0
LINE
   8
LEVEL001
   6
CONTINUOUS
  62
7
  10
 114.175
  20
 270.865
  30
0.0
  11
 147.175
  21
 270.865
  31
0.0
   0
LINE
   8
LEVEL001
   6
CONTINUOUS
  62
7
  10
 114.175
  20
 269.749
  30
0.0
  11
 147.175
  21
 269.749
  31
0.0
   0
ARC
   8
LEVEL003
   6
CONTINUOUS
  62
7
  10
 116.175
  20
 280.249
  30
0.0
  40
 2.00000
  50
 90.0000
  51
 180.000
   0
ARC
   8
LEVEL001
   6
CONTINUOUS
  62
7
  10
 145.175
  20
 280.249
  30
0.0
  40
 2.00000
  50
0.0
  51
 90.0000
   0
LINE
   8
LEVEL001
   6
DASHDOT
  62
1
  10
 170.675
  20
 260.249
  30
0.0
  11
 90.6753
  21
 260.249
  31
0.0
   0
LINE
   8
LEVEL001
   6
CONTINUOUS
  62
7
  10
 114.175
  20
 263.249
  30
0.0
  11
 101.825
  21
 263.249
  31
0.0
   0
LINE
   8
LEVEL001
   6
CONTINUOUS
  62
7
  10
 159.525
  20
 257.249
  30
0.0
  11
 147.175
  21
 257.249
  31
0.0
   0
LINE
   8
LEVEL001
   6
CONTINUOUS
  62
7
  10
 159.525
  20
 263.249
  30
0.0
  11
 147.175
  21
 263.249
  31
0.0
   0
LINE
   8
LEVEL001
   6
CONTINUOUS
  62
7
  10
 140.175
  20
 263.249
  30
0.0
  11
 121.175
  21
 263.249
  31
0.0
   0
LINE
   8
LEVEL001
   6
CONTINUOUS
  62
7
  10
 140.175
  20
 257.249
  30
0.0
  11
 121.175
  21
 257.249
  31
0.0
   0
LINE
   8
LEVEL003
   6
CONTINUOUS
  62
7
  10
 149.175
  20
 257.249
  30
0.0
  11
 149.175
  21
 230.214
  31
0.0
   0
LINE
   8
LEVEL003
   6
CONTINUOUS
  62
7
  10
 112.175
  20
 257.249
  30
0.0
  11
 112.175
  21
 230.214
  31
0.0
   0
LINE
   8
LEVEL001
   6
CONTINUOUS
  62
7
  10
 165.876
  20
 133.808
  30
0.0
  11
 166.321
  21
 133.652
  31
0.0
   0
LINE
   8
LEVEL087
   6
DASHDOT
  62
1
  10
 160.675
  20
 121.200
  30
0.0
  11
 160.675
  21
 268.249
  31
0.0
   0
ARC
   8
LEVEL003
   6
CONTINUOUS
  62
7
  10
 157.225
  20
 256.538
  30
0.0
  40
 4.60000
  50
 274.108
  51
 359.997
   0
LINE
   8
LEVEL003
   6
CONTINUOUS
  62
7
  10
 168.674
  20
 249.948
  30
0.0
  11
 152.674
  21
 248.299
  31
0.0
   0
LINE
   8
LEVEL003
   6
CONTINUOUS
  62
7
  10
 168.675
  20
 252.248
  30
0.0
  11
 152.674
  21
 250.599
  31
0.0
   0
LINE
   8
LEVEL003
   6
CONTINUOUS
  62
7
  10
 157.554
  20
 251.950
  30
0.0
  11
 152.675
  21
 251.599
  31
0.0
   0
LINE
   8
LEVEL003
   6
CONTINUOUS
  62
7
  10
 168.675
  20
 252.248
  30
0.0
  11
 160.296
  21
 253.113
  31
0.0
   0
LINE
   8
LEVEL003
   6
CONTINUOUS
  62
7
  10
 157.523
  20
 251.099
  30
0.0
  11
 152.675
  21
 251.599
  31
0.0
   0
LINE
   8
LEVEL003
   6
CONTINUOUS
  62
7
  10
 168.674
  20
 248.948
  30
0.0
  11
 163.826
  21
 249.449
  31
0.0
   0
ARC
   8
LEVEL003
   6
CONTINUOUS
  62
7
  10
 168.679
  20
 251.098
  30
0.0
  40
 1.15000
  50
 269.759
  51
 90.2362
   0
LINE
   8
LEVEL003
   6
CONTINUOUS
  62
7
  10
 168.674
  20
 246.648
  30
0.0
  11
 152.674
  21
 244.999
  31
0.0
   0
LINE
   8
LEVEL003
   6
CONTINUOUS
  62
7
  10
 168.674
  20
 248.948
  30
0.0
  11
 152.674
  21
 247.299
  31
0.0
   0
LINE
   8
LEVEL003
   6
CONTINUOUS
  62
7
  10
 157.523
  20
 247.799
  30
0.0
  11
 152.674
  21
 248.299
  31
0.0
   0
ARC
   8
LEVEL003
   6
CONTINUOUS
  62
7
  10
 168.674
  20
 247.798
  30
0.0
  40
 1.15000
  50
 269.997
  51
 89.9971
   0
LINE
   8
LEVEL003
   6
CONTINUOUS
  62
7
  10
 168.674
  20
 243.348
  30
0.0
  11
 152.674
  21
 241.699
  31
0.0
   0
LINE
   8
LEVEL003
   6
CONTINUOUS
  62
7
  10
 168.674
  20
 245.648
  30
0.0
  11
 152.674
  21
 243.999
  31
0.0
   0
LINE
   8
LEVEL003
   6
CONTINUOUS
  62
7
  10
 168.674
  20
 242.348
  30
0.0
  11
 163.826
  21
 242.849
  31
0.0
   0
LINE
   8
LEVEL003
   6
CONTINUOUS
  62
7
  10
 168.674
  20
 240.048
  30
0.0
  11
 152.674
  21
 238.399
  31
0.0
   0
LINE
   8
LEVEL003
   6
CONTINUOUS
  62
7
  10
 168.674
  20
 242.348
  30
0.0
  11
 152.674
  21
 240.699
  31
0.0
   0
LINE
   8
LEVEL003
   6
CONTINUOUS
  62
7
  10
 157.522
  20
 241.199
  30
0.0
  11
 152.674
  21
 241.699
  31
0.0
   0
LINE
   8
LEVEL003
   6
CONTINUOUS
  62
7
  10
 157.523
  20
 244.499
  30
0.0
  11
 152.674
  21
 244.999
  31
0.0
   0
ARC
   8
LEVEL003
   6
CONTINUOUS
  62
7
  10
 168.679
  20
 244.498
  30
0.0
  40
 1.15000
  50
 269.753
  51
 90.2413
   0
ARC
   8
LEVEL003
   6
CONTINUOUS
  62
7
  10
 168.679
  20
 241.198
  30
0.0
  40
 1.15000
  50
 269.753
  51
 90.2413
   0
LINE
   8
LEVEL003
   6
CONTINUOUS
  62
7
  10
 168.674
  20
 245.648
  30
0.0
  11
 163.826
  21
 246.149
  31
0.0
   0
ARC
   8
LEVEL003
   6
CONTINUOUS
  62
7
  10
 152.680
  20
 252.749
  30
0.0
  40
 1.15000
  50
 90.2463
  51
 269.747
   0
ARC
   8
LEVEL003
   6
CONTINUOUS
  62
7
  10
 152.670
  20
 249.449
  30
0.0
  40
 1.15000
  50
 89.7529
  51
 270.241
   0
ARC
   8
LEVEL003
   6
CONTINUOUS
  62
7
  10
 152.669
  20
 246.149
  30
0.0
  40
 1.15000
  50
 89.7529
  51
 270.241
   0
ARC
   8
LEVEL003
   6
CONTINUOUS
  62
7
  10
 152.674
  20
 242.849
  30
0.0
  40
 1.15000
  50
 89.9971
  51
 269.997
   0
ARC
   8
LEVEL003
   6
CONTINUOUS
  62
7
  10
 152.669
  20
 239.549
  30
0.0
  40
 1.15000
  50
 89.7529
  51
 270.241
   0
LINE
   8
LEVEL003
   6
CONTINUOUS
  62
7
  10
 157.390
  20
 254.238
  30
0.0
  11
 152.675
  21
 253.899
  31
0.0
   0
LINE
   8
LEVEL003
   6
CONTINUOUS
  62
7
  10
 161.825
  20
 264.399
  30
0.0
  11
 161.825
  21
 256.538
  31
0.0
   0
LINE
   8
LEVEL003
   6
CONTINUOUS
  62
7
  10
 159.525
  20
 264.399
  30
0.0
  11
 159.525
  21
 256.532
  31
0.0
   0
ARC
   8
LEVEL003
   6
CONTINUOUS
  62
7
  10
 157.225
  20
 256.532
  30
0.0
  40
 2.30000
  50
 274.108
  51
 359.997
   0
LINE
   8
LEVEL003
   6
DASHDOT
  62
1
  10
 168.669
  20
 132.814
  30
0.0
  11
 168.675
  21
 254.508
  31
0.0
   0
LINE
   8
LEVEL003
   6
DASHDOT
  62
1
  10
 152.669
  20
 134.473
  30
0.0
  11
 152.675
  21
 254.509
  31
0.0
   0
LINE
   8
LEVEL003
   6
CONTINUOUS
  62
7
  10
 108.676
  20
 137.398
  30
0.0
  11
 92.6758
  21
 135.749
  31
0.0
   0
LINE
   8
LEVEL003
   6
CONTINUOUS
  62
7
  10
 108.676
  20
 139.698
  30
0.0
  11
 92.6759
  21
 138.049
  31
0.0
   0
LINE
   8
LEVEL003
   6
CONTINUOUS
  62
7
  10
 98.3115
  20
 135.155
  30
0.0
  11
 92.6746
  21
 135.737
  31
0.0
   0
ARC
   8
LEVEL003
   6
CONTINUOUS
  62
7
  10
 92.6753
  20
 136.899
  30
0.0
  40
 1.15001
  50
 89.9669
  51
 269.967
   0
LINE
   8
LEVEL003
   6
CONTINUOUS
  62
7
  10
 108.676
  20
 140.698
  30
0.0
  11
 92.6760
  21
 139.049
  31
0.0
   0
LINE
   8
LEVEL003
   6
CONTINUOUS
  62
7
  10
 108.676
  20
 142.998
  30
0.0
  11
 92.6761
  21
 141.349
  31
0.0
   0
LINE
   8
LEVEL003
   6
CONTINUOUS
  62
7
  10
 98.3117
  20
 138.455
  30
0.0
  11
 92.6747
  21
 139.037
  31
0.0
   0
ARC
   8
LEVEL003
   6
CONTINUOUS
  62
7
  10
 92.6810
  20
 140.199
  30
0.0
  40
 1.15000
  50
 90.2440
  51
 269.689
   0
LINE
   8
LEVEL003
   6
CONTINUOUS
  62
7
  10
 108.676
  20
 143.998
  30
0.0
  11
 92.6762
  21
 142.349
  31
0.0
   0
LINE
   8
LEVEL003
   6
CONTINUOUS
  62
7
  10
 108.676
  20
 146.298
  30
0.0
  11
 92.6763
  21
 144.649
  31
0.0
   0
LINE
   8
LEVEL003
   6
CONTINUOUS
  62
7
  10
 98.3119
  20
 141.755
  30
0.0
  11
 92.6749
  21
 142.337
  31
0.0
   0
LINE
   8
LEVEL003
   6
CONTINUOUS
  62
7
  10
 108.676
  20
 147.298
  30
0.0
  11
 92.6763
  21
 145.649
  31
0.0
   0
LINE
   8
LEVEL003
   6
CONTINUOUS
  62
7
  10
 108.677
  20
 149.598
  30
0.0
  11
 92.6764
  21
 147.949
  31
0.0
   0
LINE
   8
LEVEL003
   6
CONTINUOUS
  62
7
  10
 98.3120
  20
 145.055
  30
0.0
  11
 92.6751
  21
 145.637
  31
0.0
   0
ARC
   8
LEVEL003
   6
CONTINUOUS
  62
7
  10
 92.6812
  20
 143.499
  30
0.0
  40
 1.15000
  50
 90.2440
  51
 269.689
   0
ARC
   8
LEVEL003
   6
CONTINUOUS
  62
7
  10
 92.6758
  20
 146.799
  30
0.0
  40
 1.15001
  50
 89.9661
  51
 269.966
   0
LINE
   8
LEVEL003
   6
CONTINUOUS
  62
7
  10
 107.975
  20
 128.248
  30
0.0
  11
 105.675
  21
 128.248
  31
0.0
   0
LINE
   8
LEVEL003
   6
CONTINUOUS
  62
7
  10
 108.795
  20
 134.108
  30
0.0
  11
 100.167
  21
 133.222
  31
0.0
   0
LINE
   8
LEVEL003
   6
CONTINUOUS
  62
7
  10
 108.559
  20
 136.393
  30
0.0
  11
 99.9333
  21
 135.511
  31
0.0
   0
ARC
   8
LEVEL003
   6
CONTINUOUS
  62
7
  10
 108.676
  20
 135.248
  30
0.0
  40
 1.15000
  50
 275.970
  51
 89.9880
   0
LINE
   8
LEVEL003
   6
CONTINUOUS
  62
7
  10
 108.676
  20
 136.398
  30
0.0
  11
 103.827
  21
 136.898
  31
0.0
   0
ARC
   8
LEVEL003
   6
CONTINUOUS
  62
7
  10
 108.681
  20
 138.548
  30
0.0
  40
 1.15000
  50
 269.753
  51
 90.2413
   0
LINE
   8
LEVEL003
   6
CONTINUOUS
  62
7
  10
 108.676
  20
 139.698
  30
0.0
  11
 103.827
  21
 140.198
  31
0.0
   0
ARC
   8
LEVEL003
   6
CONTINUOUS
  62
7
  10
 108.676
  20
 141.848
  30
0.0
  40
 1.15001
  50
 269.997
  51
 89.9970
   0
LINE
   8
LEVEL003
   6
CONTINUOUS
  62
7
  10
 108.676
  20
 142.998
  30
0.0
  11
 103.828
  21
 143.498
  31
0.0
   0
LINE
   8
LEVEL003
   6
CONTINUOUS
  62
7
  10
 108.676
  20
 146.298
  30
0.0
  11
 103.828
  21
 146.798
  31
0.0
   0
ARC
   8
LEVEL003
   6
CONTINUOUS
  62
7
  10
 108.681
  20
 145.148
  30
0.0
  40
 1.15000
  50
 269.753
  51
 90.2413
   0
ARC
   8
LEVEL003
   6
CONTINUOUS
  62
7
  10
 108.672
  20
 148.448
  30
0.0
  40
 1.15000
  50
 270.236
  51
 89.7592
   0
LINE
   8
LEVEL001
   6
CONTINUOUS
  62
7
  10
 105.876
  20
 133.808
  30
0.0
  11
 106.321
  21
 133.652
  31
0.0
   0
LINE
   8
LEVEL087
   6
DASHDOT
  62
1
  10
 100.675
  20
 121.200
  30
0.0
  11
 100.675
  21
 268.249
  31
0.0
   0
LINE
   8
LEVEL003
   6
DASHDOT
  62
1
  10
 108.669
  20
 132.814
  30
0.0
  11
 108.675
  21
 254.508
  31
0.0
   0
LINE
   8
LEVEL003
   6
DASHDOT
  62
1
  10
 92.6689
  20
 134.473
  30
0.0
  11
 92.6750
  21
 254.509
  31
0.0
   0
ARC
   8
LEVEL003
   6
CONTINUOUS
  62
7
  10
 100.675
  20
 264.399
  30
0.0
  40
 1.15001
  50
 359.997
  51
 179.997
   0
ARC
   8
LEVEL003
   6
CONTINUOUS
  62
7
  10
 160.675
  20
 264.399
  30
0.0
  40
 1.15001
  50
 359.997
  51
 179.997
   0
ARC
   8
LEVEL001
   6
CONTINUOUS
  62
7
  10
 37.6752
  20
 227.293
  30
0.0
  40
 5.00000
  50
 180.000
  51
 230.208
   0
LINE
   8
LEVEL001
   6
CONTINUOUS
  62
7
  10
 32.6752
  20
 241.293
  30
0.0
  11
 68.6752
  21
 241.293
  31
0.0
   0
LINE
   8
LEVEL001
   6
CONTINUOUS
  62
7
  10
 32.6752
  20
 236.293
  30
0.0
  11
 68.6752
  21
 236.293
  31
0.0
   0
LINE
   8
LEVEL001
   6
CONTINUOUS
  62
7
  10
 32.6752
  20
 231.293
  30
0.0
  11
 68.6752
  21
 231.293
  31
0.0
   0
LINE
   8
LEVEL001
   6
CONTINUOUS
  62
7
  10
 50.6752
  20
 160.249
  30
0.0
  11
 50.6752
  21
 188.875
  31
0.0
   0
ARC
   8
LEVEL001
   6
CONTINUOUS
  62
7
  10
 66.6752
  20
 272.501
  30
0.0
  40
 2.00000
  50
0.0
  51
 90.0000
   0
LINE
   8
LEVEL001
   6
CONTINUOUS
  62
7
  10
 68.6752
  20
 196.249
  30
0.0
  11
 68.6752
  21
 272.501
  31
0.0
   0
LINE
   8
LEVEL001
   6
CONTINUOUS
  62
7
  10
 34.6752
  20
 274.501
  30
0.0
  11
 66.6752
  21
 274.501
  31
0.0
   0
ARC
   8
LEVEL001
   6
CONTINUOUS
  62
7
  10
 34.6752
  20
 272.501
  30
0.0
  40
 2.00000
  50
 90.0000
  51
 180.000
   0
LINE
   8
LEVEL001
   6
CONTINUOUS
  62
7
  10
 32.6752
  20
 227.293
  30
0.0
  11
 32.6752
  21
 272.501
  31
0.0
   0
ARC
   8
LEVEL001
   6
CONTINUOUS
  62
7
  10
 5.67522
  20
 188.875
  30
0.0
  40
 45.0000
  50
0.0
  51
 50.2082
   0
LINE
   8
LEVEL001
   6
CONTINUOUS
  62
7
  10
 32.6752
  20
 251.293
  30
0.0
  11
 68.6752
  21
 251.293
  31
0.0
   0
LINE
   8
LEVEL001
   6
CONTINUOUS
  62
7
  10
 32.6752
  20
 246.293
  30
0.0
  11
 68.6752
  21
 246.293
  31
0.0
   0
LINE
   8
LEVEL001
   6
CONTINUOUS
  62
7
  10
 32.6752
  20
 261.293
  30
0.0
  11
 68.6752
  21
 261.293
  31
0.0
   0
LINE
   8
LEVEL001
   6
CONTINUOUS
  62
7
  10
 32.6752
  20
 256.293
  30
0.0
  11
 68.6752
  21
 256.293
  31
0.0
   0
LINE
   8
LEVEL001
   6
CONTINUOUS
  62
7
  10
 32.6752
  20
 266.293
  30
0.0
  11
 68.6752
  21
 266.293
  31
0.0
   0
LINE
   8
LEVEL001
   6
CONTINUOUS
  62
7
  10
 32.6752
  20
 271.293
  30
0.0
  11
 68.6752
  21
 271.293
  31
0.0
   0
LINE
   8
LEVEL001
   6
CONTINUOUS
  62
7
  10
 139.175
  20
 271.548
  30
0.0
  11
 139.175
  21
 279.548
  31
0.0
   0
LINE
   8
LEVEL001
   6
CONTINUOUS
  62
7
  10
 139.175
  20
 279.548
  30
0.0
  11
 122.175
  21
 279.548
  31
0.0
   0
LINE
   8
LEVEL001
   6
CONTINUOUS
  62
7
  10
 122.175
  20
 279.548
  30
0.0
  11
 122.175
  21
 271.548
  31
0.0
   0
LINE
   8
LEVEL001
   6
CONTINUOUS
  62
7
  10
 122.175
  20
 271.548
  30
0.0
  11
 139.175
  21
 271.548
  31
0.0
   0
LINE
   8
LEVEL001
   6
CONTINUOUS
  62
7
  10
 130.675
  20
 271.548
  30
0.0
  11
 130.675
  21
 278.789
  31
0.0
   0
ARC
   8
LEVEL001
   6
CONTINUOUS
  62
7
  10
 134.925
  20
 267.273
  30
0.0
  40
 12.2755
  50
 69.7438
  51
 110.256
   0
ARC
   8
LEVEL001
   6
CONTINUOUS
  62
7
  10
 126.425
  20
 267.273
  30
0.0
  40
 12.2755
  50
 69.7438
  51
 110.256
   0
LINE
   8
LEVEL001
   6
CONTINUOUS
  62
7
  10
 139.175
  20
 284.484
  30
0.0
  11
 139.175
  21
 291.484
  31
0.0
   0
LINE
   8
LEVEL001
   6
CONTINUOUS
  62
7
  10
 139.175
  20
 291.484
  30
0.0
  11
 122.175
  21
 291.484
  31
0.0
   0
LINE
   8
LEVEL001
   6
CONTINUOUS
  62
7
  10
 122.175
  20
 291.484
  30
0.0
  11
 122.175
  21
 284.484
  31
0.0
   0
LINE
   8
LEVEL001
   6
CONTINUOUS
  62
7
  10
 122.175
  20
 284.484
  30
0.0
  11
 139.175
  21
 284.484
  31
0.0
   0
LINE
   8
LEVEL001
   6
CONTINUOUS
  62
7
  10
 130.675
  20
 284.484
  30
0.0
  11
 130.675
  21
 290.725
  31
0.0
   0
ARC
   8
LEVEL001
   6
CONTINUOUS
  62
7
  10
 134.925
  20
 279.208
  30
0.0
  40
 12.2755
  50
 69.7438
  51
 110.256
   0
ARC
   8
LEVEL001
   6
CONTINUOUS
  62
7
  10
 126.425
  20
 279.208
  30
0.0
  40
 12.2755
  50
 69.7438
  51
 110.256
   0
LINE
   8
LEVEL001
   6
CONTINUOUS
  62
7
  10
 125.675
  20
 279.548
  30
0.0
  11
 125.675
  21
 284.484
  31
0.0
   0
LINE
   8
LEVEL001
   6
CONTINUOUS
  62
7
  10
 135.675
  20
 284.484
  30
0.0
  11
 135.675
  21
 279.548
  31
0.0
   0
LINE
   8
LEVEL001
   6
CONTINUOUS
  62
7
  10
 116.175
  20
 282.249
  30
0.0
  11
 125.675
  21
 282.249
  31
0.0
   0
LINE
   8
LEVEL001
   6
CONTINUOUS
  62
7
  10
 135.675
  20
 282.249
  30
0.0
  11
 145.175
  21
 282.249
  31
0.0
   0
LINE
   8
LEVEL001
   6
CONTINUOUS
  62
3
  10
 126.425
  20
 279.548
  30
0.0
  11
 126.425
  21
 284.484
  31
0.0
   0
LINE
   8
LEVEL001
   6
CONTINUOUS
  62
3
  10
 134.925
  20
 284.484
  30
0.0
  11
 134.925
  21
 279.548
  31
0.0
   0
LINE
   8
LEVEL003
   6
CONTINUOUS
  62
7
  10
 147.175
  20
 280.249
  30
0.0
  11
 147.175
  21
 229.179
  31
0.0
   0
LINE
   8
LEVEL003
   6
CONTINUOUS
  62
7
  10
 114.175
  20
 280.249
  30
0.0
  11
 114.175
  21
 229.179
  31
0.0
   0
ARC
   8
LEVEL001
   6
CONTINUOUS
  62
7
  10
 151.675
  20
 253.024
  30
0.0
  40
 0.800000
  50
 60.7711
  51
 180.000
   0
ARC
   8
LEVEL001
   6
CONTINUOUS
  62
7
  10
 151.675
  20
 246.624
  30
0.0
  40
 0.800000
  50
 180.000
  51
 262.025
   0
LINE
   8
LEVEL001
   6
CONTINUOUS
  62
7
  10
 154.175
  20
 254.249
  30
0.0
  11
 154.401
  21
 254.023
  31
0.0
   0
LINE
   8
LEVEL001
   6
CONTINUOUS
  62
7
  10
 70.9073
  20
 126.249
  30
0.0
  11
 93.6547
  21
 126.249
  31
0.0
   0
LINE
   8
LEVEL001
   6
CONTINUOUS
  62
7
  10
 96.0928
  20
 126.249
  30
0.0
  11
 98.9431
  21
 126.249
  31
0.0
   0
ARC
   8
LEVEL003
   6
CONTINUOUS
  62
7
  10
 100.675
  20
 128.249
  30
0.0
  40
 5.00000
  50
 95.8396
  51
 240.832
   0
ARC
   8
LEVEL003
   6
CONTINUOUS
  62
7
  10
 100.675
  20
 128.249
  30
0.0
  40
 5.00000
  50
 299.162
  51
 359.998
   0
ARC
   8
LEVEL003
   6
CONTINUOUS
  62
7
  10
 100.675
  20
 128.249
  30
0.0
  40
 7.30000
  50
 89.9970
  51
 245.349
   0
ARC
   8
LEVEL003
   6
CONTINUOUS
  62
7
  10
 100.675
  20
 128.249
  30
0.0
  40
 7.30000
  50
 294.647
  51
 359.997
   0
LINE
   8
LEVEL001
   6
CONTINUOUS
  62
7
  10
 89.5009
  20
 132.408
  30
0.0
  11
 95.0436
  21
 132.893
  31
0.0
   0
LINE
   8
LEVEL001
   6
CONTINUOUS
  62
7
  10
 103.569
  20
 133.639
  30
0.0
  11
 123.111
  21
 135.349
  31
0.0
   0
ARC
   8
LEVEL001
   6
CONTINUOUS
  62
7
  10
 102.698
  20
 143.601
  30
0.0
  40
 10.0000
  50
 312.945
  51
 20.0000
   0
ARC
   8
LEVEL001
   6
CONTINUOUS
  62
7
  10
 130.675
  20
 162.249
  30
0.0
  40
 33.5000
  50
 182.990
  51
 203.842
   0
LINE
   8
LEVEL001
   6
CONTINUOUS
  62
7
  10
 102.407
  20
 126.249
  30
0.0
  11
 153.655
  21
 126.249
  31
0.0
   0
LINE
   8
LEVEL001
   6
CONTINUOUS
  62
7
  10
 156.093
  20
 126.249
  30
0.0
  11
 158.943
  21
 126.249
  31
0.0
   0
LINE
   8
LEVEL001
   6
CONTINUOUS
  62
7
  10
 162.407
  20
 126.249
  30
0.0
  11
 165.258
  21
 126.249
  31
0.0
   0
LINE
   8
LEVEL001
   6
CONTINUOUS
  62
7
  10
 167.696
  20
 126.249
  30
0.0
  11
 200.675
  21
 126.249
  31
0.0
   0
LINE
   8
LEVEL001
   6
CONTINUOUS
  62
7
  10
 180.850
  20
 132.408
  30
0.0
  11
 165.403
  21
 133.760
  31
0.0
   0
LINE
   8
LEVEL001
   6
DASHDOT
  62
1
  10
 130.675
  20
 289.850
  30
0.0
  11
 130.675
  21
 99.7573
  31
0.0
   0
LINE
   8
LEVEL003
   6
CONTINUOUS
  62
7
  10
 115.675
  20
 231.249
  30
0.0
  11
 121.175
  21
 231.249
  31
0.0
   0
LINE
   8
LEVEL003
   6
CONTINUOUS
  62
7
  10
 140.175
  20
 231.249
  30
0.0
  11
 145.675
  21
 231.249
  31
0.0
   0
LINE
   8
LEVEL001
   6
CONTINUOUS
  62
7
  10
 140.175
  20
 269.749
  30
0.0
  11
 140.175
  21
 231.249
  31
0.0
   0
ARC
   8
LEVEL001
   6
CONTINUOUS
  62
7
  10
 143.675
  20
 230.916
  30
0.0
  40
 2.00000
  50
 0.333831E-10
  51
 9.44846
   0
ARC
   8
LEVEL001
   6
CONTINUOUS
  62
7
  10
 117.675
  20
 230.916
  30
0.0
  40
 2.00000
  50
 170.556
  51
 180.000
   0
LINE
   8
LEVEL001
   6
CONTINUOUS
  62
7
  10
 121.175
  20
 269.749
  30
0.0
  11
 121.175
  21
 231.249
  31
0.0
   0
LINE
   8
LEVEL003
   6
CONTINUOUS
  62
7
  10
 164.310
  20
 253.999
  30
0.0
  11
 164.310
  21
 266.499
  31
0.0
   0
LINE
   8
LEVEL003
   6
CONTINUOUS
  62
7
  10
 164.310
  20
 266.499
  30
0.0
  11
 162.710
  21
 266.499
  31
0.0
   0
LINE
   8
LEVEL003
   6
CONTINUOUS
  62
7
  10
 162.710
  20
 266.499
  30
0.0
  11
 162.710
  21
 253.999
  31
0.0
   0
LINE
   8
LEVEL003
   6
CONTINUOUS
  62
7
  10
 162.710
  20
 253.999
  30
0.0
  11
 164.310
  21
 253.999
  31
0.0
   0
ARC
   8
LEVEL001
   6
CONTINUOUS
  62
7
  10
 165.675
  20
 258.809
  30
0.0
  40
 0.480000
  50
 180.000
  51
0.0
   0
ARC
   8
LEVEL001
   6
CONTINUOUS
  62
7
  10
 165.675
  20
 262.649
  30
0.0
  40
 0.480000
  50
0.0
  51
 180.000
   0
LINE
   8
LEVEL001
   6
CONTINUOUS
  62
7
  10
 166.155
  20
 264.209
  30
0.0
  11
 165.195
  21
 264.209
  31
0.0
   0
LINE
   8
LEVEL001
   6
CONTINUOUS
  62
7
  10
 166.155
  20
 258.809
  30
0.0
  11
 166.155
  21
 264.209
  31
0.0
   0
LINE
   8
LEVEL001
   6
CONTINUOUS
  62
7
  10
 165.195
  20
 258.809
  30
0.0
  11
 165.195
  21
 264.209
  31
0.0
   0
LINE
   8
LEVEL001
   6
DASHDOT
  62
1
  10
 165.675
  20
 257.883
  30
0.0
  11
 165.675
  21
 264.759
  31
0.0
   0
LINE
   8
LEVEL001
   6
CONTINUOUS
  62
7
  10
 162.710
  20
 263.249
  30
0.0
  11
 161.825
  21
 263.249
  31
0.0
   0
LINE
   8
LEVEL001
   6
CONTINUOUS
  62
7
  10
 162.710
  20
 257.249
  30
0.0
  11
 161.825
  21
 257.249
  31
0.0
   0
LINE
   8
LEVEL001
   6
CONTINUOUS
  62
7
  10
 165.195
  20
 263.249
  30
0.0
  11
 164.310
  21
 263.249
  31
0.0
   0
LINE
   8
LEVEL001
   6
CONTINUOUS
  62
7
  10
 167.675
  20
 263.249
  30
0.0
  11
 166.155
  21
 263.249
  31
0.0
   0
LINE
   8
LEVEL001
   6
CONTINUOUS
  62
7
  10
 167.675
  20
 263.249
  30
0.0
  11
 168.175
  21
 262.749
  31
0.0
   0
LINE
   8
LEVEL001
   6
CONTINUOUS
  62
7
  10
 168.175
  20
 262.749
  30
0.0
  11
 168.175
  21
 257.749
  31
0.0
   0
LINE
   8
LEVEL001
   6
CONTINUOUS
  62
7
  10
 168.175
  20
 257.749
  30
0.0
  11
 167.675
  21
 257.249
  31
0.0
   0
LINE
   8
LEVEL001
   6
CONTINUOUS
  62
7
  10
 167.675
  20
 257.249
  30
0.0
  11
 164.310
  21
 257.249
  31
0.0
   0
LINE
   8
LEVEL003
   6
CONTINUOUS
  62
7
  10
 167.675
  20
 263.249
  30
0.0
  11
 167.675
  21
 257.249
  31
0.0
   0
LINE
   8
LEVEL001
   6
CONTINUOUS
  62
7
  10
 95.1952
  20
 264.209
  30
0.0
  11
 96.1552
  21
 264.209
  31
0.0
   0
LINE
   8
LEVEL001
   6
CONTINUOUS
  62
7
  10
 95.1952
  20
 258.809
  30
0.0
  11
 95.1952
  21
 264.209
  31
0.0
   0
LINE
   8
LEVEL001
   6
CONTINUOUS
  62
7
  10
 96.1552
  20
 258.809
  30
0.0
  11
 96.1552
  21
 264.209
  31
0.0
   0
LINE
   8
LEVEL001
   6
DASHDOT
  62
1
  10
 95.6752
  20
 257.883
  30
0.0
  11
 95.6752
  21
 264.759
  31
0.0
   0
ARC
   8
LEVEL001
   6
CONTINUOUS
  62
7
  10
 95.6752
  20
 262.649
  30
0.0
  40
 0.480000
  50
0.0
  51
 180.000
   0
LINE
   8
LEVEL001
   6
CONTINUOUS
  62
7
  10
 93.6752
  20
 263.249
  30
0.0
  11
 93.1752
  21
 262.749
  31
0.0
   0
LINE
   8
LEVEL003
   6
CONTINUOUS
  62
7
  10
 93.6752
  20
 263.249
  30
0.0
  11
 93.6752
  21
 257.249
  31
0.0
   0
LINE
   8
LEVEL001
   6
CONTINUOUS
  62
7
  10
 93.1752
  20
 257.749
  30
0.0
  11
 93.6752
  21
 257.249
  31
0.0
   0
ARC
   8
LEVEL001
   6
CONTINUOUS
  62
7
  10
 95.6752
  20
 258.809
  30
0.0
  40
 0.480000
  50
 180.000
  51
0.0
   0
LINE
   8
LEVEL001
   6
CONTINUOUS
  62
7
  10
 93.1752
  20
 262.749
  30
0.0
  11
 93.1752
  21
 257.749
  31
0.0
   0
LINE
   8
LEVEL001
   6
CONTINUOUS
  62
7
  10
 95.1952
  20
 263.249
  30
0.0
  11
 93.6752
  21
 263.249
  31
0.0
   0
LINE
   8
LEVEL001
   6
CONTINUOUS
  62
7
  10
 99.5252
  20
 263.249
  30
0.0
  11
 98.6402
  21
 263.249
  31
0.0
   0
LINE
   8
LEVEL001
   6
CONTINUOUS
  62
7
  10
 97.0402
  20
 263.249
  30
0.0
  11
 96.1552
  21
 263.249
  31
0.0
   0
LINE
   8
LEVEL001
   6
CONTINUOUS
  62
7
  10
 97.0402
  20
 257.249
  30
0.0
  11
 93.6752
  21
 257.249
  31
0.0
   0
ARC
   8
LEVEL087
   6
CONTINUOUS
  62
7
  10
 194.675
  20
 118.249
  30
0.0
  40
 2.00000
  50
0.0
  51
 90.0000
   0
LINE
   8
LEVEL087
   6
CONTINUOUS
  62
7
  10
 196.675
  20
 118.249
  30
0.0
  11
 196.675
  21
 117.249
  31
0.0
   0
LINE
   8
LEVEL087
   6
CONTINUOUS
  62
7
  10
 164.294
  20
 120.249
  30
0.0
  11
 200.675
  21
 120.249
  31
0.0
   0
LINE
   8
LEVEL087
   6
CONTINUOUS
  62
7
  10
 205.675
  20
 114.249
  30
0.0
  11
 205.675
  21
 103.249
  31
0.0
   0
LINE
   8
LEVEL001
   6
DASHDOT
  62
1
  10
 132.675
  20
 186.580
  30
0.0
  11
 132.675
  21
 163.918
  31
0.0
   0
LINE
   8
LEVEL001
   6
CONTINUOUS
  62
7
  10
 99.5250
  20
 258.249
  30
0.0
  11
 101.825
  21
 258.249
  31
0.0
   0
LINE
   8
LEVEL003
   6
CONTINUOUS
  62
7
  10
 99.5252
  20
 264.399
  30
0.0
  11
 99.5249
  21
 258.249
  31
0.0
   0
LINE
   8
LEVEL003
   6
CONTINUOUS
  62
7
  10
 99.5248
  20
 257.249
  30
0.0
  11
 99.5248
  21
 256.532
  31
0.0
   0
LINE
   8
LEVEL003
   6
CONTINUOUS
  62
7
  10
 101.825
  20
 264.399
  30
0.0
  11
 101.825
  21
 258.249
  31
0.0
   0
LINE
   8
LEVEL003
   6
CONTINUOUS
  62
7
  10
 101.825
  20
 257.249
  30
0.0
  11
 101.825
  21
 256.538
  31
0.0
   0
LINE
   8
LEVEL001
   6
CONTINUOUS
  62
7
  10
 114.175
  20
 257.249
  30
0.0
  11
 98.6402
  21
 257.249
  31
0.0
   0
ARC
   8
LEVEL003
   6
CONTINUOUS
  62
7
  10
 104.126
  20
 256.532
  30
0.0
  40
 2.30000
  50
 180.003
  51
 264.093
   0
LINE
   8
LEVEL003
   6
CONTINUOUS
  62
7
  10
 108.666
  20
 251.451
  30
0.0
  11
 92.6658
  21
 249.802
  31
0.0
   0
LINE
   8
LEVEL003
   6
CONTINUOUS
  62
7
  10
 108.666
  20
 253.751
  30
0.0
  11
 92.6659
  21
 252.102
  31
0.0
   0
LINE
   8
LEVEL003
   6
CONTINUOUS
  62
7
  10
 108.666
  20
 248.151
  30
0.0
  11
 92.6657
  21
 246.502
  31
0.0
   0
LINE
   8
LEVEL003
   6
CONTINUOUS
  62
7
  10
 108.666
  20
 250.451
  30
0.0
  11
 92.6658
  21
 248.802
  31
0.0
   0
LINE
   8
LEVEL003
   6
CONTINUOUS
  62
7
  10
 97.5143
  20
 249.302
  30
0.0
  11
 92.6658
  21
 249.802
  31
0.0
   0
LINE
   8
LEVEL003
   6
CONTINUOUS
  62
7
  10
 108.666
  20
 244.851
  30
0.0
  11
 92.6655
  21
 243.202
  31
0.0
   0
LINE
   8
LEVEL003
   6
CONTINUOUS
  62
7
  10
 108.666
  20
 247.151
  30
0.0
  11
 92.6656
  21
 245.502
  31
0.0
   0
LINE
   8
LEVEL003
   6
CONTINUOUS
  62
7
  10
 108.665
  20
 241.551
  30
0.0
  11
 92.6653
  21
 239.902
  31
0.0
   0
LINE
   8
LEVEL003
   6
CONTINUOUS
  62
7
  10
 108.666
  20
 243.851
  30
0.0
  11
 92.6654
  21
 242.202
  31
0.0
   0
LINE
   8
LEVEL003
   6
CONTINUOUS
  62
7
  10
 97.5139
  20
 242.702
  30
0.0
  11
 92.6655
  21
 243.202
  31
0.0
   0
LINE
   8
LEVEL003
   6
CONTINUOUS
  62
7
  10
 97.5142
  20
 246.002
  30
0.0
  11
 92.6657
  21
 246.502
  31
0.0
   0
ARC
   8
LEVEL003
   6
CONTINUOUS
  62
7
  10
 92.6610
  20
 250.952
  30
0.0
  40
 1.15000
  50
 89.7529
  51
 270.241
   0
ARC
   8
LEVEL003
   6
CONTINUOUS
  62
7
  10
 92.6608
  20
 247.652
  30
0.0
  40
 1.15000
  50
 89.7529
  51
 270.241
   0
ARC
   8
LEVEL003
   6
CONTINUOUS
  62
7
  10
 92.6656
  20
 244.352
  30
0.0
  40
 1.15000
  50
 89.9970
  51
 269.997
   0
ARC
   8
LEVEL003
   6
CONTINUOUS
  62
7
  10
 92.6605
  20
 241.052
  30
0.0
  40
 1.15000
  50
 89.7529
  51
 270.241
   0
LINE
   8
LEVEL003
   6
CONTINUOUS
  62
7
  10
 108.666
  20
 243.851
  30
0.0
  11
 103.817
  21
 244.351
  31
0.0
   0
ARC
   8
LEVEL003
   6
CONTINUOUS
  62
7
  10
 108.671
  20
 246.001
  30
0.0
  40
 1.15000
  50
 269.753
  51
 90.2413
   0
ARC
   8
LEVEL003
   6
CONTINUOUS
  62
7
  10
 108.670
  20
 242.701
  30
0.0
  40
 1.15000
  50
 269.753
  51
 90.2413
   0
LINE
   8
LEVEL003
   6
CONTINUOUS
  62
7
  10
 108.666
  20
 247.151
  30
0.0
  11
 103.817
  21
 247.652
  31
0.0
   0
ARC
   8
LEVEL003
   6
CONTINUOUS
  62
7
  10
 108.666
  20
 249.301
  30
0.0
  40
 1.15000
  50
 269.997
  51
 89.9970
   0
LINE
   8
LEVEL003
   6
CONTINUOUS
  62
7
  10
 108.666
  20
 250.451
  30
0.0
  11
 103.817
  21
 250.951
  31
0.0
   0
ARC
   8
LEVEL003
   6
CONTINUOUS
  62
7
  10
 108.671
  20
 252.601
  30
0.0
  40
 1.15000
  50
 269.759
  51
 90.2362
   0
LINE
   8
LEVEL003
   6
CONTINUOUS
  62
7
  10
 108.666
  20
 253.751
  30
0.0
  11
 103.889
  21
 254.244
  31
0.0
   0
ARC
   8
LEVEL003
   6
CONTINUOUS
  62
7
  10
 104.126
  20
 256.538
  30
0.0
  40
 4.60000
  50
 180.003
  51
 230.617
   0
LINE
   8
LEVEL001
   6
CONTINUOUS
  62
7
  10
 107.175
  20
 254.249
  30
0.0
  11
 106.864
  21
 253.937
  31
0.0
   0
LINE
   8
LEVEL001
   6
CONTINUOUS
  62
7
  10
 97.0402
  20
 253.999
  30
0.0
  11
 98.6402
  21
 253.999
  31
0.0
   0
LINE
   8
LEVEL001
   6
CONTINUOUS
  62
7
  10
 98.6402
  20
 253.999
  30
0.0
  11
 98.6402
  21
 266.499
  31
0.0
   0
LINE
   8
LEVEL001
   6
CONTINUOUS
  62
7
  10
 98.6402
  20
 266.499
  30
0.0
  11
 97.0402
  21
 266.499
  31
0.0
   0
LINE
   8
LEVEL001
   6
CONTINUOUS
  62
7
  10
 97.0402
  20
 266.499
  30
0.0
  11
 97.0402
  21
 253.999
  31
0.0
   0
ARC
   8
LEVEL001
   6
CONTINUOUS
  62
7
  10
 109.675
  20
 246.624
  30
0.0
  40
 0.800000
  50
 279.586
  51
 0.346044E-10
   0
LINE
   8
LEVEL001
   6
CONTINUOUS
  62
7
  10
 108.875
  20
 248.170
  30
0.0
  11
 108.875
  21
 247.133
  31
0.0
   0
LINE
   8
LEVEL001
   6
CONTINUOUS
  62
7
  10
 108.875
  20
 251.470
  30
0.0
  11
 108.875
  21
 250.432
  31
0.0
   0
ARC
   8
LEVEL001
   6
CONTINUOUS
  62
7
  10
 109.675
  20
 253.024
  30
0.0
  40
 0.800000
  50
 0.209662E-9
  51
 129.633
   0
LINE
   8
LEVEL001
   6
CONTINUOUS
  62
7
  10
 107.175
  20
 254.249
  30
0.0
  11
 107.175
  21
 253.905
  31
0.0
   0
LINE
   8
LEVEL003
   6
CONTINUOUS
  62
7
  10
 153.375
  20
 128.248
  30
0.0
  11
 155.675
  21
 128.248
  31
0.0
   0
ARC
   8
LEVEL003
   6
CONTINUOUS
  62
7
  10
 160.675
  20
 128.249
  30
0.0
  40
 7.30000
  50
 180.003
  51
 245.353
   0
ARC
   8
LEVEL003
   6
CONTINUOUS
  62
7
  10
 160.675
  20
 128.249
  30
0.0
  40
 5.00000
  50
 180.002
  51
 240.838
   0
ARC
   8
LEVEL003
   6
CONTINUOUS
  62
7
  10
 160.675
  20
 128.249
  30
0.0
  40
 5.00000
  50
 299.168
  51
 84.1604
   0
LINE
   8
LEVEL003
   6
CONTINUOUS
  62
7
  10
 152.556
  20
 134.108
  30
0.0
  11
 161.184
  21
 133.222
  31
0.0
   0
ARC
   8
LEVEL003
   6
CONTINUOUS
  62
7
  10
 152.675
  20
 135.248
  30
0.0
  40
 1.15000
  50
 90.0120
  51
 264.030
   0
LINE
   8
LEVEL003
   6
CONTINUOUS
  62
7
  10
 168.675
  20
 135.747
  30
0.0
  11
 152.675
  21
 134.098
  31
0.0
   0
LINE
   8
LEVEL003
   6
CONTINUOUS
  62
7
  10
 168.676
  20
 138.047
  30
0.0
  11
 152.675
  21
 136.398
  31
0.0
   0
LINE
   8
LEVEL003
   6
CONTINUOUS
  62
7
  10
 168.676
  20
 139.047
  30
0.0
  11
 152.675
  21
 137.398
  31
0.0
   0
LINE
   8
LEVEL003
   6
CONTINUOUS
  62
7
  10
 168.676
  20
 141.347
  30
0.0
  11
 152.676
  21
 139.698
  31
0.0
   0
LINE
   8
LEVEL003
   6
CONTINUOUS
  62
7
  10
 168.676
  20
 142.347
  30
0.0
  11
 152.676
  21
 140.698
  31
0.0
   0
LINE
   8
LEVEL003
   6
CONTINUOUS
  62
7
  10
 168.676
  20
 144.647
  30
0.0
  11
 152.676
  21
 142.998
  31
0.0
   0
LINE
   8
LEVEL003
   6
CONTINUOUS
  62
7
  10
 168.676
  20
 145.647
  30
0.0
  11
 152.676
  21
 143.998
  31
0.0
   0
LINE
   8
LEVEL003
   6
CONTINUOUS
  62
7
  10
 168.676
  20
 147.947
  30
0.0
  11
 152.676
  21
 146.298
  31
0.0
   0
ARC
   8
LEVEL003
   6
CONTINUOUS
  62
7
  10
 168.680
  20
 136.897
  30
0.0
  40
 1.15000
  50
 269.753
  51
 90.2413
   0
LINE
   8
LEVEL003
   6
CONTINUOUS
  62
7
  10
 168.676
  20
 138.047
  30
0.0
  11
 163.827
  21
 138.548
  31
0.0
   0
ARC
   8
LEVEL003
   6
CONTINUOUS
  62
7
  10
 168.676
  20
 140.197
  30
0.0
  40
 1.15001
  50
 269.997
  51
 89.9970
   0
LINE
   8
LEVEL003
   6
CONTINUOUS
  62
7
  10
 168.676
  20
 141.347
  30
0.0
  11
 163.827
  21
 141.848
  31
0.0
   0
LINE
   8
LEVEL003
   6
CONTINUOUS
  62
7
  10
 168.676
  20
 144.647
  30
0.0
  11
 163.827
  21
 145.147
  31
0.0
   0
ARC
   8
LEVEL003
   6
CONTINUOUS
  62
7
  10
 168.681
  20
 143.497
  30
0.0
  40
 1.15000
  50
 269.753
  51
 90.2413
   0
ARC
   8
LEVEL003
   6
CONTINUOUS
  62
7
  10
 168.671
  20
 146.797
  30
0.0
  40
 1.15000
  50
 270.236
  51
 89.7592
   0
ARC
   8
LEVEL003
   6
CONTINUOUS
  62
7
  10
 152.675
  20
 135.248
  30
0.0
  40
 1.15001
  50
 89.9669
  51
 269.967
   0
ARC
   8
LEVEL003
   6
CONTINUOUS
  62
7
  10
 152.681
  20
 138.548
  30
0.0
  40
 1.15000
  50
 90.2440
  51
 269.689
   0
ARC
   8
LEVEL003
   6
CONTINUOUS
  62
7
  10
 152.681
  20
 141.848
  30
0.0
  40
 1.15000
  50
 90.2440
  51
 269.689
   0
ARC
   8
LEVEL003
   6
CONTINUOUS
  62
7
  10
 152.675
  20
 145.148
  30
0.0
  40
 1.15001
  50
 89.9661
  51
 269.966
   0
ARC
   8
LEVEL003
   6
CONTINUOUS
  62
7
  10
 160.675
  20
 128.249
  30
0.0
  40
 7.30000
  50
 294.651
  51
 71.3133
   0
LINE
   8
LEVEL003
   6
CONTINUOUS
  62
7
  10
 157.465
  20
 136.892
  30
0.0
  11
 152.674
  21
 137.386
  31
0.0
   0
LINE
   8
LEVEL003
   6
CONTINUOUS
  62
7
  10
 157.465
  20
 140.192
  30
0.0
  11
 152.674
  21
 140.686
  31
0.0
   0
LINE
   8
LEVEL003
   6
CONTINUOUS
  62
7
  10
 157.465
  20
 143.492
  30
0.0
  11
 152.675
  21
 143.986
  31
0.0
   0
LINE
   8
LEVEL001
   6
CONTINUOUS
  62
7
  10
 164.209
  20
 170.962
  30
0.0
  11
 155.829
  21
 146.623
  31
0.0
   0
ARC
   8
LEVEL003
   6
CONTINUOUS
  62
7
  10
 144.175
  20
 140.249
  30
0.0
  40
 8.00000
  50
 17.1646
  51
 85.0000
   0
LINE
   8
LEVEL001
   6
CONTINUOUS
  62
7
  10
 166.675
  20
 149.059
  30
0.0
  11
 166.675
  21
 154.249
  31
0.0
   0
CIRCLE
   8
LEVEL003
   6
CONTINUOUS
  62
7
  10
 132.675
  20
 175.249
  30
0.0
  40
 7.47500
   0
CIRCLE
   8
LEVEL003
   6
CONTINUOUS
  62
3
  10
 132.675
  20
 175.249
  30
0.0
  40
 8.33100
   0
CIRCLE
   8
LEVEL060
   6
CONTINUOUS
  62
7
  10
 285.321
  20
 260.249
  30
0.0
  40
 3.00000
   0
ARC
   8
LEVEL060
   6
CONTINUOUS
  62
7
  10
 282.321
  20
 260.249
  30
0.0
  40
 8.00000
  50
 99.6965
  51
 253.430
   0
LINE
   8
LEVEL060
   6
CONTINUOUS
  62
7
  10
 290.580
  20
 269.749
  30
0.0
  11
 280.974
  21
 268.134
  31
0.0
   0
ARC
   8
LEVEL011
   6
CONTINUOUS
  62
7
  10
 281.340
  20
 263.532
  30
0.0
  40
 1.20000
  50
 231.131
  51
 320.489
   0
ARC
   8
LEVEL011
   6
CONTINUOUS
  62
7
  10
 281.340
  20
 263.532
  30
0.0
  40
 2.16000
  50
 231.131
  51
 320.488
   0
ARC
   8
LEVEL011
   6
CONTINUOUS
  62
7
  10
 285.321
  20
 260.249
  30
0.0
  40
 3.95989
  50
 39.5115
  51
 140.489
   0
LINE
   8
LEVEL011
   6
CONTINUOUS
  62
7
  10
 281.961
  20
 260.729
  30
0.0
  11
 282.360
  21
 260.729
  31
0.0
   0
ARC
   8
LEVEL011
   6
CONTINUOUS
  62
7
  10
 279.081
  20
 260.729
  30
0.0
  40
 2.40000
  50
 51.1309
  51
 323.130
   0
ARC
   8
LEVEL011
   6
CONTINUOUS
  62
7
  10
 279.081
  20
 260.729
  30
0.0
  40
 1.44000
  50
 51.1315
  51
 323.130
   0
CIRCLE
   8
LEVEL060
   6
CONTINUOUS
  62
7
  10
 285.321
  20
 260.249
  30
0.0
  40
 3.00000
   0
LINE
   8
LEVEL011
   6
CONTINUOUS
  62
7
  10
 292.543
  20
 263.644
  30
0.0
  11
 290.796
  21
 261.972
  31
0.0
   0
LINE
   8
LEVEL011
   6
CONTINUOUS
  62
7
  10
 291.879
  20
 264.338
  30
0.0
  11
 292.543
  21
 263.644
  31
0.0
   0
LINE
   8
LEVEL011
   6
CONTINUOUS
  62
7
  10
 291.879
  20
 264.338
  30
0.0
  11
 290.132
  21
 262.665
  31
0.0
   0
LINE
   8
LEVEL011
   6
CONTINUOUS
  62
7
  10
 293.301
  20
 260.729
  30
0.0
  11
 293.301
  21
 259.769
  31
0.0
   0
ARC
   8
LEVEL011
   6
CONTINUOUS
  62
7
  10
 289.302
  20
 263.532
  30
0.0
  40
 1.20000
  50
 219.512
  51
 313.762
   0
ARC
   8
LEVEL011
   6
CONTINUOUS
  62
7
  10
 289.302
  20
 263.532
  30
0.0
  40
 2.16000
  50
 219.512
  51
 313.760
   0
LINE
   8
LEVEL011
   6
CONTINUOUS
  62
7
  10
 288.283
  20
 260.729
  30
0.0
  11
 293.301
  21
 260.729
  31
0.0
   0
LINE
   8
LEVEL011
   6
CONTINUOUS
  62
7
  10
 288.283
  20
 259.769
  30
0.0
  11
 293.301
  21
 259.769
  31
0.0
   0
ARC
   8
LEVEL011
   6
CONTINUOUS
  62
7
  10
 281.961
  20
 258.569
  30
0.0
  40
 1.20000
  50
 90.0000
  51
 143.130
   0
ARC
   8
LEVEL011
   6
CONTINUOUS
  62
7
  10
 281.961
  20
 258.569
  30
0.0
  40
 2.16000
  50
 90.0000
  51
 143.130
   0
LINE
   8
LEVEL011
   6
CONTINUOUS
  62
7
  10
 281.961
  20
 259.769
  30
0.0
  11
 282.360
  21
 259.769
  31
0.0
   0
ARC
   8
LEVEL003
   6
CONTINUOUS
  62
7
  10
 285.321
  20
 260.249
  30
0.0
  40
 6.25000
  50
 162.381
  51
 188.822
   0
ARC
   8
LEVEL003
   6
CONTINUOUS
  62
7
  10
 285.321
  20
 260.249
  30
0.0
  40
 6.25000
  50
 29.0968
  51
 153.478
   0
ARC
   8
LEVEL003
   6
CONTINUOUS
  62
7
  10
 285.321
  20
 258.249
  30
0.0
  40
 7.30000
  50
 19.8601
  51
 34.9623
   0
ARC
   8
LEVEL003
   6
CONTINUOUS
  62
7
  10
 285.321
  20
 260.249
  30
0.0
  40
 6.25000
  50
 197.725
  51
 355.595
   0
ARC
   8
LEVEL003
   6
CONTINUOUS
  62
7
  10
 285.321
  20
 260.249
  30
0.0
  40
 6.25000
  50
 4.40463
  51
 19.7600
   0
LINE
   8
LEVEL003
   6
CONTINUOUS
  62
7
  10
 292.622
  20
 258.249
  30
0.0
  11
 291.275
  21
 258.249
  31
0.0
   0
ARC
   8
LEVEL003
   6
CONTINUOUS
  62
7
  10
 285.322
  20
 258.249
  30
0.0
  40
 5.00000
  50
 210.216
  51
 264.160
   0
LINE
   8
LEVEL003
   6
CONTINUOUS
  62
7
  10
 293.441
  20
 252.389
  30
0.0
  11
 284.813
  21
 253.275
  31
0.0
   0
ARC
   8
LEVEL003
   6
CONTINUOUS
  62
7
  10
 293.322
  20
 251.249
  30
0.0
  40
 1.15000
  50
 270.012
  51
 84.0303
   0
LINE
   8
LEVEL003
   6
CONTINUOUS
  62
7
  10
 277.321
  20
 248.450
  30
0.0
  11
 293.321
  21
 250.099
  31
0.0
   0
LINE
   8
LEVEL003
   6
CONTINUOUS
  62
7
  10
 277.321
  20
 247.450
  30
0.0
  11
 293.321
  21
 249.099
  31
0.0
   0
LINE
   8
LEVEL003
   6
CONTINUOUS
  62
7
  10
 277.321
  20
 245.150
  30
0.0
  11
 293.321
  21
 246.799
  31
0.0
   0
ARC
   8
LEVEL003
   6
CONTINUOUS
  62
7
  10
 293.316
  20
 247.949
  30
0.0
  40
 1.15000
  50
 270.244
  51
 89.6886
   0
LINE
   8
LEVEL003
   6
CONTINUOUS
  62
7
  10
 277.321
  20
 244.150
  30
0.0
  11
 293.321
  21
 245.799
  31
0.0
   0
LINE
   8
LEVEL003
   6
CONTINUOUS
  62
7
  10
 277.321
  20
 241.850
  30
0.0
  11
 293.321
  21
 243.499
  31
0.0
   0
LINE
   8
LEVEL003
   6
CONTINUOUS
  62
7
  10
 277.321
  20
 240.850
  30
0.0
  11
 293.321
  21
 242.499
  31
0.0
   0
LINE
   8
LEVEL003
   6
CONTINUOUS
  62
7
  10
 277.321
  20
 238.550
  30
0.0
  11
 293.321
  21
 240.199
  31
0.0
   0
ARC
   8
LEVEL003
   6
CONTINUOUS
  62
7
  10
 293.316
  20
 244.649
  30
0.0
  40
 1.15000
  50
 270.244
  51
 89.6886
   0
ARC
   8
LEVEL003
   6
CONTINUOUS
  62
7
  10
 293.321
  20
 241.349
  30
0.0
  40
 1.15001
  50
 269.966
  51
 89.9661
   0
ARC
   8
LEVEL003
   6
CONTINUOUS
  62
7
  10
 277.316
  20
 249.600
  30
0.0
  40
 1.15000
  50
 89.7529
  51
 270.241
   0
LINE
   8
LEVEL003
   6
CONTINUOUS
  62
7
  10
 277.321
  20
 248.450
  30
0.0
  11
 282.170
  21
 247.950
  31
0.0
   0
ARC
   8
LEVEL003
   6
CONTINUOUS
  62
7
  10
 277.321
  20
 246.300
  30
0.0
  40
 1.15001
  50
 89.9970
  51
 269.997
   0
LINE
   8
LEVEL003
   6
CONTINUOUS
  62
7
  10
 277.321
  20
 245.150
  30
0.0
  11
 282.169
  21
 244.650
  31
0.0
   0
LINE
   8
LEVEL003
   6
CONTINUOUS
  62
7
  10
 277.321
  20
 241.850
  30
0.0
  11
 282.169
  21
 241.350
  31
0.0
   0
ARC
   8
LEVEL003
   6
CONTINUOUS
  62
7
  10
 277.316
  20
 243.000
  30
0.0
  40
 1.15000
  50
 89.7529
  51
 270.241
   0
ARC
   8
LEVEL003
   6
CONTINUOUS
  62
7
  10
 277.325
  20
 239.700
  30
0.0
  40
 1.15000
  50
 90.2362
  51
 269.759
   0
LINE
   8
LEVEL003
   6
CONTINUOUS
  62
7
  10
 277.321
  20
 250.750
  30
0.0
  11
 293.321
  21
 252.399
  31
0.0
   0
LINE
   8
LEVEL003
   6
CONTINUOUS
  62
7
  10
 288.532
  20
 249.606
  30
0.0
  11
 293.322
  21
 249.111
  31
0.0
   0
LINE
   8
LEVEL003
   6
CONTINUOUS
  62
7
  10
 288.532
  20
 246.306
  30
0.0
  11
 293.322
  21
 245.811
  31
0.0
   0
LINE
   8
LEVEL003
   6
CONTINUOUS
  62
7
  10
 288.532
  20
 243.006
  30
0.0
  11
 293.322
  21
 242.511
  31
0.0
   0
LINE
   8
LEVEL060
   6
CONTINUOUS
  62
7
  10
 301.321
  20
 246.249
  30
0.0
  11
 294.410
  21
 248.305
  31
0.0
   0
LINE
   8
LEVEL060
   6
CONTINUOUS
  62
7
  10
 281.169
  20
 252.245
  30
0.0
  11
 280.040
  21
 252.581
  31
0.0
   0
ARC
   8
LEVEL003
   6
CONTINUOUS
  62
7
  10
 285.322
  20
 258.249
  30
0.0
  40
 7.30000
  50
 19.8614
  51
 32.4578
   0
ARC
   8
LEVEL003
   6
CONTINUOUS
  62
7
  10
 285.322
  20
 258.249
  30
0.0
  40
 7.30000
  50
 0.319186E-2
  51
 12.0180
   0
ARC
   8
LEVEL003
   6
CONTINUOUS
  62
7
  10
 285.322
  20
 258.249
  30
0.0
  40
 7.30000
  50
 177.464
  51
 251.313
   0
ARC
   8
LEVEL003
   6
CONTINUOUS
  62
7
  10
 285.322
  20
 258.249
  30
0.0
  40
 7.30000
  50
 147.542
  51
 169.111
   0
LINE
   8
LEVEL003
   6
CONTINUOUS
  62
7
  10
 562.306
  20
 135.441
  30
0.0
  11
 561.488
  21
 126.941
  31
0.0
   0
LINE
   8
LEVEL003
   6
CONTINUOUS
  62
7
  10
 566.187
  20
 135.499
  30
0.0
  11
 566.187
  21
 126.999
  31
0.0
   0
LINE
   8
LEVEL003
   6
CONTINUOUS
  62
7
  10
 567.387
  20
 136.499
  30
0.0
  11
 568.609
  21
 136.499
  31
0.0
   0
ARC
   8
LEVEL003
   6
CONTINUOUS
  62
7
  10
 568.609
  20
 134.199
  30
0.0
  40
 2.30000
  50
 14.6040
  51
 90.0000
   0
LINE
   8
LEVEL003
   6
CONTINUOUS
  62
7
  10
 567.387
  20
 125.999
  30
0.0
  11
 568.609
  21
 125.999
  31
0.0
   0
ARC
   8
LEVEL003
   6
CONTINUOUS
  62
7
  10
 568.609
  20
 128.299
  30
0.0
  40
 2.30000
  50
 270.000
  51
 345.396
   0
ARC
   8
LEVEL003
   6
CONTINUOUS
  62
7
  10
 557.287
  20
 131.249
  30
0.0
  40
 14.0000
  50
 345.396
  51
 14.6040
   0
LINE
   8
LEVEL003
   6
CONTINUOUS
  62
7
  10
 567.387
  20
 136.499
  30
0.0
  11
 567.387
  21
 125.999
  31
0.0
   0
ARC
   8
LEVEL001
   6
CONTINUOUS
  62
7
  10
 566.787
  20
 135.499
  30
0.0
  40
 0.600000
  50
0.0
  51
 180.000
   0
ARC
   8
LEVEL001
   6
CONTINUOUS
  62
7
  10
 566.787
  20
 126.999
  30
0.0
  40
 0.600000
  50
 180.000
  51
0.0
   0
ARC
   8
LEVEL001
   6
CONTINUOUS
  62
7
  10
 561.709
  20
 135.499
  30
0.0
  40
 0.600000
  50
 354.500
  51
 169.062
   0
ARC
   8
LEVEL001
   6
CONTINUOUS
  62
7
  10
 560.890
  20
 126.999
  30
0.0
  40
 0.600000
  50
 165.529
  51
 354.500
   0
LINE
   8
LEVEL003
   6
DASHDOT
  62
1
  10
 566.787
  20
 136.862
  30
0.0
  11
 566.787
  21
 125.909
  31
0.0
   0
CIRCLE
   8
LEVEL011
   6
CONTINUOUS
  62
7
  10
 322.321
  20
 249.249
  30
0.0
  40
 4.00000
   0
ARC
   8
LEVEL011
   6
CONTINUOUS
  62
7
  10
 315.686
  20
 254.720
  30
0.0
  40
 2.00000
  50
 231.131
  51
 320.489
   0
ARC
   8
LEVEL011
   6
CONTINUOUS
  62
7
  10
 316.721
  20
 246.449
  30
0.0
  40
 3.60000
  50
 90.0000
  51
 143.130
   0
ARC
   8
LEVEL011
   6
CONTINUOUS
  62
7
  10
 315.686
  20
 254.720
  30
0.0
  40
 3.60000
  50
 231.131
  51
 320.488
   0
ARC
   8
LEVEL011
   6
CONTINUOUS
  62
7
  10
 322.321
  20
 249.249
  30
0.0
  40
 6.59982
  50
 39.5115
  51
 140.489
   0
LINE
   8
LEVEL011
   6
CONTINUOUS
  62
7
  10
 316.721
  20
 250.049
  30
0.0
  11
 317.386
  21
 250.049
  31
0.0
   0
ARC
   8
LEVEL011
   6
CONTINUOUS
  62
7
  10
 311.921
  20
 250.049
  30
0.0
  40
 4.00000
  50
 51.1309
  51
 323.130
   0
ARC
   8
LEVEL011
   6
CONTINUOUS
  62
7
  10
 311.921
  20
 250.049
  30
0.0
  40
 2.40000
  50
 51.1315
  51
 323.130
   0
CIRCLE
   8
LEVEL060
   6
CONTINUOUS
  62
7
  10
 322.321
  20
 249.249
  30
0.0
  40
 5.00000
   0
ARC
   8
LEVEL001
   6
CONTINUOUS
  62
7
  10
 322.321
  20
 249.249
  30
0.0
  40
 9.00000
  50
 163.954
  51
 187.013
   0
ARC
   8
LEVEL001
   6
CONTINUOUS
  62
7
  10
 322.321
  20
 249.249
  30
0.0
  40
 9.00000
  50
 26.7234
  51
 153.374
   0
LINE
   8
LEVEL011
   6
CONTINUOUS
  62
7
  10
 334.357
  20
 254.908
  30
0.0
  11
 331.446
  21
 252.120
  31
0.0
   0
LINE
   8
LEVEL011
   6
CONTINUOUS
  62
7
  10
 333.250
  20
 256.064
  30
0.0
  11
 334.357
  21
 254.908
  31
0.0
   0
LINE
   8
LEVEL011
   6
CONTINUOUS
  62
7
  10
 333.250
  20
 256.064
  30
0.0
  11
 330.339
  21
 253.276
  31
0.0
   0
LINE
   8
LEVEL011
   6
CONTINUOUS
  62
7
  10
 335.621
  20
 250.049
  30
0.0
  11
 335.621
  21
 248.449
  31
0.0
   0
ARC
   8
LEVEL011
   6
CONTINUOUS
  62
7
  10
 328.956
  20
 254.720
  30
0.0
  40
 2.00000
  50
 219.512
  51
 313.762
   0
ARC
   8
LEVEL011
   6
CONTINUOUS
  62
7
  10
 328.956
  20
 254.720
  30
0.0
  40
 3.60000
  50
 219.512
  51
 313.760
   0
LINE
   8
LEVEL011
   6
CONTINUOUS
  62
7
  10
 327.257
  20
 250.049
  30
0.0
  11
 335.621
  21
 250.049
  31
0.0
   0
ARC
   8
LEVEL001
   6
CONTINUOUS
  62
7
  10
 322.321
  20
 249.249
  30
0.0
  40
 9.00000
  50
 5.09967
  51
 16.0492
   0
LINE
   8
LEVEL011
   6
CONTINUOUS
  62
7
  10
 327.257
  20
 248.449
  30
0.0
  11
 335.621
  21
 248.449
  31
0.0
   0
ARC
   8
LEVEL001
   6
CONTINUOUS
  62
7
  10
 322.321
  20
 249.249
  30
0.0
  40
 9.00000
  50
 197.828
  51
 354.900
   0
ARC
   8
LEVEL011
   6
CONTINUOUS
  62
7
  10
 316.721
  20
 246.449
  30
0.0
  40
 2.00000
  50
 90.0000
  51
 143.130
   0
LINE
   8
LEVEL011
   6
CONTINUOUS
  62
7
  10
 316.721
  20
 248.449
  30
0.0
  11
 317.385
  21
 248.449
  31
0.0
   0
ARC
   8
LEVEL060
   6
CONTINUOUS
  62
7
  10
 322.321
  20
 249.249
  30
0.0
  40
 13.0000
  50
 66.5014
  51
 160.472
   0
ARC
   8
LEVEL060
   6
CONTINUOUS
  62
7
  10
 322.321
  20
 249.249
  30
0.0
  40
 13.0000
  50
 190.731
  51
 293.845
   0
CIRCLE
   8
LEVEL011
   6
CONTINUOUS
  62
7
  10
 345.321
  20
 239.249
  30
0.0
  40
 4.00000
   0
ARC
   8
LEVEL011
   6
CONTINUOUS
  62
7
  10
 338.686
  20
 244.720
  30
0.0
  40
 2.00000
  50
 231.131
  51
 320.489
   0
ARC
   8
LEVEL011
   6
CONTINUOUS
  62
7
  10
 339.721
  20
 236.449
  30
0.0
  40
 3.60000
  50
 90.0000
  51
 143.130
   0
ARC
   8
LEVEL011
   6
CONTINUOUS
  62
7
  10
 338.686
  20
 244.720
  30
0.0
  40
 3.60000
  50
 231.131
  51
 320.488
   0
ARC
   8
LEVEL011
   6
CONTINUOUS
  62
7
  10
 345.321
  20
 239.249
  30
0.0
  40
 6.59982
  50
 39.5115
  51
 140.489
   0
LINE
   8
LEVEL011
   6
CONTINUOUS
  62
7
  10
 339.721
  20
 240.049
  30
0.0
  11
 340.386
  21
 240.049
  31
0.0
   0
ARC
   8
LEVEL011
   6
CONTINUOUS
  62
7
  10
 334.921
  20
 240.049
  30
0.0
  40
 4.00000
  50
 51.1309
  51
 323.130
   0
ARC
   8
LEVEL011
   6
CONTINUOUS
  62
7
  10
 334.921
  20
 240.049
  30
0.0
  40
 2.40000
  50
 51.1315
  51
 323.130
   0
CIRCLE
   8
LEVEL060
   6
CONTINUOUS
  62
7
  10
 345.321
  20
 239.249
  30
0.0
  40
 5.00000
   0
ARC
   8
LEVEL001
   6
CONTINUOUS
  62
7
  10
 345.321
  20
 239.249
  30
0.0
  40
 9.00000
  50
 163.954
  51
 187.013
   0
ARC
   8
LEVEL001
   6
CONTINUOUS
  62
7
  10
 345.321
  20
 239.249
  30
0.0
  40
 9.00000
  50
 26.7234
  51
 153.374
   0
LINE
   8
LEVEL011
   6
CONTINUOUS
  62
7
  10
 357.357
  20
 244.908
  30
0.0
  11
 354.446
  21
 242.120
  31
0.0
   0
LINE
   8
LEVEL011
   6
CONTINUOUS
  62
7
  10
 356.250
  20
 246.064
  30
0.0
  11
 357.357
  21
 244.908
  31
0.0
   0
LINE
   8
LEVEL011
   6
CONTINUOUS
  62
7
  10
 356.250
  20
 246.064
  30
0.0
  11
 353.339
  21
 243.276
  31
0.0
   0
LINE
   8
LEVEL011
   6
CONTINUOUS
  62
7
  10
 358.621
  20
 240.049
  30
0.0
  11
 358.621
  21
 238.449
  31
0.0
   0
ARC
   8
LEVEL011
   6
CONTINUOUS
  62
7
  10
 351.956
  20
 244.720
  30
0.0
  40
 2.00000
  50
 219.512
  51
 313.762
   0
ARC
   8
LEVEL011
   6
CONTINUOUS
  62
7
  10
 351.956
  20
 244.720
  30
0.0
  40
 3.60000
  50
 219.512
  51
 313.760
   0
LINE
   8
LEVEL011
   6
CONTINUOUS
  62
7
  10
 350.257
  20
 240.049
  30
0.0
  11
 358.621
  21
 240.049
  31
0.0
   0
ARC
   8
LEVEL001
   6
CONTINUOUS
  62
7
  10
 345.321
  20
 239.249
  30
0.0
  40
 9.00000
  50
 5.09967
  51
 16.0492
   0
LINE
   8
LEVEL011
   6
CONTINUOUS
  62
7
  10
 350.257
  20
 238.449
  30
0.0
  11
 358.621
  21
 238.449
  31
0.0
   0
ARC
   8
LEVEL001
   6
CONTINUOUS
  62
7
  10
 345.321
  20
 239.249
  30
0.0
  40
 9.00000
  50
 197.828
  51
 354.900
   0
ARC
   8
LEVEL011
   6
CONTINUOUS
  62
7
  10
 339.721
  20
 236.449
  30
0.0
  40
 2.00000
  50
 90.0000
  51
 143.130
   0
LINE
   8
LEVEL011
   6
CONTINUOUS
  62
7
  10
 339.721
  20
 238.449
  30
0.0
  11
 340.385
  21
 238.449
  31
0.0
   0
ARC
   8
LEVEL060
   6
CONTINUOUS
  62
7
  10
 345.321
  20
 239.249
  30
0.0
  40
 13.0000
  50
 29.6307
  51
 66.5014
   0
ARC
   8
LEVEL060
   6
CONTINUOUS
  62
7
  10
 345.321
  20
 239.249
  30
0.0
  40
 13.0000
  50
 3.52811
  51
 24.7393
   0
ARC
   8
LEVEL060
   6
CONTINUOUS
  62
7
  10
 345.321
  20
 239.249
  30
0.0
  40
 13.0000
  50
 310.364
  51
 356.472
   0
LINE
   8
LEVEL003
   6
DASHDOT
  62
1
  10
 102.728
  20
 239.249
  30
0.0
  11
 152.728
  21
 239.249
  31
0.0
   0
LINE
   8
LEVEL001
   6
CONTINUOUS
  62
7
  10
 107.175
  20
 244.249
  30
0.0
  11
 112.175
  21
 244.249
  31
0.0
   0
LINE
   8
LEVEL001
   6
CONTINUOUS
  62
7
  10
 110.475
  20
 236.624
  30
0.0
  11
 110.475
  21
 243.024
  31
0.0
   0
ARC
   8
LEVEL001
   6
CONTINUOUS
  62
7
  10
 109.675
  20
 243.024
  30
0.0
  40
 0.800000
  50
 0.323653E-9
  51
 129.633
   0
LINE
   8
LEVEL001
   6
CONTINUOUS
  62
7
  10
 107.175
  20
 244.249
  30
0.0
  11
 106.864
  21
 243.937
  31
0.0
   0
LINE
   8
LEVEL001
   6
CONTINUOUS
  62
7
  10
 107.175
  20
 234.249
  30
0.0
  11
 106.175
  21
 235.249
  31
0.0
   0
LINE
   8
LEVEL001
   6
CONTINUOUS
  62
7
  10
 112.175
  20
 234.249
  30
0.0
  11
 107.175
  21
 234.249
  31
0.0
   0
LINE
   8
LEVEL001
   6
CONTINUOUS
  62
7
  10
 108.875
  20
 241.470
  30
0.0
  11
 108.875
  21
 236.624
  31
0.0
   0
ARC
   8
LEVEL001
   6
CONTINUOUS
  62
7
  10
 109.675
  20
 236.624
  30
0.0
  40
 0.800000
  50
 180.000
  51
0.0
   0
LINE
   8
LEVEL001
   6
CONTINUOUS
  62
7
  10
 106.175
  20
 241.295
  30
0.0
  11
 106.175
  21
 235.249
  31
0.0
   0
LINE
   8
LEVEL001
   6
CONTINUOUS
  62
7
  10
 107.175
  20
 244.249
  30
0.0
  11
 106.768
  21
 244.656
  31
0.0
   0
LINE
   8
LEVEL001
   6
CONTINUOUS
  62
7
  10
 107.175
  20
 244.698
  30
0.0
  11
 107.175
  21
 244.005
  31
0.0
   0
LINE
   8
LEVEL001
   6
CONTINUOUS
  62
7
  10
 107.175
  20
 241.398
  30
0.0
  11
 107.175
  21
 234.249
  31
0.0
   0
LINE
   8
LEVEL001
   6
DASHDOT
  62
1
  10
 109.675
  20
 257.201
  30
0.0
  11
 109.675
  21
 233.288
  31
0.0
   0
LINE
   8
LEVEL001
   6
CONTINUOUS
  62
7
  10
 154.175
  20
 234.249
  30
0.0
  11
 155.175
  21
 235.249
  31
0.0
   0
LINE
   8
LEVEL001
   6
CONTINUOUS
  62
7
  10
 149.175
  20
 234.249
  30
0.0
  11
 154.175
  21
 234.249
  31
0.0
   0
LINE
   8
LEVEL001
   6
CONTINUOUS
  62
7
  10
 150.875
  20
 236.624
  30
0.0
  11
 150.875
  21
 243.024
  31
0.0
   0
ARC
   8
LEVEL001
   6
CONTINUOUS
  62
7
  10
 151.675
  20
 236.624
  30
0.0
  40
 0.800000
  50
 180.000
  51
 0.407111E-11
   0
LINE
   8
LEVEL001
   6
DASHDOT
  62
1
  10
 151.675
  20
 257.201
  30
0.0
  11
 151.675
  21
 235.276
  31
0.0
   0
LINE
   8
LEVEL001
   6
CONTINUOUS
  62
7
  10
 154.175
  20
 238.554
  30
0.0
  11
 154.175
  21
 234.249
  31
0.0
   0
LINE
   8
LEVEL001
   6
CONTINUOUS
  62
7
  10
 155.175
  20
 238.657
  30
0.0
  11
 155.175
  21
 235.249
  31
0.0
   0
LINE
   8
LEVEL001
   6
CONTINUOUS
  62
7
  10
 154.175
  20
 244.249
  30
0.0
  11
 154.261
  21
 244.163
  31
0.0
   0
ARC
   8
LEVEL001
   6
CONTINUOUS
  62
7
  10
 151.675
  20
 243.024
  30
0.0
  40
 0.800000
  50
 67.7931
  51
 180.000
   0
LINE
   8
LEVEL001
   6
CONTINUOUS
  62
7
  10
 152.475
  20
 240.683
  30
0.0
  11
 152.475
  21
 241.717
  31
0.0
   0
LINE
   8
LEVEL001
   6
CONTINUOUS
  62
7
  10
 152.475
  20
 236.624
  30
0.0
  11
 152.475
  21
 238.416
  31
0.0
   0
LINE
   8
LEVEL001
   6
CONTINUOUS
  62
7
  10
 155.175
  20
 241.441
  30
0.0
  11
 155.175
  21
 240.957
  31
0.0
   0
LINE
   8
LEVEL001
   6
CONTINUOUS
  62
7
  10
 154.175
  20
 241.544
  30
0.0
  11
 154.175
  21
 240.854
  31
0.0
   0
LINE
   8
LEVEL001
   6
CONTINUOUS
  62
7
  10
 154.175
  20
 244.844
  30
0.0
  11
 154.175
  21
 244.154
  31
0.0
   0
LINE
   8
LEVEL060
   6
DASHDOT
  62
1
  10
 317.138
  20
 261.171
  30
0.0
  11
 340.138
  21
 271.171
  31
0.0
   0
LINE
   8
LEVEL001
   6
CONTINUOUS
  62
7
  10
 372.821
  20
 129.749
  30
0.0
  11
 389.321
  21
 129.749
  31
0.0
   0
LINE
   8
LEVEL001
   6
CONTINUOUS
  62
7
  10
 389.321
  20
 194.749
  30
0.0
  11
 372.821
  21
 194.749
  31
0.0
   0
LINE
   8
LEVEL001
   6
CONTINUOUS
  62
7
  10
 390.321
  20
 190.249
  30
0.0
  11
 391.321
  21
 190.249
  31
0.0
   0
LINE
   8
LEVEL001
   6
CONTINUOUS
  62
7
  10
 390.321
  20
 134.249
  30
0.0
  11
 391.321
  21
 134.249
  31
0.0
   0
LINE
   8
LEVEL001
   6
CONTINUOUS
  62
7
  10
 389.321
  20
 194.749
  30
0.0
  11
 390.321
  21
 193.749
  31
0.0
   0
LINE
   8
LEVEL001
   6
CONTINUOUS
  62
7
  10
 390.321
  20
 193.749
  30
0.0
  11
 390.321
  21
 162.249
  31
0.0
   0
LINE
   8
LEVEL001
   6
CONTINUOUS
  62
7
  10
 389.321
  20
 129.749
  30
0.0
  11
 390.321
  21
 130.749
  31
0.0
   0
LINE
   8
LEVEL001
   6
CONTINUOUS
  62
7
  10
 390.321
  20
 130.749
  30
0.0
  11
 390.321
  21
 162.249
  31
0.0
   0
LINE
   8
LEVEL003
   6
CONTINUOUS
  62
7
  10
 389.321
  20
 194.749
  30
0.0
  11
 389.321
  21
 129.749
  31
0.0
   0
POINT
   8
LEVEL001
  62
7
  10
 298.821
  20
 175.249
  30
0.0
   0
TEXT
   8
LEVEL003
  62
3
  10
 375.583
  20
 525.000
  30
0.0
  40
 12.0000
   1
低圧サクション＆デリベリ
   7
STANDARD
   0
TEXT
   8
LEVEL003
  62
3
  10
 480.583
  20
 750.000
  30
0.0
  40
 12.0000
   1
レリースバルブレバー
   7
STANDARD
   0
TEXT
   8
LEVEL003
  62
3
  10
 390.583
  20
 735.000
  30
0.0
  40
 12.0000
   1
低圧安全弁
   7
STANDARD
   0
TEXT
   8
LEVEL003
  62
3
  10
 375.583
  20
 765.000
  30
0.0
  40
 12.0000
   1
高圧安全弁
   7
STANDARD
   0
TEXT
   8
LEVEL003
  62
3
  10
 375.583
  20
 495.000
  30
0.0
  40
 12.0000
   1
高圧サクション＆デリベリ
   7
STANDARD
   0
LINE
   8
LEVEL001
   6
CONTINUOUS
  62
7
  10
 372.821
  20
 653.738
  30
0.0
  11
 372.321
  21
 654.238
  31
0.0
   0
LINE
   8
LEVEL001
   6
CONTINUOUS
  62
3
  10
 361.696
  20
 584.501
  30
0.0
  11
 361.696
  21
 584.738
  31
0.0
   0
LINE
   8
LEVEL001
   6
DASHDOT
  62
1
  10
 313.321
  20
 635.738
  30
0.0
  11
 297.321
  21
 635.738
  31
0.0
   0
ARC
   8
LEVEL001
   6
CONTINUOUS
  62
7
  10
 300.516
  20
 645.738
  30
0.0
  40
 2.00000
  50
 90.0000
  51
 147.933
   0
LINE
   8
LEVEL001
   6
CONTINUOUS
  62
7
  10
 329.429
  20
 585.167
  30
0.0
  11
 330.467
  21
 573.303
  31
0.0
   0
ARC
   8
LEVEL001
   6
CONTINUOUS
  62
7
  10
 335.448
  20
 573.738
  30
0.0
  40
 5.00000
  50
 185.000
  51
 270.000
   0
ARC
   8
LEVEL001
   6
CONTINUOUS
  62
7
  10
 357.190
  20
 573.738
  30
0.0
  40
 5.00000
  50
 270.000
  51
 355.000
   0
LINE
   8
LEVEL001
   6
CONTINUOUS
  62
7
  10
 335.448
  20
 568.738
  30
0.0
  11
 357.190
  21
 568.738
  31
0.0
   0
LINE
   8
LEVEL001
   6
CONTINUOUS
  62
7
  10
 370.276
  20
 591.693
  30
0.0
  11
 371.373
  21
 604.238
  31
0.0
   0
LINE
   8
LEVEL003
   6
CONTINUOUS
  62
7
  10
 329.321
  20
 588.839
  30
0.0
  11
 329.321
  21
 592.738
  31
0.0
   0
LINE
   8
LEVEL003
   6
CONTINUOUS
  62
7
  10
 347.321
  20
 588.839
  30
0.0
  11
 347.321
  21
 592.738
  31
0.0
   0
LINE
   8
LEVEL003
   6
CONTINUOUS
  62
7
  10
 346.321
  20
 588.634
  30
0.0
  11
 346.259
  21
 589.571
  31
0.0
   0
LINE
   8
LEVEL003
   6
CONTINUOUS
  62
7
  10
 346.259
  20
 589.571
  30
0.0
  11
 346.073
  21
 590.494
  31
0.0
   0
LINE
   8
LEVEL003
   6
CONTINUOUS
  62
7
  10
 346.073
  20
 590.494
  30
0.0
  11
 345.766
  21
 591.388
  31
0.0
   0
LINE
   8
LEVEL003
   6
CONTINUOUS
  62
7
  10
 345.766
  20
 591.388
  30
0.0
  11
 345.342
  21
 592.238
  31
0.0
   0
LINE
   8
LEVEL003
   6
CONTINUOUS
  62
7
  10
 345.342
  20
 592.238
  30
0.0
  11
 344.809
  21
 593.033
  31
0.0
   0
LINE
   8
LEVEL003
   6
CONTINUOUS
  62
7
  10
 344.809
  20
 593.033
  30
0.0
  11
 344.175
  21
 593.758
  31
0.0
   0
LINE
   8
LEVEL003
   6
CONTINUOUS
  62
7
  10
 344.175
  20
 593.758
  30
0.0
  11
 343.449
  21
 594.404
  31
0.0
   0
LINE
   8
LEVEL003
   6
CONTINUOUS
  62
7
  10
 343.449
  20
 594.404
  30
0.0
  11
 342.644
  21
 594.960
  31
0.0
   0
LINE
   8
LEVEL003
   6
CONTINUOUS
  62
7
  10
 342.644
  20
 594.960
  30
0.0
  11
 341.771
  21
 595.417
  31
0.0
   0
LINE
   8
LEVEL003
   6
CONTINUOUS
  62
7
  10
 341.771
  20
 595.417
  30
0.0
  11
 340.844
  21
 595.768
  31
0.0
   0
LINE
   8
LEVEL003
   6
CONTINUOUS
  62
7
  10
 340.844
  20
 595.768
  30
0.0
  11
 339.878
  21
 596.008
  31
0.0
   0
LINE
   8
LEVEL003
   6
CONTINUOUS
  62
7
  10
 339.878
  20
 596.008
  30
0.0
  11
 338.887
  21
 596.133
  31
0.0
   0
LINE
   8
LEVEL003
   6
CONTINUOUS
  62
7
  10
 338.887
  20
 596.133
  30
0.0
  11
 337.888
  21
 596.141
  31
0.0
   0
LINE
   8
LEVEL003
   6
CONTINUOUS
  62
7
  10
 337.888
  20
 596.141
  30
0.0
  11
 336.895
  21
 596.031
  31
0.0
   0
LINE
   8
LEVEL003
   6
CONTINUOUS
  62
7
  10
 336.895
  20
 596.031
  30
0.0
  11
 335.925
  21
 595.807
  31
0.0
   0
LINE
   8
LEVEL003
   6
CONTINUOUS
  62
7
  10
 335.925
  20
 595.807
  30
0.0
  11
 334.992
  21
 595.470
  31
0.0
   0
LINE
   8
LEVEL003
   6
CONTINUOUS
  62
7
  10
 334.992
  20
 595.470
  30
0.0
  11
 334.111
  21
 595.026
  31
0.0
   0
LINE
   8
LEVEL003
   6
CONTINUOUS
  62
7
  10
 334.111
  20
 595.026
  30
0.0
  11
 333.296
  21
 594.483
  31
0.0
   0
LINE
   8
LEVEL003
   6
CONTINUOUS
  62
7
  10
 333.296
  20
 594.483
  30
0.0
  11
 332.559
  21
 593.849
  31
0.0
   0
LINE
   8
LEVEL003
   6
CONTINUOUS
  62
7
  10
 332.559
  20
 593.849
  30
0.0
  11
 331.912
  21
 593.133
  31
0.0
   0
LINE
   8
LEVEL003
   6
CONTINUOUS
  62
7
  10
 331.912
  20
 593.133
  30
0.0
  11
 331.365
  21
 592.347
  31
0.0
   0
LINE
   8
LEVEL003
   6
CONTINUOUS
  62
7
  10
 331.365
  20
 592.347
  30
0.0
  11
 330.927
  21
 591.503
  31
0.0
   0
LINE
   8
LEVEL003
   6
CONTINUOUS
  62
7
  10
 330.927
  20
 591.503
  30
0.0
  11
 330.604
  21
 590.615
  31
0.0
   0
LINE
   8
LEVEL003
   6
CONTINUOUS
  62
7
  10
 330.604
  20
 590.615
  30
0.0
  11
 330.402
  21
 589.695
  31
0.0
   0
LINE
   8
LEVEL003
   6
CONTINUOUS
  62
7
  10
 330.402
  20
 589.695
  30
0.0
  11
 330.323
  21
 588.759
  31
0.0
   0
LINE
   8
LEVEL003
   6
CONTINUOUS
  62
7
  10
 330.323
  20
 588.759
  30
0.0
  11
 330.368
  21
 587.821
  31
0.0
   0
LINE
   8
LEVEL003
   6
CONTINUOUS
  62
7
  10
 330.368
  20
 587.821
  30
0.0
  11
 330.538
  21
 586.895
  31
0.0
   0
LINE
   8
LEVEL003
   6
CONTINUOUS
  62
7
  10
 330.538
  20
 586.895
  30
0.0
  11
 330.830
  21
 585.997
  31
0.0
   0
LINE
   8
LEVEL003
   6
CONTINUOUS
  62
7
  10
 330.830
  20
 585.997
  30
0.0
  11
 331.238
  21
 585.140
  31
0.0
   0
LINE
   8
LEVEL003
   6
CONTINUOUS
  62
7
  10
 331.238
  20
 585.140
  30
0.0
  11
 331.757
  21
 584.337
  31
0.0
   0
LINE
   8
LEVEL003
   6
CONTINUOUS
  62
7
  10
 331.757
  20
 584.337
  30
0.0
  11
 332.378
  21
 583.602
  31
0.0
   0
LINE
   8
LEVEL003
   6
CONTINUOUS
  62
7
  10
 332.378
  20
 583.602
  30
0.0
  11
 333.092
  21
 582.945
  31
0.0
   0
LINE
   8
LEVEL003
   6
CONTINUOUS
  62
7
  10
 333.092
  20
 582.945
  30
0.0
  11
 333.888
  21
 582.377
  31
0.0
   0
LINE
   8
LEVEL003
   6
CONTINUOUS
  62
7
  10
 333.888
  20
 582.377
  30
0.0
  11
 334.753
  21
 581.906
  31
0.0
   0
LINE
   8
LEVEL003
   6
CONTINUOUS
  62
7
  10
 334.753
  20
 581.906
  30
0.0
  11
 335.673
  21
 581.540
  31
0.0
   0
LINE
   8
LEVEL003
   6
CONTINUOUS
  62
7
  10
 335.673
  20
 581.540
  30
0.0
  11
 336.635
  21
 581.286
  31
0.0
   0
LINE
   8
LEVEL003
   6
CONTINUOUS
  62
7
  10
 336.635
  20
 581.286
  30
0.0
  11
 337.623
  21
 581.145
  31
0.0
   0
LINE
   8
LEVEL003
   6
CONTINUOUS
  62
7
  10
 337.623
  20
 581.145
  30
0.0
  11
 338.622
  21
 581.122
  31
0.0
   0
LINE
   8
LEVEL003
   6
CONTINUOUS
  62
7
  10
 338.622
  20
 581.122
  30
0.0
  11
 339.617
  21
 581.216
  31
0.0
   0
LINE
   8
LEVEL003
   6
CONTINUOUS
  62
7
  10
 339.617
  20
 581.216
  30
0.0
  11
 340.591
  21
 581.425
  31
0.0
   0
LINE
   8
LEVEL003
   6
CONTINUOUS
  62
7
  10
 340.591
  20
 581.425
  30
0.0
  11
 341.529
  21
 581.748
  31
0.0
   0
LINE
   8
LEVEL003
   6
CONTINUOUS
  62
7
  10
 341.529
  20
 581.748
  30
0.0
  11
 342.418
  21
 582.177
  31
0.0
   0
LINE
   8
LEVEL003
   6
CONTINUOUS
  62
7
  10
 342.418
  20
 582.177
  30
0.0
  11
 343.243
  21
 582.707
  31
0.0
   0
LINE
   8
LEVEL003
   6
CONTINUOUS
  62
7
  10
 343.243
  20
 582.707
  30
0.0
  11
 343.991
  21
 583.330
  31
0.0
   0
LINE
   8
LEVEL003
   6
CONTINUOUS
  62
7
  10
 343.991
  20
 583.330
  30
0.0
  11
 344.650
  21
 584.036
  31
0.0
   0
LINE
   8
LEVEL003
   6
CONTINUOUS
  62
7
  10
 344.650
  20
 584.036
  30
0.0
  11
 345.211
  21
 584.813
  31
0.0
   0
LINE
   8
LEVEL003
   6
CONTINUOUS
  62
7
  10
 345.211
  20
 584.813
  30
0.0
  11
 345.664
  21
 585.650
  31
0.0
   0
LINE
   8
LEVEL003
   6
CONTINUOUS
  62
7
  10
 345.664
  20
 585.650
  30
0.0
  11
 346.003
  21
 586.534
  31
0.0
   0
LINE
   8
LEVEL003
   6
CONTINUOUS
  62
7
  10
 346.003
  20
 586.534
  30
0.0
  11
 346.222
  21
 587.450
  31
0.0
   0
LINE
   8
LEVEL003
   6
CONTINUOUS
  62
7
  10
 346.222
  20
 587.450
  30
0.0
  11
 346.317
  21
 588.385
  31
0.0
   0
LINE
   8
LEVEL003
   6
CONTINUOUS
  62
7
  10
 346.317
  20
 588.385
  30
0.0
  11
 346.321
  21
 588.634
  31
0.0
   0
LINE
   8
LEVEL003
   6
CONTINUOUS
  62
7
  10
 338.321
  20
 593.865
  30
0.0
  11
 343.321
  21
 591.521
  31
0.0
   0
LINE
   8
LEVEL003
   6
CONTINUOUS
  62
7
  10
 343.321
  20
 591.521
  30
0.0
  11
 343.321
  21
 585.747
  31
0.0
   0
LINE
   8
LEVEL003
   6
CONTINUOUS
  62
7
  10
 343.321
  20
 585.747
  30
0.0
  11
 338.321
  21
 583.403
  31
0.0
   0
LINE
   8
LEVEL003
   6
CONTINUOUS
  62
7
  10
 338.321
  20
 583.403
  30
0.0
  11
 333.321
  21
 585.747
  31
0.0
   0
LINE
   8
LEVEL003
   6
CONTINUOUS
  62
7
  10
 333.321
  20
 585.747
  30
0.0
  11
 333.321
  21
 591.521
  31
0.0
   0
LINE
   8
LEVEL003
   6
CONTINUOUS
  62
7
  10
 333.321
  20
 591.521
  30
0.0
  11
 338.321
  21
 593.865
  31
0.0
   0
LINE
   8
LEVEL003
   6
CONTINUOUS
  62
7
  10
 367.321
  20
 588.839
  30
0.0
  11
 367.251
  21
 589.894
  31
0.0
   0
LINE
   8
LEVEL003
   6
CONTINUOUS
  62
7
  10
 367.251
  20
 589.894
  30
0.0
  11
 367.042
  21
 590.932
  31
0.0
   0
LINE
   8
LEVEL003
   6
CONTINUOUS
  62
7
  10
 367.042
  20
 590.932
  30
0.0
  11
 366.696
  21
 591.937
  31
0.0
   0
LINE
   8
LEVEL003
   6
CONTINUOUS
  62
7
  10
 366.696
  20
 591.937
  30
0.0
  11
 366.220
  21
 592.894
  31
0.0
   0
LINE
   8
LEVEL003
   6
CONTINUOUS
  62
7
  10
 366.220
  20
 592.894
  30
0.0
  11
 365.620
  21
 593.788
  31
0.0
   0
LINE
   8
LEVEL003
   6
CONTINUOUS
  62
7
  10
 365.620
  20
 593.788
  30
0.0
  11
 364.907
  21
 594.604
  31
0.0
   0
LINE
   8
LEVEL003
   6
CONTINUOUS
  62
7
  10
 364.907
  20
 594.604
  30
0.0
  11
 364.090
  21
 595.331
  31
0.0
   0
LINE
   8
LEVEL003
   6
CONTINUOUS
  62
7
  10
 364.090
  20
 595.331
  30
0.0
  11
 363.184
  21
 595.956
  31
0.0
   0
LINE
   8
LEVEL003
   6
CONTINUOUS
  62
7
  10
 363.184
  20
 595.956
  30
0.0
  11
 362.202
  21
 596.470
  31
0.0
   0
LINE
   8
LEVEL003
   6
CONTINUOUS
  62
7
  10
 362.202
  20
 596.470
  30
0.0
  11
 361.159
  21
 596.865
  31
0.0
   0
LINE
   8
LEVEL003
   6
CONTINUOUS
  62
7
  10
 361.159
  20
 596.865
  30
0.0
  11
 360.072
  21
 597.135
  31
0.0
   0
LINE
   8
LEVEL003
   6
CONTINUOUS
  62
7
  10
 360.072
  20
 597.135
  30
0.0
  11
 358.958
  21
 597.275
  31
0.0
   0
LINE
   8
LEVEL003
   6
CONTINUOUS
  62
7
  10
 358.958
  20
 597.275
  30
0.0
  11
 357.834
  21
 597.284
  31
0.0
   0
LINE
   8
LEVEL003
   6
CONTINUOUS
  62
7
  10
 357.834
  20
 597.284
  30
0.0
  11
 356.717
  21
 597.161
  31
0.0
   0
LINE
   8
LEVEL003
   6
CONTINUOUS
  62
7
  10
 356.717
  20
 597.161
  30
0.0
  11
 355.626
  21
 596.908
  31
0.0
   0
LINE
   8
LEVEL003
   6
CONTINUOUS
  62
7
  10
 355.626
  20
 596.908
  30
0.0
  11
 354.576
  21
 596.530
  31
0.0
   0
LINE
   8
LEVEL003
   6
CONTINUOUS
  62
7
  10
 354.576
  20
 596.530
  30
0.0
  11
 353.585
  21
 596.031
  31
0.0
   0
LINE
   8
LEVEL003
   6
CONTINUOUS
  62
7
  10
 353.585
  20
 596.031
  30
0.0
  11
 352.668
  21
 595.420
  31
0.0
   0
LINE
   8
LEVEL003
   6
CONTINUOUS
  62
7
  10
 352.668
  20
 595.420
  30
0.0
  11
 351.839
  21
 594.706
  31
0.0
   0
LINE
   8
LEVEL003
   6
CONTINUOUS
  62
7
  10
 351.839
  20
 594.706
  30
0.0
  11
 351.111
  21
 593.901
  31
0.0
   0
LINE
   8
LEVEL003
   6
CONTINUOUS
  62
7
  10
 351.111
  20
 593.901
  30
0.0
  11
 350.496
  21
 593.017
  31
0.0
   0
LINE
   8
LEVEL003
   6
CONTINUOUS
  62
7
  10
 350.496
  20
 593.017
  30
0.0
  11
 350.003
  21
 592.067
  31
0.0
   0
LINE
   8
LEVEL003
   6
CONTINUOUS
  62
7
  10
 350.003
  20
 592.067
  30
0.0
  11
 349.639
  21
 591.067
  31
0.0
   0
LINE
   8
LEVEL003
   6
CONTINUOUS
  62
7
  10
 349.639
  20
 591.067
  30
0.0
  11
 349.412
  21
 590.033
  31
0.0
   0
LINE
   8
LEVEL003
   6
CONTINUOUS
  62
7
  10
 349.412
  20
 590.033
  30
0.0
  11
 349.323
  21
 588.980
  31
0.0
   0
LINE
   8
LEVEL003
   6
CONTINUOUS
  62
7
  10
 349.323
  20
 588.980
  30
0.0
  11
 349.374
  21
 587.924
  31
0.0
   0
LINE
   8
LEVEL003
   6
CONTINUOUS
  62
7
  10
 349.374
  20
 587.924
  30
0.0
  11
 349.566
  21
 586.883
  31
0.0
   0
LINE
   8
LEVEL003
   6
CONTINUOUS
  62
7
  10
 349.566
  20
 586.883
  30
0.0
  11
 349.893
  21
 585.873
  31
0.0
   0
LINE
   8
LEVEL003
   6
CONTINUOUS
  62
7
  10
 349.893
  20
 585.873
  30
0.0
  11
 350.353
  21
 584.908
  31
0.0
   0
LINE
   8
LEVEL003
   6
CONTINUOUS
  62
7
  10
 350.353
  20
 584.908
  30
0.0
  11
 350.936
  21
 584.006
  31
0.0
   0
LINE
   8
LEVEL003
   6
CONTINUOUS
  62
7
  10
 350.936
  20
 584.006
  30
0.0
  11
 351.635
  21
 583.178
  31
0.0
   0
LINE
   8
LEVEL003
   6
CONTINUOUS
  62
7
  10
 351.635
  20
 583.178
  30
0.0
  11
 352.439
  21
 582.439
  31
0.0
   0
LINE
   8
LEVEL003
   6
CONTINUOUS
  62
7
  10
 352.439
  20
 582.439
  30
0.0
  11
 353.334
  21
 581.800
  31
0.0
   0
LINE
   8
LEVEL003
   6
CONTINUOUS
  62
7
  10
 353.334
  20
 581.800
  30
0.0
  11
 354.307
  21
 581.270
  31
0.0
   0
LINE
   8
LEVEL003
   6
CONTINUOUS
  62
7
  10
 354.307
  20
 581.270
  30
0.0
  11
 355.342
  21
 580.859
  31
0.0
   0
LINE
   8
LEVEL003
   6
CONTINUOUS
  62
7
  10
 355.342
  20
 580.859
  30
0.0
  11
 356.424
  21
 580.572
  31
0.0
   0
LINE
   8
LEVEL003
   6
CONTINUOUS
  62
7
  10
 356.424
  20
 580.572
  30
0.0
  11
 357.536
  21
 580.414
  31
0.0
   0
LINE
   8
LEVEL003
   6
CONTINUOUS
  62
7
  10
 357.536
  20
 580.414
  30
0.0
  11
 358.660
  21
 580.388
  31
0.0
   0
LINE
   8
LEVEL003
   6
CONTINUOUS
  62
7
  10
 358.660
  20
 580.388
  30
0.0
  11
 359.779
  21
 580.494
  31
0.0
   0
LINE
   8
LEVEL003
   6
CONTINUOUS
  62
7
  10
 359.779
  20
 580.494
  30
0.0
  11
 360.874
  21
 580.730
  31
0.0
   0
LINE
   8
LEVEL003
   6
CONTINUOUS
  62
7
  10
 360.874
  20
 580.730
  30
0.0
  11
 361.930
  21
 581.092
  31
0.0
   0
LINE
   8
LEVEL003
   6
CONTINUOUS
  62
7
  10
 361.930
  20
 581.092
  30
0.0
  11
 362.930
  21
 581.575
  31
0.0
   0
LINE
   8
LEVEL003
   6
CONTINUOUS
  62
7
  10
 362.930
  20
 581.575
  30
0.0
  11
 363.858
  21
 582.172
  31
0.0
   0
LINE
   8
LEVEL003
   6
CONTINUOUS
  62
7
  10
 363.858
  20
 582.172
  30
0.0
  11
 364.699
  21
 582.872
  31
0.0
   0
LINE
   8
LEVEL003
   6
CONTINUOUS
  62
7
  10
 364.699
  20
 582.872
  30
0.0
  11
 365.441
  21
 583.666
  31
0.0
   0
LINE
   8
LEVEL003
   6
CONTINUOUS
  62
7
  10
 365.441
  20
 583.666
  30
0.0
  11
 366.072
  21
 584.541
  31
0.0
   0
LINE
   8
LEVEL003
   6
CONTINUOUS
  62
7
  10
 366.072
  20
 584.541
  30
0.0
  11
 366.582
  21
 585.482
  31
0.0
   0
LINE
   8
LEVEL003
   6
CONTINUOUS
  62
7
  10
 366.582
  20
 585.482
  30
0.0
  11
 366.963
  21
 586.476
  31
0.0
   0
LINE
   8
LEVEL003
   6
CONTINUOUS
  62
7
  10
 366.963
  20
 586.476
  30
0.0
  11
 367.209
  21
 587.507
  31
0.0
   0
LINE
   8
LEVEL003
   6
CONTINUOUS
  62
7
  10
 367.209
  20
 587.507
  30
0.0
  11
 367.317
  21
 588.559
  31
0.0
   0
LINE
   8
LEVEL003
   6
CONTINUOUS
  62
7
  10
 367.317
  20
 588.559
  30
0.0
  11
 367.321
  21
 588.839
  31
0.0
   0
LINE
   8
LEVEL003
   6
CONTINUOUS
  62
7
  10
 349.321
  20
 588.839
  30
0.0
  11
 349.321
  21
 592.738
  31
0.0
   0
LINE
   8
LEVEL003
   6
CONTINUOUS
  62
7
  10
 367.321
  20
 588.839
  30
0.0
  11
 367.321
  21
 592.738
  31
0.0
   0
LINE
   8
LEVEL003
   6
CONTINUOUS
  62
7
  10
 366.321
  20
 588.634
  30
0.0
  11
 366.259
  21
 589.571
  31
0.0
   0
LINE
   8
LEVEL003
   6
CONTINUOUS
  62
7
  10
 366.259
  20
 589.571
  30
0.0
  11
 366.073
  21
 590.494
  31
0.0
   0
LINE
   8
LEVEL003
   6
CONTINUOUS
  62
7
  10
 366.073
  20
 590.494
  30
0.0
  11
 365.766
  21
 591.388
  31
0.0
   0
LINE
   8
LEVEL003
   6
CONTINUOUS
  62
7
  10
 365.766
  20
 591.388
  30
0.0
  11
 365.342
  21
 592.238
  31
0.0
   0
LINE
   8
LEVEL003
   6
CONTINUOUS
  62
7
  10
 365.342
  20
 592.238
  30
0.0
  11
 364.809
  21
 593.033
  31
0.0
   0
LINE
   8
LEVEL003
   6
CONTINUOUS
  62
7
  10
 364.809
  20
 593.033
  30
0.0
  11
 364.175
  21
 593.758
  31
0.0
   0
LINE
   8
LEVEL003
   6
CONTINUOUS
  62
7
  10
 364.175
  20
 593.758
  30
0.0
  11
 363.449
  21
 594.404
  31
0.0
   0
LINE
   8
LEVEL003
   6
CONTINUOUS
  62
7
  10
 363.449
  20
 594.404
  30
0.0
  11
 362.644
  21
 594.960
  31
0.0
   0
LINE
   8
LEVEL003
   6
CONTINUOUS
  62
7
  10
 362.644
  20
 594.960
  30
0.0
  11
 361.771
  21
 595.417
  31
0.0
   0
LINE
   8
LEVEL003
   6
CONTINUOUS
  62
7
  10
 361.771
  20
 595.417
  30
0.0
  11
 360.844
  21
 595.768
  31
0.0
   0
LINE
   8
LEVEL003
   6
CONTINUOUS
  62
7
  10
 360.844
  20
 595.768
  30
0.0
  11
 359.878
  21
 596.008
  31
0.0
   0
LINE
   8
LEVEL003
   6
CONTINUOUS
  62
7
  10
 359.878
  20
 596.008
  30
0.0
  11
 358.887
  21
 596.133
  31
0.0
   0
LINE
   8
LEVEL003
   6
CONTINUOUS
  62
7
  10
 358.887
  20
 596.133
  30
0.0
  11
 357.888
  21
 596.141
  31
0.0
   0
LINE
   8
LEVEL003
   6
CONTINUOUS
  62
7
  10
 357.888
  20
 596.141
  30
0.0
  11
 356.895
  21
 596.031
  31
0.0
   0
LINE
   8
LEVEL003
   6
CONTINUOUS
  62
7
  10
 356.895
  20
 596.031
  30
0.0
  11
 355.925
  21
 595.807
  31
0.0
   0
LINE
   8
LEVEL003
   6
CONTINUOUS
  62
7
  10
 355.925
  20
 595.807
  30
0.0
  11
 354.992
  21
 595.470
  31
0.0
   0
LINE
   8
LEVEL003
   6
CONTINUOUS
  62
7
  10
 354.992
  20
 595.470
  30
0.0
  11
 354.111
  21
 595.026
  31
0.0
   0
LINE
   8
LEVEL003
   6
CONTINUOUS
  62
7
  10
 354.111
  20
 595.026
  30
0.0
  11
 353.296
  21
 594.483
  31
0.0
   0
LINE
   8
LEVEL003
   6
CONTINUOUS
  62
7
  10
 353.296
  20
 594.483
  30
0.0
  11
 352.559
  21
 593.849
  31
0.0
   0
LINE
   8
LEVEL003
   6
CONTINUOUS
  62
7
  10
 352.559
  20
 593.849
  30
0.0
  11
 351.912
  21
 593.133
  31
0.0
   0
LINE
   8
LEVEL003
   6
CONTINUOUS
  62
7
  10
 351.912
  20
 593.133
  30
0.0
  11
 351.365
  21
 592.347
  31
0.0
   0
LINE
   8
LEVEL003
   6
CONTINUOUS
  62
7
  10
 351.365
  20
 592.347
  30
0.0
  11
 350.927
  21
 591.503
  31
0.0
   0
LINE
   8
LEVEL003
   6
CONTINUOUS
  62
7
  10
 350.927
  20
 591.503
  30
0.0
  11
 350.604
  21
 590.615
  31
0.0
   0
LINE
   8
LEVEL003
   6
CONTINUOUS
  62
7
  10
 350.604
  20
 590.615
  30
0.0
  11
 350.402
  21
 589.695
  31
0.0
   0
LINE
   8
LEVEL003
   6
CONTINUOUS
  62
7
  10
 350.402
  20
 589.695
  30
0.0
  11
 350.323
  21
 588.759
  31
0.0
   0
LINE
   8
LEVEL003
   6
CONTINUOUS
  62
7
  10
 350.323
  20
 588.759
  30
0.0
  11
 350.368
  21
 587.821
  31
0.0
   0
LINE
   8
LEVEL003
   6
CONTINUOUS
  62
7
  10
 350.368
  20
 587.821
  30
0.0
  11
 350.538
  21
 586.895
  31
0.0
   0
LINE
   8
LEVEL003
   6
CONTINUOUS
  62
7
  10
 350.538
  20
 586.895
  30
0.0
  11
 350.830
  21
 585.997
  31
0.0
   0
LINE
   8
LEVEL003
   6
CONTINUOUS
  62
7
  10
 350.830
  20
 585.997
  30
0.0
  11
 351.238
  21
 585.140
  31
0.0
   0
LINE
   8
LEVEL003
   6
CONTINUOUS
  62
7
  10
 351.238
  20
 585.140
  30
0.0
  11
 351.757
  21
 584.337
  31
0.0
   0
LINE
   8
LEVEL003
   6
CONTINUOUS
  62
7
  10
 351.757
  20
 584.337
  30
0.0
  11
 352.378
  21
 583.602
  31
0.0
   0
LINE
   8
LEVEL003
   6
CONTINUOUS
  62
7
  10
 352.378
  20
 583.602
  30
0.0
  11
 353.092
  21
 582.945
  31
0.0
   0
LINE
   8
LEVEL003
   6
CONTINUOUS
  62
7
  10
 353.092
  20
 582.945
  30
0.0
  11
 353.888
  21
 582.377
  31
0.0
   0
LINE
   8
LEVEL003
   6
CONTINUOUS
  62
7
  10
 353.888
  20
 582.377
  30
0.0
  11
 354.753
  21
 581.906
  31
0.0
   0
LINE
   8
LEVEL003
   6
CONTINUOUS
  62
7
  10
 354.753
  20
 581.906
  30
0.0
  11
 355.673
  21
 581.540
  31
0.0
   0
LINE
   8
LEVEL003
   6
CONTINUOUS
  62
7
  10
 355.673
  20
 581.540
  30
0.0
  11
 356.635
  21
 581.286
  31
0.0
   0
LINE
   8
LEVEL003
   6
CONTINUOUS
  62
7
  10
 356.635
  20
 581.286
  30
0.0
  11
 357.623
  21
 581.145
  31
0.0
   0
LINE
   8
LEVEL003
   6
CONTINUOUS
  62
7
  10
 357.623
  20
 581.145
  30
0.0
  11
 358.622
  21
 581.122
  31
0.0
   0
LINE
   8
LEVEL003
   6
CONTINUOUS
  62
7
  10
 358.622
  20
 581.122
  30
0.0
  11
 359.617
  21
 581.216
  31
0.0
   0
LINE
   8
LEVEL003
   6
CONTINUOUS
  62
7
  10
 359.617
  20
 581.216
  30
0.0
  11
 360.591
  21
 581.425
  31
0.0
   0
LINE
   8
LEVEL003
   6
CONTINUOUS
  62
7
  10
 360.591
  20
 581.425
  30
0.0
  11
 361.529
  21
 581.748
  31
0.0
   0
LINE
   8
LEVEL003
   6
CONTINUOUS
  62
7
  10
 361.529
  20
 581.748
  30
0.0
  11
 362.418
  21
 582.177
  31
0.0
   0
LINE
   8
LEVEL003
   6
CONTINUOUS
  62
7
  10
 362.418
  20
 582.177
  30
0.0
  11
 363.243
  21
 582.707
  31
0.0
   0
LINE
   8
LEVEL003
   6
CONTINUOUS
  62
7
  10
 363.243
  20
 582.707
  30
0.0
  11
 363.991
  21
 583.330
  31
0.0
   0
LINE
   8
LEVEL003
   6
CONTINUOUS
  62
7
  10
 363.991
  20
 583.330
  30
0.0
  11
 364.650
  21
 584.036
  31
0.0
   0
LINE
   8
LEVEL003
   6
CONTINUOUS
  62
7
  10
 364.650
  20
 584.036
  30
0.0
  11
 365.211
  21
 584.813
  31
0.0
   0
LINE
   8
LEVEL003
   6
CONTINUOUS
  62
7
  10
 365.211
  20
 584.813
  30
0.0
  11
 365.664
  21
 585.650
  31
0.0
   0
LINE
   8
LEVEL003
   6
CONTINUOUS
  62
7
  10
 365.664
  20
 585.650
  30
0.0
  11
 366.003
  21
 586.534
  31
0.0
   0
LINE
   8
LEVEL003
   6
CONTINUOUS
  62
7
  10
 366.003
  20
 586.534
  30
0.0
  11
 366.222
  21
 587.450
  31
0.0
   0
LINE
   8
LEVEL003
   6
CONTINUOUS
  62
7
  10
 366.222
  20
 587.450
  30
0.0
  11
 366.317
  21
 588.385
  31
0.0
   0
LINE
   8
LEVEL003
   6
CONTINUOUS
  62
7
  10
 366.317
  20
 588.385
  30
0.0
  11
 366.321
  21
 588.634
  31
0.0
   0
LINE
   8
LEVEL003
   6
CONTINUOUS
  62
7
  10
 358.321
  20
 593.865
  30
0.0
  11
 363.321
  21
 591.521
  31
0.0
   0
LINE
   8
LEVEL003
   6
CONTINUOUS
  62
7
  10
 363.321
  20
 591.521
  30
0.0
  11
 363.321
  21
 585.747
  31
0.0
   0
LINE
   8
LEVEL003
   6
CONTINUOUS
  62
7
  10
 363.321
  20
 585.747
  30
0.0
  11
 358.321
  21
 583.403
  31
0.0
   0
LINE
   8
LEVEL003
   6
CONTINUOUS
  62
7
  10
 358.321
  20
 583.403
  30
0.0
  11
 353.321
  21
 585.747
  31
0.0
   0
LINE
   8
LEVEL003
   6
CONTINUOUS
  62
7
  10
 353.321
  20
 585.747
  30
0.0
  11
 353.321
  21
 591.521
  31
0.0
   0
LINE
   8
LEVEL003
   6
CONTINUOUS
  62
7
  10
 353.321
  20
 591.521
  30
0.0
  11
 358.321
  21
 593.865
  31
0.0
   0
LINE
   8
LEVEL003
   6
DASHDOT
  62
1
  10
 370.321
  20
 588.634
  30
0.0
  11
 346.321
  21
 588.634
  31
0.0
   0
LINE
   8
LEVEL003
   6
DASHDOT
  62
1
  10
 350.321
  20
 588.634
  30
0.0
  11
 326.321
  21
 588.634
  31
0.0
   0
LINE
   8
LEVEL001
   6
CONTINUOUS
  62
7
  10
 372.821
  20
 587.738
  30
0.0
  11
 372.821
  21
 604.238
  31
0.0
   0
LINE
   8
LEVEL001
   6
CONTINUOUS
  62
7
  10
 372.821
  20
 637.238
  30
0.0
  11
 372.821
  21
 653.738
  31
0.0
   0
LINE
   8
LEVEL001
   6
CONTINUOUS
  62
7
  10
 326.373
  20
 591.693
  30
0.0
  11
 326.605
  21
 590.301
  31
0.0
   0
LINE
   8
LEVEL001
   6
CONTINUOUS
  62
7
  10
 326.605
  20
 590.301
  30
0.0
  11
 327.020
  21
 588.948
  31
0.0
   0
LINE
   8
LEVEL001
   6
CONTINUOUS
  62
7
  10
 327.020
  20
 588.948
  30
0.0
  11
 327.611
  21
 587.653
  31
0.0
   0
LINE
   8
LEVEL001
   6
CONTINUOUS
  62
7
  10
 327.611
  20
 587.653
  30
0.0
  11
 328.369
  21
 586.438
  31
0.0
   0
LINE
   8
LEVEL001
   6
CONTINUOUS
  62
7
  10
 328.369
  20
 586.438
  30
0.0
  11
 329.283
  21
 585.321
  31
0.0
   0
LINE
   8
LEVEL001
   6
CONTINUOUS
  62
7
  10
 329.283
  20
 585.321
  30
0.0
  11
 330.337
  21
 584.320
  31
0.0
   0
LINE
   8
LEVEL001
   6
CONTINUOUS
  62
7
  10
 330.337
  20
 584.320
  30
0.0
  11
 331.211
  21
 583.655
  31
0.0
   0
LINE
   8
LEVEL001
   6
CONTINUOUS
  62
7
  10
 342.722
  20
 581.462
  30
0.0
  11
 353.921
  21
 581.462
  31
0.0
   0
LINE
   8
LEVEL001
   6
CONTINUOUS
  62
7
  10
 365.432
  20
 583.655
  30
0.0
  11
 366.582
  21
 584.559
  31
0.0
   0
LINE
   8
LEVEL001
   6
CONTINUOUS
  62
7
  10
 366.582
  20
 584.559
  30
0.0
  11
 367.603
  21
 585.591
  31
0.0
   0
LINE
   8
LEVEL001
   6
CONTINUOUS
  62
7
  10
 367.603
  20
 585.591
  30
0.0
  11
 368.479
  21
 586.734
  31
0.0
   0
LINE
   8
LEVEL001
   6
CONTINUOUS
  62
7
  10
 368.479
  20
 586.734
  30
0.0
  11
 369.196
  21
 587.970
  31
0.0
   0
LINE
   8
LEVEL001
   6
CONTINUOUS
  62
7
  10
 369.196
  20
 587.970
  30
0.0
  11
 369.744
  21
 589.282
  31
0.0
   0
LINE
   8
LEVEL001
   6
CONTINUOUS
  62
7
  10
 369.744
  20
 589.282
  30
0.0
  11
 370.113
  21
 590.647
  31
0.0
   0
LINE
   8
LEVEL001
   6
CONTINUOUS
  62
7
  10
 370.113
  20
 590.647
  30
0.0
  11
 370.270
  21
 591.693
  31
0.0
   0
LINE
   8
LEVEL001
   6
CONTINUOUS
  62
7
  10
 317.321
  20
 644.238
  30
0.0
  11
 318.321
  21
 645.238
  31
0.0
   0
LINE
   8
LEVEL001
   6
CONTINUOUS
  62
7
  10
 318.321
  20
 645.238
  30
0.0
  11
 326.321
  21
 645.238
  31
0.0
   0
LINE
   8
LEVEL001
   6
CONTINUOUS
  62
7
  10
 326.321
  20
 645.238
  30
0.0
  11
 327.321
  21
 644.238
  31
0.0
   0
LINE
   8
LEVEL001
   6
CONTINUOUS
  62
7
  10
 317.321
  20
 644.238
  30
0.0
  11
 327.321
  21
 644.238
  31
0.0
   0
LINE
   8
LEVEL001
   6
CONTINUOUS
  62
7
  10
 326.367
  20
 591.693
  30
0.0
  11
 325.969
  21
 596.238
  31
0.0
   0
ARC
   8
LEVEL001
   6
CONTINUOUS
  62
7
  10
 308.706
  20
 641.738
  30
0.0
  40
 0.800000
  50
 90.0000
  51
 270.000
   0
LINE
   8
LEVEL001
   6
CONTINUOUS
  62
7
  10
 308.706
  20
 642.538
  30
0.0
  11
 335.618
  21
 642.538
  31
0.0
   0
LINE
   8
LEVEL001
   6
CONTINUOUS
  62
7
  10
 308.706
  20
 640.938
  30
0.0
  11
 335.618
  21
 640.938
  31
0.0
   0
LINE
   8
LEVEL001
   6
CONTINUOUS
  62
7
  10
 335.618
  20
 642.538
  30
0.0
  11
 335.618
  21
 640.938
  31
0.0
   0
ARC
   8
LEVEL001
   6
CONTINUOUS
  62
7
  10
 333.436
  20
 641.738
  30
0.0
  40
 0.800000
  50
 270.000
  51
 90.0000
   0
LINE
   8
LEVEL001
   6
CONTINUOUS
  62
7
  10
 327.321
  20
 642.538
  30
0.0
  11
 327.321
  21
 644.238
  31
0.0
   0
LINE
   8
LEVEL001
   6
CONTINUOUS
  62
7
  10
 317.321
  20
 644.238
  30
0.0
  11
 317.321
  21
 642.538
  31
0.0
   0
LINE
   8
LEVEL003
   6
CONTINUOUS
  62
7
  10
 332.200
  20
 598.938
  30
0.0
  11
 331.426
  21
 598.173
  31
0.0
   0
LINE
   8
LEVEL003
   6
CONTINUOUS
  62
7
  10
 331.426
  20
 598.173
  30
0.0
  11
 330.758
  21
 597.323
  31
0.0
   0
LINE
   8
LEVEL003
   6
CONTINUOUS
  62
7
  10
 330.758
  20
 597.323
  30
0.0
  11
 330.209
  21
 596.401
  31
0.0
   0
LINE
   8
LEVEL003
   6
CONTINUOUS
  62
7
  10
 330.209
  20
 596.401
  30
0.0
  11
 329.787
  21
 595.422
  31
0.0
   0
LINE
   8
LEVEL003
   6
CONTINUOUS
  62
7
  10
 329.787
  20
 595.422
  30
0.0
  11
 329.497
  21
 594.401
  31
0.0
   0
LINE
   8
LEVEL003
   6
CONTINUOUS
  62
7
  10
 329.497
  20
 594.401
  30
0.0
  11
 329.345
  21
 593.354
  31
0.0
   0
LINE
   8
LEVEL003
   6
CONTINUOUS
  62
7
  10
 329.345
  20
 593.354
  30
0.0
  11
 329.321
  21
 592.738
  31
0.0
   0
LINE
   8
LEVEL001
   6
CONTINUOUS
  62
7
  10
 300.516
  20
 647.738
  30
0.0
  11
 322.973
  21
 647.738
  31
0.0
   0
LINE
   8
LEVEL001
   6
DASHDOT
  62
1
  10
 324.321
  20
 702.427
  30
0.0
  11
 324.321
  21
 650.476
  31
0.0
   0
LINE
   8
LEVEL001
   6
CONTINUOUS
  62
7
  10
 372.321
  20
 586.738
  30
0.0
  11
 372.821
  21
 587.238
  31
0.0
   0
LINE
   8
LEVEL001
   6
CONTINUOUS
  62
7
  10
 372.821
  20
 587.238
  30
0.0
  11
 372.821
  21
 588.238
  31
0.0
   0
ARC
   8
LEVEL001
   6
CONTINUOUS
  62
7
  10
 301.216
  20
 587.738
  30
0.0
  40
 2.00000
  50
 185.000
  51
 270.000
   0
LINE
   8
LEVEL001
   6
CONTINUOUS
  62
7
  10
 298.821
  20
 592.163
  30
0.0
  11
 299.224
  21
 587.564
  31
0.0
   0
LINE
   8
LEVEL001
   6
CONTINUOUS
  62
7
  10
 301.216
  20
 585.738
  30
0.0
  11
 328.914
  21
 585.738
  31
0.0
   0
LINE
   8
LEVEL001
   6
DASHDOT
  62
1
  10
 296.946
  20
 592.738
  30
0.0
  11
 366.199
  21
 592.738
  31
0.0
   0
LINE
   8
LEVEL001
   6
CONTINUOUS
  62
7
  10
 362.893
  20
 581.555
  30
0.0
  11
 362.171
  21
 573.303
  31
0.0
   0
LINE
   8
LEVEL003
   6
CONTINUOUS
  62
7
  10
 368.482
  20
 586.738
  30
0.0
  11
 372.321
  21
 586.738
  31
0.0
   0
LINE
   8
LEVEL001
   6
CONTINUOUS
  62
7
  10
 310.147
  20
 660.742
  30
0.0
  11
 309.408
  21
 652.303
  31
0.0
   0
ARC
   8
LEVEL001
   6
CONTINUOUS
  62
7
  10
 304.427
  20
 652.738
  30
0.0
  40
 5.00000
  50
 270.000
  51
 355.000
   0
LINE
   8
LEVEL001
   6
CONTINUOUS
  62
7
  10
 311.234
  20
 661.738
  30
0.0
  11
 310.147
  21
 660.742
  31
0.0
   0
LINE
   8
LEVEL001
   6
CONTINUOUS
  62
7
  10
 337.409
  20
 661.738
  30
0.0
  11
 338.496
  21
 660.742
  31
0.0
   0
LINE
   8
LEVEL001
   6
CONTINUOUS
  62
7
  10
 310.147
  20
 660.742
  30
0.0
  11
 338.496
  21
 660.742
  31
0.0
   0
LINE
   8
LEVEL001
   6
CONTINUOUS
  62
7
  10
 339.321
  20
 663.738
  30
0.0
  11
 357.978
  21
 663.738
  31
0.0
   0
LINE
   8
LEVEL001
   6
DASHDOT
  62
1
  10
 345.321
  20
 645.738
  30
0.0
  11
 345.321
  21
 595.738
  31
0.0
   0
LINE
   8
LEVEL001
   6
DASHDOT
  62
1
  10
 322.321
  20
 645.738
  30
0.0
  11
 322.321
  21
 595.738
  31
0.0
   0
ARC
   8
LEVEL060
   6
CONTINUOUS
  62
7
  10
 690.526
  20
 653.238
  30
0.0
  40
 5.00000
  50
 6.32509
  51
 90.0000
   0
ARC
   8
LEVEL060
   6
CONTINUOUS
  62
7
  10
 690.526
  20
 588.238
  30
0.0
  40
 5.00000
  50
 270.000
  51
 353.675
   0
ARC
   8
LEVEL060
   6
CONTINUOUS
  62
7
  10
 397.321
  20
 620.738
  30
0.0
  40
 300.000
  50
 353.675
  51
 6.32509
   0
LINE
   8
LEVEL060
   6
CONTINUOUS
  62
7
  10
 597.321
  20
 637.238
  30
0.0
  11
 597.321
  21
 604.238
  31
0.0
   0
LINE
   8
LEVEL060
   6
CONTINUOUS
  62
7
  10
 601.321
  20
 637.238
  30
0.0
  11
 601.321
  21
 604.238
  31
0.0
   0
ARC
   8
LEVEL060
   6
CONTINUOUS
  62
7
  10
 588.289
  20
 564.238
  30
0.0
  40
 40.0000
  50
 53.9087
  51
 90.0000
   0
ARC
   8
LEVEL060
   6
CONTINUOUS
  62
7
  10
 588.289
  20
 677.238
  30
0.0
  40
 40.0000
  50
 270.000
  51
 306.091
   0
LINE
   8
LEVEL060
   6
CONTINUOUS
  62
7
  10
 690.526
  20
 658.238
  30
0.0
  11
 638.274
  21
 658.238
  31
0.0
   0
ARC
   8
LEVEL060
   6
CONTINUOUS
  62
7
  10
 638.274
  20
 633.238
  30
0.0
  40
 25.0000
  50
 90.0000
  51
 126.091
   0
LINE
   8
LEVEL060
   6
CONTINUOUS
  62
7
  10
 623.547
  20
 653.440
  30
0.0
  11
 611.852
  21
 644.915
  31
0.0
   0
LINE
   8
LEVEL060
   6
CONTINUOUS
  62
7
  10
 611.852
  20
 596.562
  30
0.0
  11
 623.547
  21
 588.036
  31
0.0
   0
ARC
   8
LEVEL060
   6
CONTINUOUS
  62
7
  10
 638.274
  20
 608.238
  30
0.0
  40
 25.0000
  50
 233.909
  51
 270.000
   0
LINE
   8
LEVEL060
   6
CONTINUOUS
  62
7
  10
 690.526
  20
 583.238
  30
0.0
  11
 638.274
  21
 583.238
  31
0.0
   0
LINE
   8
LEVEL060
   6
CONTINUOUS
  62
7
  10
 588.289
  20
 637.238
  30
0.0
  11
 274.321
  21
 637.238
  31
0.0
   0
LINE
   8
LEVEL060
   6
CONTINUOUS
  62
7
  10
 588.289
  20
 604.238
  30
0.0
  11
 274.321
  21
 604.238
  31
0.0
   0
LINE
   8
LEVEL060
   6
DASHDOT
  62
1
  10
 495.321
  20
 630.738
  30
0.0
  11
 495.321
  21
 610.738
  31
0.0
   0
LINE
   8
LEVEL060
   6
CONTINUOUS
  62
7
  10
 274.321
  20
 637.238
  30
0.0
  11
 274.321
  21
 630.738
  31
0.0
   0
LINE
   8
LEVEL060
   6
CONTINUOUS
  62
7
  10
 274.321
  20
 610.738
  30
0.0
  11
 274.321
  21
 604.238
  31
0.0
   0
LINE
   8
LEVEL060
   6
CONTINUOUS
  62
7
  10
 358.321
  20
 639.238
  30
0.0
  11
 309.321
  21
 639.238
  31
0.0
   0
LINE
   8
LEVEL060
   6
CONTINUOUS
  62
7
  10
 358.321
  20
 602.238
  30
0.0
  11
 309.321
  21
 602.238
  31
0.0
   0
LINE
   8
LEVEL060
   6
DASHDOT
  62
1
  10
 345.321
  20
 645.738
  30
0.0
  11
 345.321
  21
 595.738
  31
0.0
   0
LINE
   8
LEVEL060
   6
DASHDOT
  62
1
  10
 322.321
  20
 645.738
  30
0.0
  11
 322.321
  21
 595.738
  31
0.0
   0
ARC
   8
LEVEL060
   6
CONTINUOUS
  62
7
  10
 307.321
  20
 639.238
  30
0.0
  40
 2.00000
  50
 270.000
  51
 0.175872E-9
   0
ARC
   8
LEVEL060
   6
CONTINUOUS
  62
7
  10
 360.321
  20
 639.238
  30
0.0
  40
 2.00000
  50
 180.000
  51
 270.000
   0
ARC
   8
LEVEL060
   6
CONTINUOUS
  62
7
  10
 360.321
  20
 602.238
  30
0.0
  40
 2.00000
  50
 90.0000
  51
 180.000
   0
ARC
   8
LEVEL060
   6
CONTINUOUS
  62
7
  10
 307.321
  20
 602.238
  30
0.0
  40
 2.00000
  50
0.0
  51
 90.0000
   0
LINE
   8
LEVEL060
   6
CONTINUOUS
  62
7
  10
 285.421
  20
 630.738
  30
0.0
  11
 274.321
  21
 630.738
  31
0.0
   0
ARC
   8
LEVEL060
   6
CONTINUOUS
  62
7
  10
 285.421
  20
 625.738
  30
0.0
  40
 5.00000
  50
0.0
  51
 90.0000
   0
LINE
   8
LEVEL060
   6
CONTINUOUS
  62
7
  10
 290.421
  20
 625.738
  30
0.0
  11
 290.421
  21
 615.738
  31
0.0
   0
ARC
   8
LEVEL060
   6
CONTINUOUS
  62
7
  10
 285.421
  20
 615.738
  30
0.0
  40
 5.00000
  50
 270.000
  51
0.0
   0
LINE
   8
LEVEL060
   6
CONTINUOUS
  62
7
  10
 285.421
  20
 610.738
  30
0.0
  11
 274.321
  21
 610.738
  31
0.0
   0
LINE
   8
LEVEL001
   6
CONTINUOUS
  62
7
  10
 298.821
  20
 646.800
  30
0.0
  11
 298.821
  21
 637.238
  31
0.0
   0
LINE
   8
LEVEL001
   6
CONTINUOUS
  62
7
  10
 298.821
  20
 604.238
  30
0.0
  11
 298.821
  21
 592.163
  31
0.0
   0
ARC
   8
LEVEL087
   6
CONTINUOUS
  62
7
  10
 279.321
  20
 679.738
  30
0.0
  40
 16.0000
  50
 90.0000
  51
 180.000
   0
LINE
   8
LEVEL087
   6
CONTINUOUS
  62
7
  10
 263.321
  20
 679.738
  30
0.0
  11
 263.321
  21
 561.738
  31
0.0
   0
ARC
   8
LEVEL087
   6
CONTINUOUS
  62
7
  10
 279.321
  20
 561.738
  30
0.0
  40
 16.0000
  50
 180.000
  51
 270.000
   0
LINE
   8
LEVEL087
   6
CONTINUOUS
  62
7
  10
 279.321
  20
 545.738
  30
0.0
  11
 684.321
  21
 545.738
  31
0.0
   0
LINE
   8
LEVEL087
   6
CONTINUOUS
  62
7
  10
 680.813
  20
 662.829
  30
0.0
  11
 687.207
  21
 664.001
  31
0.0
   0
ARC
   8
LEVEL087
   6
CONTINUOUS
  62
7
  10
 684.321
  20
 679.738
  30
0.0
  40
 16.0000
  50
 280.389
  51
 90.0000
   0
LINE
   8
LEVEL087
   6
CONTINUOUS
  62
7
  10
 680.813
  20
 578.648
  30
0.0
  11
 687.207
  21
 577.476
  31
0.0
   0
ARC
   8
LEVEL087
   6
CONTINUOUS
  62
7
  10
 684.321
  20
 561.738
  30
0.0
  40
 16.0000
  50
 270.000
  51
 79.6111
   0
ARC
   8
LEVEL087
   6
CONTINUOUS
  62
7
  10
 531.321
  20
 677.738
  30
0.0
  40
 3.00000
  50
 90.0000
  51
 180.000
   0
LINE
   8
LEVEL087
   6
CONTINUOUS
  62
7
  10
 531.321
  20
 680.738
  30
0.0
  11
 553.321
  21
 680.738
  31
0.0
   0
ARC
   8
LEVEL087
   6
CONTINUOUS
  62
7
  10
 553.321
  20
 677.738
  30
0.0
  40
 3.00000
  50
 0.303976E-10
  51
 90.0000
   0
LINE
   8
LEVEL087
   6
CONTINUOUS
  62
7
  10
 556.321
  20
 677.738
  30
0.0
  11
 556.321
  21
 658.738
  31
0.0
   0
ARC
   8
LEVEL087
   6
CONTINUOUS
  62
7
  10
 531.321
  20
 563.738
  30
0.0
  40
 3.00000
  50
 180.000
  51
 270.000
   0
LINE
   8
LEVEL087
   6
CONTINUOUS
  62
7
  10
 531.321
  20
 560.738
  30
0.0
  11
 553.321
  21
 560.738
  31
0.0
   0
ARC
   8
LEVEL087
   6
CONTINUOUS
  62
7
  10
 553.321
  20
 563.738
  30
0.0
  40
 3.00000
  50
 270.000
  51
 0.260551E-10
   0
LINE
   8
LEVEL087
   6
CONTINUOUS
  62
7
  10
 556.321
  20
 563.738
  30
0.0
  11
 556.321
  21
 582.738
  31
0.0
   0
LINE
   8
LEVEL087
   6
DASHDOT
  62
1
  10
 253.396
  20
 620.738
  30
0.0
  11
 708.540
  21
 620.738
  31
0.0
   0
LINE
   8
LEVEL001
   6
CONTINUOUS
  62
7
  10
 282.321
  20
 610.738
  30
0.0
  11
 282.321
  21
 630.738
  31
0.0
   0
LINE
   8
LEVEL003
   6
DASHDOT
  62
1
  10
 298.518
  20
 633.553
  30
0.0
  11
 298.518
  21
 607.923
  31
0.0
   0
CIRCLE
   8
LEVEL003
   6
CONTINUOUS
  62
7
  10
 298.518
  20
 620.738
  30
0.0
  40
 8.50000
   0
LINE
   8
LEVEL003
   6
CONTINUOUS
  62
7
  10
 288.703
  20
 620.738
  30
0.0
  11
 293.610
  21
 629.238
  31
0.0
   0
LINE
   8
LEVEL003
   6
CONTINUOUS
  62
7
  10
 293.610
  20
 629.238
  30
0.0
  11
 303.425
  21
 629.238
  31
0.0
   0
LINE
   8
LEVEL003
   6
CONTINUOUS
  62
7
  10
 303.425
  20
 629.238
  30
0.0
  11
 308.333
  21
 620.738
  31
0.0
   0
LINE
   8
LEVEL003
   6
CONTINUOUS
  62
7
  10
 308.333
  20
 620.738
  30
0.0
  11
 303.425
  21
 612.238
  31
0.0
   0
LINE
   8
LEVEL003
   6
CONTINUOUS
  62
7
  10
 303.425
  20
 612.238
  30
0.0
  11
 293.610
  21
 612.238
  31
0.0
   0
LINE
   8
LEVEL003
   6
CONTINUOUS
  62
7
  10
 293.610
  20
 612.238
  30
0.0
  11
 288.703
  21
 620.738
  31
0.0
   0
LINE
   8
LEVEL001
   6
CONTINUOUS
  62
7
  10
 337.321
  20
 661.738
  30
0.0
  11
 337.321
  21
 671.738
  31
0.0
   0
LINE
   8
LEVEL001
   6
CONTINUOUS
  62
7
  10
 337.321
  20
 671.738
  30
0.0
  11
 311.321
  21
 671.738
  31
0.0
   0
LINE
   8
LEVEL001
   6
CONTINUOUS
  62
7
  10
 311.321
  20
 671.738
  30
0.0
  11
 311.321
  21
 661.738
  31
0.0
   0
LINE
   8
LEVEL001
   6
CONTINUOUS
  62
7
  10
 311.321
  20
 661.738
  30
0.0
  11
 337.321
  21
 661.738
  31
0.0
   0
ARC
   8
LEVEL001
   6
CONTINUOUS
  62
7
  10
 317.821
  20
 652.965
  30
0.0
  40
 18.7736
  50
 69.7430
  51
 110.257
   0
LINE
   8
LEVEL001
   6
DASHDOT
  62
1
  10
 305.583
  20
 690.738
  30
0.0
  11
 350.583
  21
 690.738
  31
0.0
   0
ARC
   8
LEVEL001
   6
CONTINUOUS
  62
7
  10
 309.321
  20
 699.738
  30
0.0
  40
 1.00000
  50
 89.9996
  51
 180.002
   0
ARC
   8
LEVEL001
   6
CONTINUOUS
  62
7
  10
 309.321
  20
 675.738
  30
0.0
  40
 1.00000
  50
 179.998
  51
 270.000
   0
LINE
   8
LEVEL001
   6
CONTINUOUS
  62
7
  10
 308.321
  20
 699.738
  30
0.0
  11
 308.321
  21
 675.738
  31
0.0
   0
LINE
   8
LEVEL001
   6
CONTINUOUS
  62
7
  10
 309.321
  20
 674.738
  30
0.0
  11
 339.321
  21
 674.738
  31
0.0
   0
LINE
   8
LEVEL001
   6
CONTINUOUS
  62
7
  10
 324.321
  20
 693.048
  30
0.0
  11
 326.321
  21
 691.893
  31
0.0
   0
LINE
   8
LEVEL001
   6
CONTINUOUS
  62
7
  10
 326.321
  20
 691.893
  30
0.0
  11
 326.321
  21
 689.584
  31
0.0
   0
LINE
   8
LEVEL001
   6
CONTINUOUS
  62
7
  10
 326.321
  20
 689.584
  30
0.0
  11
 324.321
  21
 688.429
  31
0.0
   0
LINE
   8
LEVEL001
   6
CONTINUOUS
  62
7
  10
 324.321
  20
 688.429
  30
0.0
  11
 322.321
  21
 689.584
  31
0.0
   0
LINE
   8
LEVEL001
   6
CONTINUOUS
  62
7
  10
 322.321
  20
 689.584
  30
0.0
  11
 322.321
  21
 691.893
  31
0.0
   0
LINE
   8
LEVEL001
   6
CONTINUOUS
  62
7
  10
 322.321
  20
 691.893
  30
0.0
  11
 324.321
  21
 693.048
  31
0.0
   0
CIRCLE
   8
LEVEL001
   6
CONTINUOUS
  62
7
  10
 324.321
  20
 690.738
  30
0.0
  40
 4.00000
   0
CIRCLE
   8
LEVEL001
   6
CONTINUOUS
  62
3
  10
 324.321
  20
 690.738
  30
0.0
  40
 3.37500
   0
LINE
   8
LEVEL001
   6
CONTINUOUS
  62
7
  10
 309.321
  20
 700.738
  30
0.0
  11
 365.654
  21
 700.738
  31
0.0
   0
ARC
   8
LEVEL001
   6
CONTINUOUS
  62
7
  10
 334.321
  20
 672.738
  30
0.0
  40
 10.0000
  50
 90.0000
  51
 143.130
   0
LINE
   8
LEVEL001
   6
CONTINUOUS
  62
7
  10
 340.321
  20
 682.738
  30
0.0
  11
 340.321
  21
 675.738
  31
0.0
   0
ARC
   8
LEVEL001
   6
CONTINUOUS
  62
7
  10
 365.654
  20
 745.738
  30
0.0
  40
 45.0000
  50
 270.000
  51
 320.208
   0
ARC
   8
LEVEL001
   6
CONTINUOUS
  62
7
  10
 404.072
  20
 713.738
  30
0.0
  40
 5.00000
  50
 90.0002
  51
 140.208
   0
ARC
   8
LEVEL001
   6
CONTINUOUS
  62
7
  10
 477.072
  20
 716.738
  30
0.0
  40
 2.00000
  50
 0.875970E-3
  51
 90.0004
   0
LINE
   8
LEVEL001
   6
CONTINUOUS
  62
7
  10
 404.072
  20
 718.738
  30
0.0
  11
 477.072
  21
 718.738
  31
0.0
   0
ARC
   8
LEVEL001
   6
CONTINUOUS
  62
7
  10
 477.072
  20
 684.738
  30
0.0
  40
 2.00000
  50
 270.000
  51
0.0
   0
LINE
   8
LEVEL001
   6
CONTINUOUS
  62
7
  10
 479.072
  20
 716.738
  30
0.0
  11
 479.072
  21
 684.738
  31
0.0
   0
LINE
   8
LEVEL001
   6
CONTINUOUS
  62
7
  10
 334.321
  20
 682.738
  30
0.0
  11
 477.072
  21
 682.738
  31
0.0
   0
LINE
   8
LEVEL001
   6
CONTINUOUS
  62
7
  10
 473.072
  20
 718.738
  30
0.0
  11
 473.072
  21
 682.738
  31
0.0
   0
LINE
   8
LEVEL001
   6
CONTINUOUS
  62
7
  10
 468.072
  20
 718.738
  30
0.0
  11
 468.072
  21
 682.738
  31
0.0
   0
LINE
   8
LEVEL001
   6
CONTINUOUS
  62
7
  10
 463.072
  20
 718.738
  30
0.0
  11
 463.072
  21
 682.738
  31
0.0
   0
LINE
   8
LEVEL001
   6
CONTINUOUS
  62
7
  10
 458.072
  20
 718.738
  30
0.0
  11
 458.072
  21
 682.738
  31
0.0
   0
LINE
   8
LEVEL001
   6
CONTINUOUS
  62
7
  10
 453.072
  20
 718.738
  30
0.0
  11
 453.072
  21
 682.738
  31
0.0
   0
LINE
   8
LEVEL001
   6
CONTINUOUS
  62
7
  10
 448.072
  20
 718.738
  30
0.0
  11
 448.072
  21
 682.738
  31
0.0
   0
LINE
   8
LEVEL001
   6
CONTINUOUS
  62
7
  10
 443.072
  20
 718.738
  30
0.0
  11
 443.072
  21
 682.738
  31
0.0
   0
LINE
   8
LEVEL001
   6
CONTINUOUS
  62
7
  10
 438.072
  20
 718.738
  30
0.0
  11
 438.072
  21
 682.738
  31
0.0
   0
LINE
   8
LEVEL001
   6
CONTINUOUS
  62
7
  10
 433.072
  20
 718.738
  30
0.0
  11
 433.072
  21
 682.738
  31
0.0
   0
LINE
   8
LEVEL001
   6
CONTINUOUS
  62
7
  10
 428.072
  20
 718.738
  30
0.0
  11
 428.072
  21
 682.738
  31
0.0
   0
LINE
   8
LEVEL001
   6
CONTINUOUS
  62
7
  10
 423.072
  20
 718.738
  30
0.0
  11
 423.072
  21
 682.738
  31
0.0
   0
LINE
   8
LEVEL001
   6
CONTINUOUS
  62
7
  10
 418.072
  20
 718.738
  30
0.0
  11
 418.072
  21
 682.738
  31
0.0
   0
LINE
   8
LEVEL001
   6
CONTINUOUS
  62
7
  10
 413.072
  20
 718.738
  30
0.0
  11
 413.072
  21
 682.738
  31
0.0
   0
LINE
   8
LEVEL001
   6
CONTINUOUS
  62
7
  10
 408.072
  20
 718.738
  30
0.0
  11
 408.072
  21
 682.738
  31
0.0
   0
ARC
   8
LEVEL001
   6
CONTINUOUS
  62
7
  10
 330.821
  20
 652.965
  30
0.0
  40
 18.7736
  50
 69.7430
  51
 110.257
   0
LINE
   8
LEVEL001
   6
CONTINUOUS
  62
7
  10
 324.321
  20
 661.738
  30
0.0
  11
 324.321
  21
 670.577
  31
0.0
   0
LINE
   8
LEVEL001
   6
CONTINUOUS
  62
7
  10
 318.321
  20
 671.738
  30
0.0
  11
 318.321
  21
 674.738
  31
0.0
   0
LINE
   8
LEVEL001
   6
CONTINUOUS
  62
7
  10
 330.321
  20
 671.738
  30
0.0
  11
 330.321
  21
 674.738
  31
0.0
   0
ARC
   8
LEVEL001
   6
CONTINUOUS
  62
7
  10
 339.321
  20
 675.738
  30
0.0
  40
 1.00000
  50
 270.000
  51
 0.174682E-2
   0
LINE
   8
LEVEL060
   6
CONTINUOUS
  62
7
  10
 635.129
  20
 658.238
  30
0.0
  11
 635.129
  21
 583.238
  31
0.0
   0
LINE
   8
LEVEL060
   6
CONTINUOUS
  62
7
  10
 640.129
  20
 583.238
  30
0.0
  11
 640.129
  21
 658.238
  31
0.0
   0
LINE
   8
LEVEL060
   6
CONTINUOUS
  62
7
  10
 645.129
  20
 658.238
  30
0.0
  11
 645.129
  21
 583.238
  31
0.0
   0
LINE
   8
LEVEL060
   6
CONTINUOUS
  62
7
  10
 650.129
  20
 583.238
  30
0.0
  11
 650.129
  21
 658.238
  31
0.0
   0
LINE
   8
LEVEL060
   6
CONTINUOUS
  62
7
  10
 655.129
  20
 583.238
  30
0.0
  11
 655.129
  21
 658.238
  31
0.0
   0
LINE
   8
LEVEL060
   6
CONTINUOUS
  62
7
  10
 660.129
  20
 583.238
  30
0.0
  11
 660.129
  21
 658.238
  31
0.0
   0
LINE
   8
LEVEL060
   6
CONTINUOUS
  62
7
  10
 665.129
  20
 583.238
  30
0.0
  11
 665.129
  21
 658.238
  31
0.0
   0
LINE
   8
LEVEL060
   6
CONTINUOUS
  62
7
  10
 685.129
  20
 583.238
  30
0.0
  11
 685.129
  21
 658.238
  31
0.0
   0
LINE
   8
LEVEL060
   6
CONTINUOUS
  62
7
  10
 680.129
  20
 583.238
  30
0.0
  11
 680.129
  21
 658.238
  31
0.0
   0
LINE
   8
LEVEL060
   6
CONTINUOUS
  62
7
  10
 675.129
  20
 583.238
  30
0.0
  11
 675.129
  21
 658.238
  31
0.0
   0
LINE
   8
LEVEL060
   6
CONTINUOUS
  62
7
  10
 670.129
  20
 583.238
  30
0.0
  11
 670.129
  21
 658.238
  31
0.0
   0
ARC
   8
LEVEL001
   6
CONTINUOUS
  62
7
  10
 542.321
  20
 650.738
  30
0.0
  40
 10.0000
  50
0.0
  51
 89.9999
   0
ARC
   8
LEVEL001
   6
CONTINUOUS
  62
7
  10
 547.737
  20
 673.238
  30
0.0
  40
 5.00000
  50
 4.96996
  51
 90.0000
   0
ARC
   8
LEVEL001
   6
CONTINUOUS
  62
7
  10
 536.905
  20
 673.238
  30
0.0
  40
 5.00000
  50
 90.0000
  51
 175.030
   0
LINE
   8
LEVEL001
   6
CONTINUOUS
  62
7
  10
 547.737
  20
 678.238
  30
0.0
  11
 536.905
  21
 678.238
  31
0.0
   0
LINE
   8
LEVEL001
   6
CONTINUOUS
  62
7
  10
 530.800
  20
 660.738
  30
0.0
  11
 531.924
  21
 673.672
  31
0.0
   0
CIRCLE
   8
LEVEL001
   6
CONTINUOUS
  62
7
  10
 542.321
  20
 668.738
  30
0.0
  40
 7.00000
   0
LINE
   8
LEVEL001
   6
CONTINUOUS
  62
7
  10
 555.887
  20
 637.238
  30
0.0
  11
 552.719
  21
 673.672
  31
0.0
   0
LINE
   8
LEVEL001
   6
CONTINUOUS
  62
7
  10
 542.321
  20
 672.202
  30
0.0
  11
 545.321
  21
 670.471
  31
0.0
   0
LINE
   8
LEVEL001
   6
CONTINUOUS
  62
7
  10
 545.321
  20
 670.471
  30
0.0
  11
 545.321
  21
 667.006
  31
0.0
   0
LINE
   8
LEVEL001
   6
CONTINUOUS
  62
7
  10
 545.321
  20
 667.006
  30
0.0
  11
 542.321
  21
 665.274
  31
0.0
   0
LINE
   8
LEVEL001
   6
CONTINUOUS
  62
7
  10
 542.321
  20
 665.274
  30
0.0
  11
 539.321
  21
 667.006
  31
0.0
   0
LINE
   8
LEVEL001
   6
CONTINUOUS
  62
7
  10
 539.321
  20
 667.006
  30
0.0
  11
 539.321
  21
 670.470
  31
0.0
   0
LINE
   8
LEVEL001
   6
CONTINUOUS
  62
7
  10
 539.321
  20
 670.470
  30
0.0
  11
 542.321
  21
 672.202
  31
0.0
   0
CIRCLE
   8
LEVEL001
   6
CONTINUOUS
  62
7
  10
 542.321
  20
 668.738
  30
0.0
  40
 6.50000
   0
CIRCLE
   8
LEVEL001
   6
CONTINUOUS
  62
7
  10
 542.321
  20
 668.738
  30
0.0
  40
 5.80718
   0
LINE
   8
LEVEL001
   6
DASHDOT
  62
1
  10
 551.821
  20
 668.738
  30
0.0
  11
 532.821
  21
 668.738
  31
0.0
   0
LINE
   8
LEVEL001
   6
DASHDOT
  62
1
  10
 542.321
  20
 678.238
  30
0.0
  11
 542.321
  21
 659.238
  31
0.0
   0
LINE
   8
LEVEL001
   6
CONTINUOUS
  62
7
  10
 552.321
  20
 637.238
  30
0.0
  11
 552.321
  21
 650.738
  31
0.0
   0
ARC
   8
LEVEL001
   6
CONTINUOUS
  62
7
  10
 542.321
  20
 590.738
  30
0.0
  40
 10.0000
  50
 270.000
  51
 0.172121E-3
   0
ARC
   8
LEVEL001
   6
CONTINUOUS
  62
7
  10
 547.737
  20
 568.238
  30
0.0
  40
 5.00000
  50
 270.000
  51
 355.030
   0
ARC
   8
LEVEL001
   6
CONTINUOUS
  62
7
  10
 536.905
  20
 568.238
  30
0.0
  40
 5.00000
  50
 184.969
  51
 270.000
   0
LINE
   8
LEVEL001
   6
CONTINUOUS
  62
7
  10
 547.737
  20
 563.238
  30
0.0
  11
 536.905
  21
 563.238
  31
0.0
   0
LINE
   8
LEVEL001
   6
CONTINUOUS
  62
7
  10
 531.924
  20
 567.805
  30
0.0
  11
 530.800
  21
 580.738
  31
0.0
   0
LINE
   8
LEVEL001
   6
CONTINUOUS
  62
7
  10
 542.321
  20
 580.738
  30
0.0
  11
 404.321
  21
 580.738
  31
0.0
   0
CIRCLE
   8
LEVEL001
   6
CONTINUOUS
  62
7
  10
 542.321
  20
 572.738
  30
0.0
  40
 7.00000
   0
LINE
   8
LEVEL001
   6
CONTINUOUS
  62
7
  10
 555.887
  20
 604.238
  30
0.0
  11
 552.719
  21
 567.805
  31
0.0
   0
LINE
   8
LEVEL001
   6
CONTINUOUS
  62
7
  10
 542.321
  20
 576.202
  30
0.0
  11
 545.321
  21
 574.471
  31
0.0
   0
LINE
   8
LEVEL001
   6
CONTINUOUS
  62
7
  10
 545.321
  20
 574.471
  30
0.0
  11
 545.321
  21
 571.006
  31
0.0
   0
LINE
   8
LEVEL001
   6
CONTINUOUS
  62
7
  10
 545.321
  20
 571.006
  30
0.0
  11
 542.321
  21
 569.274
  31
0.0
   0
LINE
   8
LEVEL001
   6
CONTINUOUS
  62
7
  10
 542.321
  20
 569.274
  30
0.0
  11
 539.321
  21
 571.006
  31
0.0
   0
LINE
   8
LEVEL001
   6
CONTINUOUS
  62
7
  10
 539.321
  20
 571.006
  30
0.0
  11
 539.321
  21
 574.470
  31
0.0
   0
LINE
   8
LEVEL001
   6
CONTINUOUS
  62
7
  10
 539.321
  20
 574.470
  30
0.0
  11
 542.321
  21
 576.202
  31
0.0
   0
CIRCLE
   8
LEVEL001
   6
CONTINUOUS
  62
7
  10
 542.321
  20
 572.738
  30
0.0
  40
 6.50000
   0
CIRCLE
   8
LEVEL001
   6
CONTINUOUS
  62
7
  10
 542.321
  20
 572.738
  30
0.0
  40
 5.80718
   0
LINE
   8
LEVEL001
   6
DASHDOT
  62
1
  10
 551.821
  20
 572.738
  30
0.0
  11
 532.821
  21
 572.738
  31
0.0
   0
LINE
   8
LEVEL001
   6
DASHDOT
  62
1
  10
 542.321
  20
 582.238
  30
0.0
  11
 542.321
  21
 563.238
  31
0.0
   0
LINE
   8
LEVEL001
   6
CONTINUOUS
  62
7
  10
 552.321
  20
 590.738
  30
0.0
  11
 552.321
  21
 604.238
  31
0.0
   0
LINE
   8
LEVEL050
   6
DASHDOT
  62
1
  10
 543.321
  20
 638.738
  30
0.0
  11
 513.321
  21
 638.738
  31
0.0
   0
ARC
   8
LEVEL003
   6
DASHDOT
  62
1
  10
 528.321
  20
 638.738
  30
0.0
  40
 9.00000
  50
 350.406
  51
 189.594
   0
ARC
   8
LEVEL050
   6
CONTINUOUS
  62
7
  10
 528.321
  20
 638.738
  30
0.0
  40
 10.0000
  50
 351.373
  51
 188.627
   0
LINE
   8
LEVEL050
   6
DASHDOT
  62
1
  10
 528.321
  20
 653.738
  30
0.0
  11
 528.321
  21
 631.528
  31
0.0
   0
ARC
   8
LEVEL001
   6
CONTINUOUS
  62
7
  10
 396.321
  20
 654.738
  30
0.0
  40
 5.00000
  50
 270.000
  51
 354.261
   0
ARC
   8
LEVEL001
   6
CONTINUOUS
  62
7
  10
 406.321
  20
 655.738
  30
0.0
  40
 5.00000
  50
 90.0000
  51
 180.000
   0
LINE
   8
LEVEL001
   6
CONTINUOUS
  62
7
  10
 542.321
  20
 660.738
  30
0.0
  11
 406.321
  21
 660.738
  31
0.0
   0
ARC
   8
LEVEL001
   6
CONTINUOUS
  62
7
  10
 396.321
  20
 586.738
  30
0.0
  40
 5.00000
  50
 5.73917
  51
 90.0000
   0
ARC
   8
LEVEL001
   6
CONTINUOUS
  62
7
  10
 406.321
  20
 585.738
  30
0.0
  40
 5.00000
  50
 180.000
  51
 270.000
   0
LINE
   8
LEVEL001
   6
CONTINUOUS
  62
7
  10
 401.321
  20
 585.738
  30
0.0
  11
 401.321
  21
 604.238
  31
0.0
   0
LINE
   8
LEVEL001
   6
CONTINUOUS
  62
7
  10
 401.321
  20
 655.738
  30
0.0
  11
 401.321
  21
 637.238
  31
0.0
   0
LINE
   8
LEVEL081
   6
CONTINUOUS
  62
7
  10
 307.321
  20
 693.238
  30
0.0
  11
 307.321
  21
 682.238
  31
0.0
   0
LINE
   8
LEVEL087
   6
CONTINUOUS
  62
7
  10
 307.321
  20
 692.738
  30
0.0
  11
 307.321
  21
 658.738
  31
0.0
   0
ARC
   8
LEVEL087
   6
CONTINUOUS
  62
7
  10
 595.321
  20
 640.738
  30
0.0
  40
 15.0000
  50
 14.1800
  51
 90.0000
   0
ARC
   8
LEVEL087
   6
CONTINUOUS
  62
7
  10
 595.321
  20
 600.738
  30
0.0
  40
 15.0000
  50
 270.000
  51
 348.751
   0
ARC
   8
LEVEL087
   6
CONTINUOUS
  62
7
  10
 685.321
  20
 638.238
  30
0.0
  40
 25.0000
  50
 100.389
  51
 127.221
   0
ARC
   8
LEVEL087
   6
CONTINUOUS
  62
7
  10
 685.321
  20
 603.238
  30
0.0
  40
 25.0000
  50
 233.130
  51
 259.611
   0
LINE
   8
LEVEL087
   6
CONTINUOUS
  62
7
  10
 528.321
  20
 660.738
  30
0.0
  11
 528.321
  21
 677.738
  31
0.0
   0
LINE
   8
LEVEL087
   6
CONTINUOUS
  62
7
  10
 554.278
  20
 655.738
  30
0.0
  11
 595.321
  21
 655.738
  31
0.0
   0
ARC
   8
LEVEL087
   6
CONTINUOUS
  62
7
  10
 553.321
  20
 658.738
  30
0.0
  40
 3.00000
  50
 288.326
  51
 0.803366E-10
   0
LINE
   8
LEVEL087
   6
CONTINUOUS
  62
7
  10
 554.265
  20
 585.738
  30
0.0
  11
 595.321
  21
 585.738
  31
0.0
   0
ARC
   8
LEVEL087
   6
CONTINUOUS
  62
7
  10
 553.321
  20
 582.738
  30
0.0
  40
 3.00000
  50
 0.651378E-11
  51
 72.5453
   0
LINE
   8
LEVEL087
   6
CONTINUOUS
  62
7
  10
 528.321
  20
 580.738
  30
0.0
  11
 528.321
  21
 563.738
  31
0.0
   0
LINE
   8
LEVEL087
   6
CONTINUOUS
  62
7
  10
 279.321
  20
 695.738
  30
0.0
  11
 308.321
  21
 695.738
  31
0.0
   0
LINE
   8
LEVEL087
   6
CONTINUOUS
  62
7
  10
 479.072
  20
 695.738
  30
0.0
  11
 684.321
  21
 695.738
  31
0.0
   0
LINE
   8
LEVEL087
   6
CONTINUOUS
  62
7
  10
 367.321
  20
 585.738
  30
0.0
  11
 401.321
  21
 585.738
  31
0.0
   0
LINE
   8
LEVEL001
   6
CONTINUOUS
  62
7
  10
 317.321
  20
 550.738
  30
0.0
  11
 367.321
  21
 550.738
  31
0.0
   0
LINE
   8
LEVEL001
   6
CONTINUOUS
  62
7
  10
 367.321
  20
 585.738
  30
0.0
  11
 367.321
  21
 550.738
  31
0.0
   0
LINE
   8
LEVEL001
   6
CONTINUOUS
  62
7
  10
 317.321
  20
 585.738
  30
0.0
  11
 317.321
  21
 550.738
  31
0.0
   0
LINE
   8
LEVEL001
   6
CONTINUOUS
  62
7
  10
 342.321
  20
 564.203
  30
0.0
  11
 345.321
  21
 562.470
  31
0.0
   0
LINE
   8
LEVEL001
   6
CONTINUOUS
  62
7
  10
 345.321
  20
 562.470
  30
0.0
  11
 345.321
  21
 559.006
  31
0.0
   0
LINE
   8
LEVEL001
   6
CONTINUOUS
  62
7
  10
 345.321
  20
 559.006
  30
0.0
  11
 342.321
  21
 557.274
  31
0.0
   0
LINE
   8
LEVEL001
   6
CONTINUOUS
  62
7
  10
 342.321
  20
 557.274
  30
0.0
  11
 339.321
  21
 559.006
  31
0.0
   0
LINE
   8
LEVEL001
   6
CONTINUOUS
  62
7
  10
 339.321
  20
 559.006
  30
0.0
  11
 339.321
  21
 562.470
  31
0.0
   0
LINE
   8
LEVEL001
   6
CONTINUOUS
  62
7
  10
 339.321
  20
 562.470
  30
0.0
  11
 342.321
  21
 564.203
  31
0.0
   0
CIRCLE
   8
LEVEL001
   6
CONTINUOUS
  62
7
  10
 342.321
  20
 560.738
  30
0.0
  40
 6.50000
   0
CIRCLE
   8
LEVEL001
   6
CONTINUOUS
  62
7
  10
 342.321
  20
 560.738
  30
0.0
  40
 5.80718
   0
LINE
   8
LEVEL001
   6
DASHDOT
  62
1
  10
 351.821
  20
 560.738
  30
0.0
  11
 332.821
  21
 560.738
  31
0.0
   0
LINE
   8
LEVEL001
   6
DASHDOT
  62
1
  10
 342.321
  20
 570.238
  30
0.0
  11
 342.321
  21
 551.238
  31
0.0
   0
LINE
   8
LEVEL001
   6
CONTINUOUS
  62
7
  10
 342.321
  20
 676.203
  30
0.0
  11
 345.321
  21
 674.470
  31
0.0
   0
LINE
   8
LEVEL001
   6
CONTINUOUS
  62
7
  10
 345.321
  20
 674.470
  30
0.0
  11
 345.321
  21
 671.006
  31
0.0
   0
LINE
   8
LEVEL001
   6
CONTINUOUS
  62
7
  10
 345.321
  20
 671.006
  30
0.0
  11
 342.321
  21
 669.274
  31
0.0
   0
LINE
   8
LEVEL001
   6
CONTINUOUS
  62
7
  10
 342.321
  20
 669.274
  30
0.0
  11
 339.321
  21
 671.006
  31
0.0
   0
LINE
   8
LEVEL001
   6
CONTINUOUS
  62
7
  10
 339.321
  20
 671.006
  30
0.0
  11
 339.321
  21
 674.470
  31
0.0
   0
LINE
   8
LEVEL001
   6
CONTINUOUS
  62
7
  10
 339.321
  20
 674.470
  30
0.0
  11
 342.321
  21
 676.203
  31
0.0
   0
LINE
   8
LEVEL001
   6
DASHDOT
  62
1
  10
 351.821
  20
 672.738
  30
0.0
  11
 332.821
  21
 672.738
  31
0.0
   0
LINE
   8
LEVEL001
   6
DASHDOT
  62
1
  10
 342.321
  20
 682.238
  30
0.0
  11
 342.321
  21
 663.238
  31
0.0
   0
LINE
   8
LEVEL001
   6
CONTINUOUS
  62
7
  10
 317.321
  20
 674.738
  30
0.0
  11
 317.321
  21
 671.738
  31
0.0
   0
ARC
   8
LEVEL001
   6
CONTINUOUS
  62
7
  10
 309.321
  20
 693.238
  30
0.0
  40
 2.00000
  50
 120.000
  51
 180.000
   0
ARC
   8
LEVEL081
   6
CONTINUOUS
  62
7
  10
 309.321
  20
 687.738
  30
0.0
  40
 2.00000
  50
 120.000
  51
 240.000
   0
ARC
   8
LEVEL081
   6
CONTINUOUS
  62
7
  10
 309.321
  20
 682.238
  30
0.0
  40
 2.00000
  50
 180.000
  51
 240.000
   0
ARC
   8
LEVEL087
   6
CONTINUOUS
  62
7
  10
 310.321
  20
 658.738
  30
0.0
  40
 3.00000
  50
 180.000
  51
 258.327
   0
ARC
   8
LEVEL001
   6
CONTINUOUS
  62
7
  10
 342.321
  20
 672.738
  30
0.0
  40
 6.50000
  50
 162.080
  51
 188.850
   0
ARC
   8
LEVEL001
   6
CONTINUOUS
  62
7
  10
 342.321
  20
 672.738
  30
0.0
  40
 6.50000
  50
 219.715
  51
 107.920
   0
ARC
   8
LEVEL001
   6
CONTINUOUS
  62
7
  10
 342.321
  20
 672.738
  30
0.0
  40
 5.80718
  50
 159.854
  51
 189.915
   0
ARC
   8
LEVEL001
   6
CONTINUOUS
  62
7
  10
 342.321
  20
 672.738
  30
0.0
  40
 5.80718
  50
 210.571
  51
 110.145
   0
LINE
   8
LEVEL001
   6
CONTINUOUS
  62
7
  10
 390.321
  20
 648.738
  30
0.0
  11
 390.321
  21
 648.938
  31
0.0
   0
LINE
   8
LEVEL001
   6
CONTINUOUS
  62
7
  10
 392.321
  20
 649.738
  30
0.0
  11
 396.321
  21
 649.738
  31
0.0
   0
LINE
   8
LEVEL001
   6
CONTINUOUS
  62
7
  10
 392.321
  20
 649.738
  30
0.0
  11
 391.321
  21
 648.738
  31
0.0
   0
LINE
   8
LEVEL001
   6
CONTINUOUS
  62
7
  10
 390.321
  20
 592.738
  30
0.0
  11
 390.321
  21
 592.538
  31
0.0
   0
LINE
   8
LEVEL001
   6
CONTINUOUS
  62
7
  10
 392.321
  20
 591.738
  30
0.0
  11
 396.321
  21
 591.738
  31
0.0
   0
LINE
   8
LEVEL001
   6
CONTINUOUS
  62
7
  10
 392.321
  20
 591.738
  30
0.0
  11
 391.321
  21
 592.738
  31
0.0
   0
LINE
   8
LEVEL001
   6
CONTINUOUS
  62
7
  10
 392.321
  20
 591.738
  30
0.0
  11
 392.321
  21
 604.238
  31
0.0
   0
LINE
   8
LEVEL001
   6
CONTINUOUS
  62
7
  10
 392.321
  20
 637.238
  30
0.0
  11
 392.321
  21
 649.738
  31
0.0
   0
LINE
   8
LEVEL001
   6
CONTINUOUS
  62
7
  10
 391.321
  20
 648.738
  30
0.0
  11
 391.321
  21
 637.238
  31
0.0
   0
LINE
   8
LEVEL001
   6
CONTINUOUS
  62
7
  10
 391.321
  20
 604.238
  30
0.0
  11
 391.321
  21
 592.738
  31
0.0
   0
LINE
   8
LEVEL003
   6
CONTINUOUS
  62
3
  10
 340.182
  20
 658.853
  30
0.0
  11
 371.665
  21
 763.916
  31
0.0
   0
LINE
   8
LEVEL003
   6
CONTINUOUS
  62
3
  10
 371.665
  20
 763.916
  30
0.0
  11
 438.769
  21
 763.916
  31
0.0
   0
LINE
   8
LEVEL003
   6
CONTINUOUS
  62
3
  10
 340.182
  20
 658.853
  30
0.0
  11
 344.285
  21
 667.018
  31
0.0
   0
LINE
   8
LEVEL003
   6
CONTINUOUS
  62
3
  10
 340.182
  20
 658.853
  30
0.0
  11
 341.245
  21
 667.929
  31
0.0
   0
LINE
   8
LEVEL003
   6
CONTINUOUS
  62
3
  10
 361.950
  20
 657.413
  30
0.0
  11
 389.115
  21
 733.692
  31
0.0
   0
LINE
   8
LEVEL003
   6
CONTINUOUS
  62
3
  10
 389.115
  20
 733.692
  30
0.0
  11
 453.701
  21
 733.692
  31
0.0
   0
LINE
   8
LEVEL003
   6
CONTINUOUS
  62
3
  10
 361.950
  20
 657.413
  30
0.0
  11
 366.464
  21
 665.359
  31
0.0
   0
LINE
   8
LEVEL003
   6
CONTINUOUS
  62
3
  10
 361.950
  20
 657.413
  30
0.0
  11
 363.474
  21
 666.424
  31
0.0
   0
LINE
   8
LEVEL003
   6
CONTINUOUS
  62
3
  10
 468.453
  20
 718.760
  30
0.0
  11
 480.866
  21
 748.445
  31
0.0
   0
LINE
   8
LEVEL003
   6
CONTINUOUS
  62
3
  10
 480.866
  20
 748.445
  30
0.0
  11
 600.502
  21
 748.445
  31
0.0
   0
LINE
   8
LEVEL003
   6
CONTINUOUS
  62
3
  10
 468.453
  20
 718.760
  30
0.0
  11
 473.389
  21
 726.451
  31
0.0
   0
LINE
   8
LEVEL003
   6
CONTINUOUS
  62
3
  10
 468.453
  20
 718.760
  30
0.0
  11
 470.461
  21
 727.676
  31
0.0
   0
LINE
   8
LEVEL003
   6
CONTINUOUS
  62
3
  10
 359.971
  20
 581.284
  30
0.0
  11
 373.824
  21
 523.714
  31
0.0
   0
LINE
   8
LEVEL003
   6
CONTINUOUS
  62
3
  10
 373.824
  20
 523.714
  30
0.0
  11
 519.725
  21
 523.714
  31
0.0
   0
LINE
   8
LEVEL003
   6
CONTINUOUS
  62
3
  10
 359.971
  20
 581.284
  30
0.0
  11
 360.534
  21
 572.162
  31
0.0
   0
LINE
   8
LEVEL003
   6
CONTINUOUS
  62
3
  10
 359.971
  20
 581.284
  30
0.0
  11
 363.619
  21
 572.905
  31
0.0
   0
LINE
   8
LEVEL003
   6
CONTINUOUS
  62
3
  10
 340.901
  20
 581.643
  30
0.0
  11
 370.765
  21
 493.491
  31
0.0
   0
LINE
   8
LEVEL003
   6
CONTINUOUS
  62
3
  10
 370.765
  20
 493.491
  30
0.0
  11
 520.625
  21
 493.491
  31
0.0
   0
LINE
   8
LEVEL003
   6
CONTINUOUS
  62
3
  10
 340.901
  20
 581.643
  30
0.0
  11
 342.286
  21
 572.610
  31
0.0
   0
LINE
   8
LEVEL003
   6
CONTINUOUS
  62
3
  10
 340.901
  20
 581.643
  30
0.0
  11
 345.292
  21
 573.628
  31
0.0
   0
LINE
   8
LEVEL003
   6
CONTINUOUS
  62
3
  10
 687.321
  20
 695.738
  30
0.0
  11
 756.583
  21
 695.738
  31
0.0
   0
LINE
   8
LEVEL003
   6
CONTINUOUS
  62
3
  10
 687.321
  20
 545.738
  30
0.0
  11
 756.583
  21
 545.738
  31
0.0
   0
LINE
   8
LEVEL003
   6
CONTINUOUS
  62
3
  10
 750.583
  20
 695.738
  30
0.0
  11
 750.583
  21
 545.738
  31
0.0
   0
LINE
   8
LEVEL003
   6
CONTINUOUS
  62
3
  10
 750.583
  20
 695.738
  30
0.0
  11
 748.996
  21
 686.738
  31
0.0
   0
LINE
   8
LEVEL003
   6
CONTINUOUS
  62
3
  10
 750.583
  20
 695.738
  30
0.0
  11
 752.170
  21
 686.738
  31
0.0
   0
LINE
   8
LEVEL003
   6
CONTINUOUS
  62
3
  10
 750.583
  20
 545.738
  30
0.0
  11
 752.170
  21
 554.738
  31
0.0
   0
LINE
   8
LEVEL003
   6
CONTINUOUS
  62
3
  10
 750.583
  20
 545.738
  30
0.0
  11
 748.996
  21
 554.738
  31
0.0
   0
TEXT
   8
LEVEL003
  62
3
  10
 748.183
  20
 611.738
  30
0.0
  40
 12.0000
   1
150
  50
 90.0000
  41
 0.500000
   7
STANDARD
  72
1
  11
 748.183
  21
 620.738
  31
0.0
   0
LINE
   8
LEVEL003
   6
CONTINUOUS
  62
3
  10
 401.072
  20
 718.738
  30
0.0
  11
 219.583
  21
 718.738
  31
0.0
   0
LINE
   8
LEVEL003
   6
CONTINUOUS
  62
3
  10
 276.321
  20
 545.738
  30
0.0
  11
 219.583
  21
 545.738
  31
0.0
   0
LINE
   8
LEVEL003
   6
CONTINUOUS
  62
3
  10
 225.583
  20
 718.738
  30
0.0
  11
 225.583
  21
 545.738
  31
0.0
   0
LINE
   8
LEVEL003
   6
CONTINUOUS
  62
3
  10
 225.583
  20
 718.738
  30
0.0
  11
 223.996
  21
 709.738
  31
0.0
   0
LINE
   8
LEVEL003
   6
CONTINUOUS
  62
3
  10
 225.583
  20
 718.738
  30
0.0
  11
 227.170
  21
 709.738
  31
0.0
   0
LINE
   8
LEVEL003
   6
CONTINUOUS
  62
3
  10
 225.583
  20
 545.738
  30
0.0
  11
 227.170
  21
 554.738
  31
0.0
   0
LINE
   8
LEVEL003
   6
CONTINUOUS
  62
3
  10
 225.583
  20
 545.738
  30
0.0
  11
 223.996
  21
 554.738
  31
0.0
   0
TEXT
   8
LEVEL003
  62
3
  10
 223.183
  20
 617.238
  30
0.0
  40
 12.0000
   1
約175
  50
 90.0000
   7
STANDARD
  72
1
  11
 223.183
  21
 632.238
  31
0.0
   0
LINE
   8
LEVEL001
   6
CONTINUOUS
  62
7
  10
 288.321
  20
 611.665
  30
0.0
  11
 288.321
  21
 629.811
  31
0.0
   0
LINE
   8
LEVEL001
   6
DASHDOT
  62
1
  10
 285.321
  20
 580.738
  30
0.0
  11
 285.321
  21
 660.738
  31
0.0
   0
LINE
   8
LEVEL001
   6
DASHDOT
  62
1
  10
 298.255
  20
 650.738
  30
0.0
  11
 278.255
  21
 650.738
  31
0.0
   0
CIRCLE
   8
LEVEL001
   6
DASHDOT
  62
1
  10
 285.321
  20
 650.738
  30
0.0
  40
 8.00000
   0
LINE
   8
LEVEL001
   6
CONTINUOUS
  62
7
  10
 288.321
  20
 637.238
  30
0.0
  11
 288.321
  21
 649.588
  31
0.0
   0
LINE
   8
LEVEL001
   6
CONTINUOUS
  62
7
  10
 282.321
  20
 637.238
  30
0.0
  11
 282.321
  21
 649.588
  31
0.0
   0
LINE
   8
LEVEL001
   6
CONTINUOUS
  62
7
  10
 293.321
  20
 649.588
  30
0.0
  11
 280.171
  21
 649.588
  31
0.0
   0
LINE
   8
LEVEL001
   6
CONTINUOUS
  62
7
  10
 293.321
  20
 651.888
  30
0.0
  11
 280.171
  21
 651.888
  31
0.0
   0
ARC
   8
LEVEL001
   6
CONTINUOUS
  62
7
  10
 280.168
  20
 650.738
  30
0.0
  40
 1.15000
  50
 89.8137
  51
 270.186
   0
ARC
   8
LEVEL001
   6
CONTINUOUS
  62
7
  10
 293.318
  20
 650.738
  30
0.0
  40
 1.15000
  50
 270.186
  51
 89.8137
   0
ARC
   8
LEVEL001
   6
CONTINUOUS
  62
7
  10
 285.321
  20
 650.738
  30
0.0
  40
 6.85000
  50
 295.974
  51
 350.335
   0
LINE
   8
LEVEL001
   6
CONTINUOUS
  62
7
  10
 288.321
  20
 658.238
  30
0.0
  11
 282.321
  21
 658.238
  31
0.0
   0
LINE
   8
LEVEL001
   6
CONTINUOUS
  62
7
  10
 277.152
  20
 655.258
  30
0.0
  11
 293.299
  21
 655.258
  31
0.0
   0
LINE
   8
LEVEL001
   6
CONTINUOUS
  62
7
  10
 277.152
  20
 656.218
  30
0.0
  11
 293.299
  21
 656.218
  31
0.0
   0
LINE
   8
LEVEL001
   6
DASHDOT
  62
1
  10
 276.226
  20
 655.738
  30
0.0
  11
 293.850
  21
 655.738
  31
0.0
   0
ARC
   8
LEVEL001
   6
CONTINUOUS
  62
7
  10
 277.152
  20
 655.738
  30
0.0
  40
 0.480000
  50
 90.0000
  51
 270.000
   0
LINE
   8
LEVEL001
   6
CONTINUOUS
  62
7
  10
 293.299
  20
 655.258
  30
0.0
  11
 293.299
  21
 656.218
  31
0.0
   0
ARC
   8
LEVEL001
   6
CONTINUOUS
  62
7
  10
 291.990
  20
 655.738
  30
0.0
  40
 0.480000
  50
 270.000
  51
 90.0000
   0
ARC
   8
LEVEL001
   6
CONTINUOUS
  62
7
  10
 285.321
  20
 650.738
  30
0.0
  40
 9.15000
  50
 150.397
  51
 250.861
   0
ARC
   8
LEVEL001
   6
CONTINUOUS
  62
7
  10
 285.321
  20
 650.738
  30
0.0
  40
 6.85000
  50
 115.974
  51
 126.870
   0
ARC
   8
LEVEL001
   6
CONTINUOUS
  62
7
  10
 285.321
  20
 650.738
  30
0.0
  40
 6.85000
  50
 53.1304
  51
 64.0266
   0
ARC
   8
LEVEL001
   6
CONTINUOUS
  62
7
  10
 285.321
  20
 650.738
  30
0.0
  40
 9.15000
  50
 289.139
  51
 29.5344
   0
ARC
   8
LEVEL001
   6
CONTINUOUS
  62
7
  10
 285.321
  20
 650.738
  30
0.0
  40
 9.15000
  50
 36.7917
  51
 143.208
   0
LINE
   8
LEVEL001
   6
CONTINUOUS
  62
7
  10
 282.321
  20
 656.218
  30
0.0
  11
 282.321
  21
 658.238
  31
0.0
   0
LINE
   8
LEVEL001
   6
CONTINUOUS
  62
7
  10
 288.321
  20
 656.218
  30
0.0
  11
 288.321
  21
 658.238
  31
0.0
   0
LINE
   8
LEVEL003
   6
CONTINUOUS
  62
7
  10
 279.071
  20
 654.373
  30
0.0
  11
 291.571
  21
 654.373
  31
0.0
   0
LINE
   8
LEVEL003
   6
CONTINUOUS
  62
7
  10
 291.571
  20
 654.373
  30
0.0
  11
 291.571
  21
 652.773
  31
0.0
   0
LINE
   8
LEVEL003
   6
CONTINUOUS
  62
7
  10
 291.571
  20
 652.773
  30
0.0
  11
 279.071
  21
 652.773
  31
0.0
   0
LINE
   8
LEVEL003
   6
CONTINUOUS
  62
7
  10
 279.071
  20
 652.773
  30
0.0
  11
 279.071
  21
 654.373
  31
0.0
   0
ARC
   8
LEVEL001
   6
CONTINUOUS
  62
7
  10
 285.321
  20
 650.738
  30
0.0
  40
 6.85000
  50
 138.711
  51
 147.950
   0
ARC
   8
LEVEL001
   6
CONTINUOUS
  62
7
  10
 285.321
  20
 650.738
  30
0.0
  40
 6.85000
  50
 155.841
  51
 244.026
   0
LINE
   8
LEVEL001
   6
CONTINUOUS
  62
7
  10
 282.321
  20
 651.888
  30
0.0
  11
 282.321
  21
 652.773
  31
0.0
   0
LINE
   8
LEVEL001
   6
CONTINUOUS
  62
7
  10
 282.321
  20
 654.373
  30
0.0
  11
 282.321
  21
 655.258
  31
0.0
   0
LINE
   8
LEVEL001
   6
CONTINUOUS
  62
7
  10
 288.321
  20
 651.888
  30
0.0
  11
 288.321
  21
 652.773
  31
0.0
   0
LINE
   8
LEVEL001
   6
CONTINUOUS
  62
7
  10
 288.321
  20
 654.373
  30
0.0
  11
 288.321
  21
 655.258
  31
0.0
   0
ARC
   8
LEVEL001
   6
CONTINUOUS
  62
7
  10
 285.321
  20
 650.738
  30
0.0
  40
 6.85000
  50
 9.66490
  51
 24.1600
   0
ARC
   8
LEVEL001
   6
CONTINUOUS
  62
7
  10
 285.321
  20
 650.738
  30
0.0
  40
 6.85000
  50
 32.0503
  51
 41.2890
   0
LINE
   8
LEVEL001
   6
CONTINUOUS
  62
7
  10
 288.321
  20
 583.238
  30
0.0
  11
 282.321
  21
 583.238
  31
0.0
   0
CIRCLE
   8
LEVEL001
   6
DASHDOT
  62
1
  10
 285.321
  20
 590.738
  30
0.0
  40
 8.00000
   0
LINE
   8
LEVEL001
   6
CONTINUOUS
  62
7
  10
 282.321
  20
 591.888
  30
0.0
  11
 282.321
  21
 604.238
  31
0.0
   0
LINE
   8
LEVEL001
   6
CONTINUOUS
  62
7
  10
 288.321
  20
 591.888
  30
0.0
  11
 288.321
  21
 604.238
  31
0.0
   0
LINE
   8
LEVEL001
   6
CONTINUOUS
  62
7
  10
 277.152
  20
 585.258
  30
0.0
  11
 293.299
  21
 585.258
  31
0.0
   0
LINE
   8
LEVEL001
   6
CONTINUOUS
  62
7
  10
 277.152
  20
 586.218
  30
0.0
  11
 293.299
  21
 586.218
  31
0.0
   0
LINE
   8
LEVEL001
   6
DASHDOT
  62
1
  10
 276.226
  20
 585.738
  30
0.0
  11
 293.850
  21
 585.738
  31
0.0
   0
ARC
   8
LEVEL001
   6
CONTINUOUS
  62
7
  10
 277.152
  20
 585.738
  30
0.0
  40
 0.480000
  50
 90.0000
  51
 270.000
   0
LINE
   8
LEVEL001
   6
CONTINUOUS
  62
7
  10
 293.299
  20
 585.258
  30
0.0
  11
 293.299
  21
 586.218
  31
0.0
   0
ARC
   8
LEVEL001
   6
CONTINUOUS
  62
7
  10
 291.990
  20
 585.738
  30
0.0
  40
 0.480000
  50
 270.000
  51
 90.0000
   0
ARC
   8
LEVEL001
   6
CONTINUOUS
  62
7
  10
 285.321
  20
 590.738
  30
0.0
  40
 9.15000
  50
 109.139
  51
 209.603
   0
ARC
   8
LEVEL001
   6
CONTINUOUS
  62
7
  10
 285.321
  20
 590.738
  30
0.0
  40
 6.85000
  50
 233.130
  51
 244.027
   0
ARC
   8
LEVEL001
   6
CONTINUOUS
  62
7
  10
 285.321
  20
 590.738
  30
0.0
  40
 6.85000
  50
 295.974
  51
 306.871
   0
ARC
   8
LEVEL001
   6
CONTINUOUS
  62
7
  10
 285.321
  20
 590.738
  30
0.0
  40
 9.15000
  50
 216.792
  51
 323.208
   0
ARC
   8
LEVEL001
   6
CONTINUOUS
  62
7
  10
 285.321
  20
 590.738
  30
0.0
  40
 9.15000
  50
 330.397
  51
 70.8605
   0
LINE
   8
LEVEL001
   6
CONTINUOUS
  62
7
  10
 282.321
  20
 583.238
  30
0.0
  11
 282.321
  21
 585.258
  31
0.0
   0
LINE
   8
LEVEL001
   6
CONTINUOUS
  62
7
  10
 288.321
  20
 583.238
  30
0.0
  11
 288.321
  21
 585.258
  31
0.0
   0
LINE
   8
LEVEL003
   6
CONTINUOUS
  62
7
  10
 279.071
  20
 587.103
  30
0.0
  11
 291.571
  21
 587.103
  31
0.0
   0
LINE
   8
LEVEL003
   6
CONTINUOUS
  62
7
  10
 291.571
  20
 587.103
  30
0.0
  11
 291.571
  21
 588.703
  31
0.0
   0
LINE
   8
LEVEL003
   6
CONTINUOUS
  62
7
  10
 291.571
  20
 588.703
  30
0.0
  11
 279.071
  21
 588.703
  31
0.0
   0
LINE
   8
LEVEL003
   6
CONTINUOUS
  62
7
  10
 279.071
  20
 588.703
  30
0.0
  11
 279.071
  21
 587.103
  31
0.0
   0
ARC
   8
LEVEL001
   6
CONTINUOUS
  62
7
  10
 285.321
  20
 590.738
  30
0.0
  40
 6.85000
  50
 212.050
  51
 221.288
   0
ARC
   8
LEVEL001
   6
CONTINUOUS
  62
7
  10
 285.321
  20
 590.738
  30
0.0
  40
 6.85000
  50
 318.712
  51
 327.950
   0
LINE
   8
LEVEL001
   6
CONTINUOUS
  62
7
  10
 282.321
  20
 586.218
  30
0.0
  11
 282.321
  21
 587.103
  31
0.0
   0
LINE
   8
LEVEL001
   6
CONTINUOUS
  62
7
  10
 282.321
  20
 588.703
  30
0.0
  11
 282.321
  21
 589.588
  31
0.0
   0
LINE
   8
LEVEL001
   6
CONTINUOUS
  62
7
  10
 288.321
  20
 586.218
  30
0.0
  11
 288.321
  21
 587.103
  31
0.0
   0
LINE
   8
LEVEL001
   6
CONTINUOUS
  62
7
  10
 288.321
  20
 588.703
  30
0.0
  11
 288.321
  21
 589.588
  31
0.0
   0
LINE
   8
LEVEL001
   6
CONTINUOUS
  62
7
  10
 290.471
  20
 591.888
  30
0.0
  11
 277.321
  21
 591.888
  31
0.0
   0
ARC
   8
LEVEL001
   6
CONTINUOUS
  62
7
  10
 290.471
  20
 590.738
  30
0.0
  40
 1.15002
  50
 270.000
  51
 90.0000
   0
LINE
   8
LEVEL001
   6
DASHDOT
  62
1
  10
 272.388
  20
 590.738
  30
0.0
  11
 292.388
  21
 590.738
  31
0.0
   0
LINE
   8
LEVEL001
   6
CONTINUOUS
  62
7
  10
 277.321
  20
 589.588
  30
0.0
  11
 290.471
  21
 589.588
  31
0.0
   0
ARC
   8
LEVEL001
   6
CONTINUOUS
  62
7
  10
 277.321
  20
 590.738
  30
0.0
  40
 1.15002
  50
 90.0000
  51
 270.000
   0
ARC
   8
LEVEL001
   6
CONTINUOUS
  62
7
  10
 285.321
  20
 590.738
  30
0.0
  40
 6.85000
  50
 189.665
  51
 204.399
   0
ARC
   8
LEVEL001
   6
CONTINUOUS
  62
7
  10
 285.321
  20
 590.738
  30
0.0
  40
 6.85000
  50
 115.974
  51
 170.336
   0
ARC
   8
LEVEL001
   6
CONTINUOUS
  62
7
  10
 285.321
  20
 590.738
  30
0.0
  40
 6.85000
  50
 335.601
  51
 64.0262
   0
ARC
   8
LEVEL087
   6
CONTINUOUS
  62
7
  10
 310.321
  20
 582.738
  30
0.0
  40
 3.00000
  50
 90.0000
  51
 180.000
   0
LINE
   8
LEVEL087
   6
CONTINUOUS
  62
7
  10
 307.321
  20
 557.738
  30
0.0
  11
 307.321
  21
 582.738
  31
0.0
   0
ARC
   8
LEVEL087
   6
CONTINUOUS
  62
7
  10
 310.321
  20
 557.738
  30
0.0
  40
 3.00000
  50
 180.000
  51
 270.000
   0
LINE
   8
LEVEL001
   6
CONTINUOUS
  62
7
  10
 310.321
  20
 554.738
  30
0.0
  11
 317.321
  21
 554.738
  31
0.0
   0
LINE
   8
LEVEL001
   6
CONTINUOUS
  62
7
  10
 313.321
  20
 639.238
  30
0.0
  11
 313.321
  21
 640.838
  31
0.0
   0
LINE
   8
LEVEL001
   6
CONTINUOUS
  62
7
  10
 313.321
  20
 640.838
  30
0.0
  11
 331.321
  21
 640.838
  31
0.0
   0
LINE
   8
LEVEL001
   6
CONTINUOUS
  62
7
  10
 331.321
  20
 640.838
  30
0.0
  11
 331.321
  21
 639.238
  31
0.0
   0
LINE
   8
LEVEL001
   6
CONTINUOUS
  62
7
  10
 317.321
  20
 640.938
  30
0.0
  11
 317.321
  21
 640.838
  31
0.0
   0
LINE
   8
LEVEL001
   6
CONTINUOUS
  62
7
  10
 327.321
  20
 640.838
  30
0.0
  11
 327.321
  21
 640.938
  31
0.0
   0
LINE
   8
LEVEL001
   6
CONTINUOUS
  62
7
  10
 358.618
  20
 642.538
  30
0.0
  11
 358.618
  21
 640.938
  31
0.0
   0
ARC
   8
LEVEL001
   6
CONTINUOUS
  62
7
  10
 356.436
  20
 641.738
  30
0.0
  40
 0.800000
  50
 270.000
  51
 90.0000
   0
LINE
   8
LEVEL001
   6
CONTINUOUS
  62
7
  10
 336.321
  20
 639.238
  30
0.0
  11
 336.321
  21
 640.838
  31
0.0
   0
LINE
   8
LEVEL001
   6
CONTINUOUS
  62
7
  10
 336.321
  20
 640.838
  30
0.0
  11
 354.321
  21
 640.838
  31
0.0
   0
LINE
   8
LEVEL001
   6
CONTINUOUS
  62
7
  10
 354.321
  20
 640.838
  30
0.0
  11
 354.321
  21
 639.238
  31
0.0
   0
LINE
   8
LEVEL001
   6
CONTINUOUS
  62
7
  10
 350.321
  20
 642.538
  30
0.0
  11
 350.321
  21
 644.238
  31
0.0
   0
LINE
   8
LEVEL001
   6
CONTINUOUS
  62
7
  10
 341.321
  20
 645.238
  30
0.0
  11
 349.321
  21
 645.238
  31
0.0
   0
LINE
   8
LEVEL001
   6
CONTINUOUS
  62
7
  10
 349.321
  20
 645.238
  30
0.0
  11
 350.321
  21
 644.238
  31
0.0
   0
LINE
   8
LEVEL001
   6
CONTINUOUS
  62
7
  10
 340.321
  20
 644.238
  30
0.0
  11
 350.321
  21
 644.238
  31
0.0
   0
LINE
   8
LEVEL001
   6
CONTINUOUS
  62
7
  10
 340.321
  20
 644.238
  30
0.0
  11
 341.321
  21
 645.238
  31
0.0
   0
LINE
   8
LEVEL001
   6
CONTINUOUS
  62
7
  10
 340.321
  20
 644.238
  30
0.0
  11
 340.321
  21
 642.538
  31
0.0
   0
LINE
   8
LEVEL001
   6
CONTINUOUS
  62
7
  10
 340.321
  20
 640.938
  30
0.0
  11
 340.321
  21
 640.838
  31
0.0
   0
LINE
   8
LEVEL001
   6
CONTINUOUS
  62
7
  10
 335.618
  20
 642.538
  30
0.0
  11
 358.618
  21
 642.538
  31
0.0
   0
LINE
   8
LEVEL001
   6
CONTINUOUS
  62
7
  10
 335.618
  20
 640.938
  30
0.0
  11
 358.618
  21
 640.938
  31
0.0
   0
LINE
   8
LEVEL001
   6
DASHDOT
  62
1
  10
 307.163
  20
 641.738
  30
0.0
  11
 359.903
  21
 641.738
  31
0.0
   0
LINE
   8
LEVEL001
   6
CONTINUOUS
  62
7
  10
 350.321
  20
 640.838
  30
0.0
  11
 350.321
  21
 640.938
  31
0.0
   0
LINE
   8
LEVEL001
   6
CONTINUOUS
  62
7
  10
 317.321
  20
 597.238
  30
0.0
  11
 318.321
  21
 596.238
  31
0.0
   0
LINE
   8
LEVEL001
   6
CONTINUOUS
  62
7
  10
 318.321
  20
 596.238
  30
0.0
  11
 326.321
  21
 596.238
  31
0.0
   0
LINE
   8
LEVEL001
   6
CONTINUOUS
  62
7
  10
 326.321
  20
 596.238
  30
0.0
  11
 327.321
  21
 597.238
  31
0.0
   0
LINE
   8
LEVEL001
   6
CONTINUOUS
  62
7
  10
 317.321
  20
 597.238
  30
0.0
  11
 327.321
  21
 597.238
  31
0.0
   0
ARC
   8
LEVEL001
   6
CONTINUOUS
  62
7
  10
 308.706
  20
 599.738
  30
0.0
  40
 0.800000
  50
 90.0000
  51
 270.000
   0
LINE
   8
LEVEL001
   6
CONTINUOUS
  62
7
  10
 308.706
  20
 598.938
  30
0.0
  11
 335.618
  21
 598.938
  31
0.0
   0
LINE
   8
LEVEL001
   6
CONTINUOUS
  62
7
  10
 308.706
  20
 600.538
  30
0.0
  11
 335.618
  21
 600.538
  31
0.0
   0
LINE
   8
LEVEL001
   6
CONTINUOUS
  62
7
  10
 335.618
  20
 598.938
  30
0.0
  11
 335.618
  21
 600.538
  31
0.0
   0
ARC
   8
LEVEL001
   6
CONTINUOUS
  62
7
  10
 333.436
  20
 599.738
  30
0.0
  40
 0.800000
  50
 270.000
  51
 90.0000
   0
LINE
   8
LEVEL001
   6
CONTINUOUS
  62
7
  10
 327.321
  20
 598.938
  30
0.0
  11
 327.321
  21
 597.238
  31
0.0
   0
LINE
   8
LEVEL001
   6
CONTINUOUS
  62
7
  10
 317.321
  20
 597.238
  30
0.0
  11
 317.321
  21
 598.938
  31
0.0
   0
LINE
   8
LEVEL001
   6
CONTINUOUS
  62
7
  10
 313.321
  20
 602.238
  30
0.0
  11
 313.321
  21
 600.638
  31
0.0
   0
LINE
   8
LEVEL001
   6
CONTINUOUS
  62
7
  10
 313.321
  20
 600.638
  30
0.0
  11
 331.321
  21
 600.638
  31
0.0
   0
LINE
   8
LEVEL001
   6
CONTINUOUS
  62
7
  10
 331.321
  20
 600.638
  30
0.0
  11
 331.321
  21
 602.238
  31
0.0
   0
LINE
   8
LEVEL001
   6
CONTINUOUS
  62
7
  10
 317.321
  20
 600.538
  30
0.0
  11
 317.321
  21
 600.638
  31
0.0
   0
LINE
   8
LEVEL001
   6
CONTINUOUS
  62
7
  10
 327.321
  20
 600.638
  30
0.0
  11
 327.321
  21
 600.538
  31
0.0
   0
ARC
   8
LEVEL001
   6
CONTINUOUS
  62
7
  10
 356.436
  20
 599.738
  30
0.0
  40
 0.800000
  50
 270.000
  51
 90.0000
   0
LINE
   8
LEVEL001
   6
CONTINUOUS
  62
7
  10
 336.321
  20
 602.238
  30
0.0
  11
 336.321
  21
 600.638
  31
0.0
   0
LINE
   8
LEVEL001
   6
CONTINUOUS
  62
7
  10
 336.321
  20
 600.638
  30
0.0
  11
 354.321
  21
 600.638
  31
0.0
   0
LINE
   8
LEVEL001
   6
CONTINUOUS
  62
7
  10
 354.321
  20
 600.638
  30
0.0
  11
 354.321
  21
 602.238
  31
0.0
   0
LINE
   8
LEVEL001
   6
CONTINUOUS
  62
7
  10
 350.321
  20
 598.938
  30
0.0
  11
 350.321
  21
 597.238
  31
0.0
   0
LINE
   8
LEVEL001
   6
CONTINUOUS
  62
7
  10
 341.321
  20
 596.238
  30
0.0
  11
 349.321
  21
 596.238
  31
0.0
   0
LINE
   8
LEVEL001
   6
CONTINUOUS
  62
7
  10
 349.321
  20
 596.238
  30
0.0
  11
 350.321
  21
 597.238
  31
0.0
   0
LINE
   8
LEVEL001
   6
CONTINUOUS
  62
7
  10
 340.321
  20
 597.238
  30
0.0
  11
 350.321
  21
 597.238
  31
0.0
   0
LINE
   8
LEVEL001
   6
CONTINUOUS
  62
7
  10
 340.321
  20
 597.238
  30
0.0
  11
 341.321
  21
 596.238
  31
0.0
   0
LINE
   8
LEVEL001
   6
CONTINUOUS
  62
7
  10
 340.321
  20
 597.238
  30
0.0
  11
 340.321
  21
 598.938
  31
0.0
   0
LINE
   8
LEVEL001
   6
CONTINUOUS
  62
7
  10
 335.618
  20
 598.938
  30
0.0
  11
 358.618
  21
 598.938
  31
0.0
   0
LINE
   8
LEVEL001
   6
CONTINUOUS
  62
7
  10
 335.618
  20
 600.538
  30
0.0
  11
 358.618
  21
 600.538
  31
0.0
   0
LINE
   8
LEVEL001
   6
DASHDOT
  62
1
  10
 307.163
  20
 599.738
  30
0.0
  11
 359.903
  21
 599.738
  31
0.0
   0
LINE
   8
LEVEL001
   6
CONTINUOUS
  62
7
  10
 350.321
  20
 600.638
  30
0.0
  11
 350.321
  21
 600.538
  31
0.0
   0
LINE
   8
LEVEL001
   6
CONTINUOUS
  62
7
  10
 358.618
  20
 598.938
  30
0.0
  11
 358.618
  21
 600.538
  31
0.0
   0
LINE
   8
LEVEL003
   6
CONTINUOUS
  62
7
  10
 336.321
  20
 600.984
  30
0.0
  11
 335.243
  21
 600.686
  31
0.0
   0
LINE
   8
LEVEL003
   6
CONTINUOUS
  62
7
  10
 335.243
  20
 600.686
  30
0.0
  11
 334.843
  21
 600.538
  31
0.0
   0
LINE
   8
LEVEL003
   6
CONTINUOUS
  62
7
  10
 367.321
  20
 592.738
  30
0.0
  11
 367.251
  21
 593.793
  31
0.0
   0
LINE
   8
LEVEL003
   6
CONTINUOUS
  62
7
  10
 367.251
  20
 593.793
  30
0.0
  11
 367.042
  21
 594.831
  31
0.0
   0
LINE
   8
LEVEL003
   6
CONTINUOUS
  62
7
  10
 367.042
  20
 594.831
  30
0.0
  11
 366.696
  21
 595.836
  31
0.0
   0
LINE
   8
LEVEL003
   6
CONTINUOUS
  62
7
  10
 366.696
  20
 595.836
  30
0.0
  11
 366.220
  21
 596.793
  31
0.0
   0
LINE
   8
LEVEL003
   6
CONTINUOUS
  62
7
  10
 366.220
  20
 596.793
  30
0.0
  11
 365.620
  21
 597.687
  31
0.0
   0
LINE
   8
LEVEL003
   6
CONTINUOUS
  62
7
  10
 365.620
  20
 597.687
  30
0.0
  11
 364.907
  21
 598.503
  31
0.0
   0
LINE
   8
LEVEL003
   6
CONTINUOUS
  62
7
  10
 364.907
  20
 598.503
  30
0.0
  11
 364.090
  21
 599.230
  31
0.0
   0
LINE
   8
LEVEL003
   6
CONTINUOUS
  62
7
  10
 364.090
  20
 599.230
  30
0.0
  11
 363.184
  21
 599.855
  31
0.0
   0
LINE
   8
LEVEL003
   6
CONTINUOUS
  62
7
  10
 363.184
  20
 599.855
  30
0.0
  11
 362.202
  21
 600.369
  31
0.0
   0
LINE
   8
LEVEL003
   6
CONTINUOUS
  62
7
  10
 362.202
  20
 600.369
  30
0.0
  11
 361.159
  21
 600.764
  31
0.0
   0
LINE
   8
LEVEL003
   6
CONTINUOUS
  62
7
  10
 361.159
  20
 600.764
  30
0.0
  11
 360.072
  21
 601.034
  31
0.0
   0
LINE
   8
LEVEL003
   6
CONTINUOUS
  62
7
  10
 360.072
  20
 601.034
  30
0.0
  11
 358.958
  21
 601.174
  31
0.0
   0
LINE
   8
LEVEL003
   6
CONTINUOUS
  62
7
  10
 358.958
  20
 601.174
  30
0.0
  11
 357.834
  21
 601.183
  31
0.0
   0
LINE
   8
LEVEL003
   6
CONTINUOUS
  62
7
  10
 357.834
  20
 601.183
  30
0.0
  11
 356.717
  21
 601.060
  31
0.0
   0
LINE
   8
LEVEL003
   6
CONTINUOUS
  62
7
  10
 356.717
  20
 601.060
  30
0.0
  11
 355.626
  21
 600.807
  31
0.0
   0
LINE
   8
LEVEL003
   6
CONTINUOUS
  62
7
  10
 355.626
  20
 600.807
  30
0.0
  11
 354.843
  21
 600.538
  31
0.0
   0
LINE
   8
LEVEL003
   6
CONTINUOUS
  62
7
  10
 352.200
  20
 598.938
  30
0.0
  11
 351.426
  21
 598.173
  31
0.0
   0
LINE
   8
LEVEL003
   6
CONTINUOUS
  62
7
  10
 351.426
  20
 598.173
  30
0.0
  11
 350.758
  21
 597.323
  31
0.0
   0
LINE
   8
LEVEL003
   6
CONTINUOUS
  62
7
  10
 350.758
  20
 597.323
  30
0.0
  11
 350.209
  21
 596.401
  31
0.0
   0
LINE
   8
LEVEL003
   6
CONTINUOUS
  62
7
  10
 350.209
  20
 596.401
  30
0.0
  11
 349.787
  21
 595.422
  31
0.0
   0
LINE
   8
LEVEL003
   6
CONTINUOUS
  62
7
  10
 349.787
  20
 595.422
  30
0.0
  11
 349.497
  21
 594.401
  31
0.0
   0
LINE
   8
LEVEL003
   6
CONTINUOUS
  62
7
  10
 349.497
  20
 594.401
  30
0.0
  11
 349.345
  21
 593.354
  31
0.0
   0
LINE
   8
LEVEL003
   6
CONTINUOUS
  62
7
  10
 349.345
  20
 593.354
  30
0.0
  11
 349.321
  21
 592.738
  31
0.0
   0
LINE
   8
LEVEL003
   6
CONTINUOUS
  62
7
  10
 340.519
  20
 597.041
  30
0.0
  11
 339.414
  21
 597.234
  31
0.0
   0
LINE
   8
LEVEL003
   6
CONTINUOUS
  62
7
  10
 339.414
  20
 597.234
  30
0.0
  11
 338.292
  21
 597.297
  31
0.0
   0
LINE
   8
LEVEL003
   6
CONTINUOUS
  62
7
  10
 338.292
  20
 597.297
  30
0.0
  11
 337.170
  21
 597.227
  31
0.0
   0
LINE
   8
LEVEL003
   6
CONTINUOUS
  62
7
  10
 337.170
  20
 597.227
  30
0.0
  11
 336.066
  21
 597.027
  31
0.0
   0
LINE
   8
LEVEL003
   6
CONTINUOUS
  62
7
  10
 336.066
  20
 597.027
  30
0.0
  11
 334.997
  21
 596.699
  31
0.0
   0
LINE
   8
LEVEL003
   6
CONTINUOUS
  62
7
  10
 334.997
  20
 596.699
  30
0.0
  11
 333.981
  21
 596.248
  31
0.0
   0
LINE
   8
LEVEL003
   6
CONTINUOUS
  62
7
  10
 333.981
  20
 596.248
  30
0.0
  11
 333.032
  21
 595.682
  31
0.0
   0
LINE
   8
LEVEL003
   6
CONTINUOUS
  62
7
  10
 333.032
  20
 595.682
  30
0.0
  11
 332.165
  21
 595.008
  31
0.0
   0
LINE
   8
LEVEL003
   6
CONTINUOUS
  62
7
  10
 332.165
  20
 595.008
  30
0.0
  11
 331.395
  21
 594.239
  31
0.0
   0
LINE
   8
LEVEL003
   6
CONTINUOUS
  62
7
  10
 331.395
  20
 594.239
  30
0.0
  11
 330.732
  21
 593.385
  31
0.0
   0
LINE
   8
LEVEL003
   6
CONTINUOUS
  62
7
  10
 330.732
  20
 593.385
  30
0.0
  11
 330.188
  21
 592.461
  31
0.0
   0
LINE
   8
LEVEL003
   6
CONTINUOUS
  62
7
  10
 330.188
  20
 592.461
  30
0.0
  11
 329.771
  21
 591.480
  31
0.0
   0
LINE
   8
LEVEL003
   6
CONTINUOUS
  62
7
  10
 329.771
  20
 591.480
  30
0.0
  11
 329.488
  21
 590.457
  31
0.0
   0
LINE
   8
LEVEL003
   6
CONTINUOUS
  62
7
  10
 329.488
  20
 590.457
  30
0.0
  11
 329.342
  21
 589.410
  31
0.0
   0
LINE
   8
LEVEL003
   6
CONTINUOUS
  62
7
  10
 329.342
  20
 589.410
  30
0.0
  11
 329.336
  21
 588.353
  31
0.0
   0
LINE
   8
LEVEL003
   6
CONTINUOUS
  62
7
  10
 329.336
  20
 588.353
  30
0.0
  11
 329.471
  21
 587.304
  31
0.0
   0
LINE
   8
LEVEL003
   6
CONTINUOUS
  62
7
  10
 329.471
  20
 587.304
  30
0.0
  11
 329.744
  21
 586.280
  31
0.0
   0
LINE
   8
LEVEL003
   6
CONTINUOUS
  62
7
  10
 329.744
  20
 586.280
  30
0.0
  11
 330.150
  21
 585.295
  31
0.0
   0
LINE
   8
LEVEL003
   6
CONTINUOUS
  62
7
  10
 330.150
  20
 585.295
  30
0.0
  11
 330.684
  21
 584.365
  31
0.0
   0
LINE
   8
LEVEL003
   6
CONTINUOUS
  62
7
  10
 330.684
  20
 584.365
  30
0.0
  11
 331.337
  21
 583.505
  31
0.0
   0
LINE
   8
LEVEL003
   6
CONTINUOUS
  62
7
  10
 331.337
  20
 583.505
  30
0.0
  11
 332.100
  21
 582.728
  31
0.0
   0
LINE
   8
LEVEL003
   6
CONTINUOUS
  62
7
  10
 332.100
  20
 582.728
  30
0.0
  11
 332.959
  21
 582.047
  31
0.0
   0
LINE
   8
LEVEL003
   6
CONTINUOUS
  62
7
  10
 332.959
  20
 582.047
  30
0.0
  11
 333.902
  21
 581.472
  31
0.0
   0
LINE
   8
LEVEL003
   6
CONTINUOUS
  62
7
  10
 333.902
  20
 581.472
  30
0.0
  11
 334.914
  21
 581.012
  31
0.0
   0
LINE
   8
LEVEL003
   6
CONTINUOUS
  62
7
  10
 334.914
  20
 581.012
  30
0.0
  11
 335.979
  21
 580.674
  31
0.0
   0
LINE
   8
LEVEL003
   6
CONTINUOUS
  62
7
  10
 335.979
  20
 580.674
  30
0.0
  11
 337.081
  21
 580.463
  31
0.0
   0
LINE
   8
LEVEL003
   6
CONTINUOUS
  62
7
  10
 337.081
  20
 580.463
  30
0.0
  11
 338.202
  21
 580.383
  31
0.0
   0
LINE
   8
LEVEL003
   6
CONTINUOUS
  62
7
  10
 338.202
  20
 580.383
  30
0.0
  11
 339.325
  21
 580.435
  31
0.0
   0
LINE
   8
LEVEL003
   6
CONTINUOUS
  62
7
  10
 339.325
  20
 580.435
  30
0.0
  11
 340.432
  21
 580.618
  31
0.0
   0
LINE
   8
LEVEL003
   6
CONTINUOUS
  62
7
  10
 340.432
  20
 580.618
  30
0.0
  11
 341.506
  21
 580.929
  31
0.0
   0
LINE
   8
LEVEL003
   6
CONTINUOUS
  62
7
  10
 341.506
  20
 580.929
  30
0.0
  11
 342.531
  21
 581.364
  31
0.0
   0
LINE
   8
LEVEL003
   6
CONTINUOUS
  62
7
  10
 342.531
  20
 581.364
  30
0.0
  11
 343.490
  21
 581.916
  31
0.0
   0
LINE
   8
LEVEL003
   6
CONTINUOUS
  62
7
  10
 343.490
  20
 581.916
  30
0.0
  11
 344.368
  21
 582.575
  31
0.0
   0
LINE
   8
LEVEL003
   6
CONTINUOUS
  62
7
  10
 344.368
  20
 582.575
  30
0.0
  11
 345.152
  21
 583.332
  31
0.0
   0
LINE
   8
LEVEL003
   6
CONTINUOUS
  62
7
  10
 345.152
  20
 583.332
  30
0.0
  11
 345.829
  21
 584.176
  31
0.0
   0
LINE
   8
LEVEL003
   6
CONTINUOUS
  62
7
  10
 345.829
  20
 584.176
  30
0.0
  11
 346.390
  21
 585.092
  31
0.0
   0
LINE
   8
LEVEL003
   6
CONTINUOUS
  62
7
  10
 346.390
  20
 585.092
  30
0.0
  11
 346.824
  21
 586.066
  31
0.0
   0
LINE
   8
LEVEL003
   6
CONTINUOUS
  62
7
  10
 346.824
  20
 586.066
  30
0.0
  11
 347.125
  21
 587.084
  31
0.0
   0
LINE
   8
LEVEL003
   6
CONTINUOUS
  62
7
  10
 347.125
  20
 587.084
  30
0.0
  11
 347.290
  21
 588.129
  31
0.0
   0
LINE
   8
LEVEL003
   6
CONTINUOUS
  62
7
  10
 347.290
  20
 588.129
  30
0.0
  11
 347.314
  21
 589.185
  31
0.0
   0
LINE
   8
LEVEL003
   6
CONTINUOUS
  62
7
  10
 347.314
  20
 589.185
  30
0.0
  11
 347.198
  21
 590.236
  31
0.0
   0
LINE
   8
LEVEL003
   6
CONTINUOUS
  62
7
  10
 347.198
  20
 590.236
  30
0.0
  11
 346.943
  21
 591.265
  31
0.0
   0
LINE
   8
LEVEL003
   6
CONTINUOUS
  62
7
  10
 346.943
  20
 591.265
  30
0.0
  11
 346.554
  21
 592.256
  31
0.0
   0
LINE
   8
LEVEL003
   6
CONTINUOUS
  62
7
  10
 346.554
  20
 592.256
  30
0.0
  11
 346.037
  21
 593.194
  31
0.0
   0
LINE
   8
LEVEL003
   6
CONTINUOUS
  62
7
  10
 346.037
  20
 593.194
  30
0.0
  11
 345.399
  21
 594.064
  31
0.0
   0
LINE
   8
LEVEL003
   6
CONTINUOUS
  62
7
  10
 345.399
  20
 594.064
  30
0.0
  11
 344.650
  21
 594.852
  31
0.0
   0
LINE
   8
LEVEL003
   6
CONTINUOUS
  62
7
  10
 344.650
  20
 594.852
  30
0.0
  11
 343.803
  21
 595.547
  31
0.0
   0
LINE
   8
LEVEL003
   6
CONTINUOUS
  62
7
  10
 343.803
  20
 595.547
  30
0.0
  11
 342.870
  21
 596.137
  31
0.0
   0
LINE
   8
LEVEL003
   6
CONTINUOUS
  62
7
  10
 342.870
  20
 596.137
  30
0.0
  11
 342.681
  21
 596.238
  31
0.0
   0
LINE
   8
LEVEL003
   6
CONTINUOUS
  62
7
  10
 347.321
  20
 592.738
  30
0.0
  11
 347.251
  21
 593.793
  31
0.0
   0
LINE
   8
LEVEL003
   6
CONTINUOUS
  62
7
  10
 347.251
  20
 593.793
  30
0.0
  11
 347.042
  21
 594.831
  31
0.0
   0
LINE
   8
LEVEL003
   6
CONTINUOUS
  62
7
  10
 347.042
  20
 594.831
  30
0.0
  11
 346.696
  21
 595.836
  31
0.0
   0
LINE
   8
LEVEL003
   6
CONTINUOUS
  62
7
  10
 346.696
  20
 595.836
  30
0.0
  11
 346.515
  21
 596.238
  31
0.0
   0
LINE
   8
LEVEL001
   6
CONTINUOUS
  62
7
  10
 389.321
  20
 653.238
  30
0.0
  11
 372.821
  21
 653.238
  31
0.0
   0
LINE
   8
LEVEL001
   6
CONTINUOUS
  62
7
  10
 372.821
  20
 588.238
  30
0.0
  11
 389.321
  21
 588.238
  31
0.0
   0
LINE
   8
LEVEL001
   6
CONTINUOUS
  62
7
  10
 389.321
  20
 653.238
  30
0.0
  11
 390.321
  21
 652.238
  31
0.0
   0
LINE
   8
LEVEL001
   6
CONTINUOUS
  62
7
  10
 390.321
  20
 652.238
  30
0.0
  11
 390.321
  21
 637.238
  31
0.0
   0
LINE
   8
LEVEL001
   6
CONTINUOUS
  62
7
  10
 390.321
  20
 604.238
  30
0.0
  11
 390.321
  21
 589.238
  31
0.0
   0
LINE
   8
LEVEL001
   6
CONTINUOUS
  62
7
  10
 390.321
  20
 589.238
  30
0.0
  11
 389.321
  21
 588.238
  31
0.0
   0
LINE
   8
LEVEL001
   6
CONTINUOUS
  62
7
  10
 389.321
  20
 653.238
  30
0.0
  11
 389.321
  21
 637.238
  31
0.0
   0
LINE
   8
LEVEL001
   6
CONTINUOUS
  62
7
  10
 389.321
  20
 604.238
  30
0.0
  11
 389.321
  21
 588.238
  31
0.0
   0
LINE
   8
LEVEL001
   6
CONTINUOUS
  62
7
  10
 390.321
  20
 648.738
  30
0.0
  11
 391.321
  21
 648.738
  31
0.0
   0
LINE
   8
LEVEL001
   6
CONTINUOUS
  62
7
  10
 390.321
  20
 592.738
  30
0.0
  11
 391.321
  21
 592.738
  31
0.0
   0
POINT
   8
LEVEL001
  62
7
  10
 298.821
  20
 618.738
  30
0.0
   0
LINE
   8
LEVEL001
   6
DOT
  62
3
  10
 298.821
  20
 610.407
  30
0.0
  11
 299.705
  21
 611.291
  31
0.0
   0
LINE
   8
LEVEL001
   6
DOT
  62
3
  10
 298.821
  20
 627.069
  30
0.0
  11
 299.705
  21
 626.186
  31
0.0
   0
LINE
   8
LEVEL001
   6
DOT
  62
3
  10
 298.821
  20
 627.069
  30
0.0
  11
 310.205
  21
 626.682
  31
0.0
   0
LINE
   8
LEVEL001
   6
DOT
  62
3
  10
 310.205
  20
 625.834
  30
0.0
  11
 299.705
  21
 626.186
  31
0.0
   0
LINE
   8
LEVEL001
   6
DOT
  62
3
  10
 299.705
  20
 626.186
  30
0.0
  11
 299.705
  21
 611.291
  31
0.0
   0
LINE
   8
LEVEL001
   6
DOT
  62
3
  10
 299.705
  20
 611.291
  30
0.0
  11
 310.205
  21
 611.642
  31
0.0
   0
LINE
   8
LEVEL001
   6
DOT
  62
3
  10
 298.821
  20
 610.407
  30
0.0
  11
 310.205
  21
 610.794
  31
0.0
   0
LINE
   8
LEVEL001
   6
DASHDOT
  62
1
  10
 318.438
  20
 618.738
  30
0.0
  11
 295.776
  21
 618.738
  31
0.0
   0
LINE
   8
LEVEL001
   6
DASHDOT
  62
1
  10
 338.321
  20
 665.738
  30
0.0
  11
 338.321
  21
 579.654
  31
0.0
   0
LINE
   8
LEVEL001
   6
CONTINUOUS
  62
7
  10
 327.861
  20
 651.654
  30
0.0
  11
 327.221
  21
 644.338
  31
0.0
   0
ARC
   8
LEVEL001
   6
CONTINUOUS
  62
7
  10
 322.973
  20
 652.738
  30
0.0
  40
 5.00000
  50
 270.000
  51
 355.000
   0
LINE
   8
LEVEL001
   6
CONTINUOUS
  62
7
  10
 327.954
  20
 652.303
  30
0.0
  11
 327.828
  21
 651.076
  31
0.0
   0
LINE
   8
LEVEL001
   6
CONTINUOUS
  62
7
  10
 327.828
  20
 651.076
  30
0.0
  11
 327.865
  21
 649.844
  31
0.0
   0
LINE
   8
LEVEL001
   6
CONTINUOUS
  62
7
  10
 327.865
  20
 649.844
  30
0.0
  11
 328.065
  21
 648.626
  31
0.0
   0
LINE
   8
LEVEL001
   6
CONTINUOUS
  62
7
  10
 328.065
  20
 648.626
  30
0.0
  11
 328.425
  21
 647.441
  31
0.0
   0
LINE
   8
LEVEL001
   6
CONTINUOUS
  62
7
  10
 328.425
  20
 647.441
  30
0.0
  11
 328.940
  21
 646.307
  31
0.0
   0
LINE
   8
LEVEL001
   6
CONTINUOUS
  62
7
  10
 328.940
  20
 646.307
  30
0.0
  11
 329.601
  21
 645.242
  31
0.0
   0
LINE
   8
LEVEL001
   6
CONTINUOUS
  62
7
  10
 329.601
  20
 645.242
  30
0.0
  11
 329.821
  21
 644.946
  31
0.0
   0
LINE
   8
LEVEL001
   6
CONTINUOUS
  62
7
  10
 347.378
  20
 655.732
  30
0.0
  11
 346.645
  21
 656.754
  31
0.0
   0
LINE
   8
LEVEL001
   6
CONTINUOUS
  62
7
  10
 346.645
  20
 656.754
  30
0.0
  11
 345.782
  21
 657.682
  31
0.0
   0
LINE
   8
LEVEL001
   6
CONTINUOUS
  62
7
  10
 345.782
  20
 657.682
  30
0.0
  11
 344.802
  21
 658.502
  31
0.0
   0
LINE
   8
LEVEL001
   6
CONTINUOUS
  62
7
  10
 344.802
  20
 658.502
  30
0.0
  11
 343.722
  21
 659.200
  31
0.0
   0
LINE
   8
LEVEL001
   6
CONTINUOUS
  62
7
  10
 343.722
  20
 659.200
  30
0.0
  11
 342.557
  21
 659.767
  31
0.0
   0
LINE
   8
LEVEL001
   6
CONTINUOUS
  62
7
  10
 342.557
  20
 659.767
  30
0.0
  11
 341.326
  21
 660.193
  31
0.0
   0
LINE
   8
LEVEL001
   6
CONTINUOUS
  62
7
  10
 341.326
  20
 660.193
  30
0.0
  11
 340.048
  21
 660.471
  31
0.0
   0
LINE
   8
LEVEL001
   6
CONTINUOUS
  62
7
  10
 340.048
  20
 660.471
  30
0.0
  11
 338.743
  21
 660.597
  31
0.0
   0
LINE
   8
LEVEL001
   6
CONTINUOUS
  62
7
  10
 338.743
  20
 660.597
  30
0.0
  11
 337.432
  21
 660.570
  31
0.0
   0
LINE
   8
LEVEL001
   6
CONTINUOUS
  62
7
  10
 337.432
  20
 660.570
  30
0.0
  11
 336.135
  21
 660.389
  31
0.0
   0
LINE
   8
LEVEL001
   6
CONTINUOUS
  62
7
  10
 336.135
  20
 660.389
  30
0.0
  11
 334.871
  21
 660.057
  31
0.0
   0
LINE
   8
LEVEL001
   6
CONTINUOUS
  62
7
  10
 334.871
  20
 660.057
  30
0.0
  11
 333.662
  21
 659.580
  31
0.0
   0
LINE
   8
LEVEL001
   6
CONTINUOUS
  62
7
  10
 333.662
  20
 659.580
  30
0.0
  11
 332.525
  21
 658.966
  31
0.0
   0
LINE
   8
LEVEL001
   6
CONTINUOUS
  62
7
  10
 332.525
  20
 658.966
  30
0.0
  11
 331.479
  21
 658.222
  31
0.0
   0
LINE
   8
LEVEL001
   6
CONTINUOUS
  62
7
  10
 331.479
  20
 658.222
  30
0.0
  11
 330.539
  21
 657.362
  31
0.0
   0
LINE
   8
LEVEL001
   6
CONTINUOUS
  62
7
  10
 330.539
  20
 657.362
  30
0.0
  11
 329.721
  21
 656.399
  31
0.0
   0
LINE
   8
LEVEL001
   6
CONTINUOUS
  62
7
  10
 329.721
  20
 656.399
  30
0.0
  11
 329.037
  21
 655.347
  31
0.0
   0
LINE
   8
LEVEL001
   6
CONTINUOUS
  62
7
  10
 329.037
  20
 655.347
  30
0.0
  11
 328.498
  21
 654.223
  31
0.0
   0
LINE
   8
LEVEL001
   6
CONTINUOUS
  62
7
  10
 328.498
  20
 654.223
  30
0.0
  11
 328.112
  21
 653.045
  31
0.0
   0
LINE
   8
LEVEL001
   6
CONTINUOUS
  62
7
  10
 328.112
  20
 653.045
  30
0.0
  11
 327.886
  21
 651.831
  31
0.0
   0
LINE
   8
LEVEL001
   6
CONTINUOUS
  62
7
  10
 327.886
  20
 651.831
  30
0.0
  11
 327.867
  21
 651.653
  31
0.0
   0
ARC
   8
LEVEL001
   6
CONTINUOUS
  62
7
  10
 348.272
  20
 659.139
  30
0.0
  40
 3.00000
  50
 231.910
  51
 308.090
   0
LINE
   8
LEVEL001
   6
CONTINUOUS
  62
7
  10
 371.776
  20
 651.653
  30
0.0
  11
 371.573
  21
 652.871
  31
0.0
   0
LINE
   8
LEVEL001
   6
CONTINUOUS
  62
7
  10
 371.573
  20
 652.871
  30
0.0
  11
 371.210
  21
 654.055
  31
0.0
   0
LINE
   8
LEVEL001
   6
CONTINUOUS
  62
7
  10
 371.210
  20
 654.055
  30
0.0
  11
 370.693
  21
 655.188
  31
0.0
   0
LINE
   8
LEVEL001
   6
CONTINUOUS
  62
7
  10
 370.693
  20
 655.188
  30
0.0
  11
 370.030
  21
 656.251
  31
0.0
   0
LINE
   8
LEVEL001
   6
CONTINUOUS
  62
7
  10
 370.030
  20
 656.251
  30
0.0
  11
 369.230
  21
 657.228
  31
0.0
   0
LINE
   8
LEVEL001
   6
CONTINUOUS
  62
7
  10
 369.230
  20
 657.228
  30
0.0
  11
 368.308
  21
 658.104
  31
0.0
   0
LINE
   8
LEVEL001
   6
CONTINUOUS
  62
7
  10
 368.308
  20
 658.104
  30
0.0
  11
 367.276
  21
 658.865
  31
0.0
   0
LINE
   8
LEVEL001
   6
CONTINUOUS
  62
7
  10
 367.276
  20
 658.865
  30
0.0
  11
 366.151
  21
 659.499
  31
0.0
   0
LINE
   8
LEVEL001
   6
CONTINUOUS
  62
7
  10
 366.151
  20
 659.499
  30
0.0
  11
 364.951
  21
 659.997
  31
0.0
   0
LINE
   8
LEVEL001
   6
CONTINUOUS
  62
7
  10
 364.951
  20
 659.997
  30
0.0
  11
 363.694
  21
 660.350
  31
0.0
   0
LINE
   8
LEVEL001
   6
CONTINUOUS
  62
7
  10
 363.694
  20
 660.350
  30
0.0
  11
 362.401
  21
 660.553
  31
0.0
   0
LINE
   8
LEVEL001
   6
CONTINUOUS
  62
7
  10
 362.401
  20
 660.553
  30
0.0
  11
 361.090
  21
 660.603
  31
0.0
   0
LINE
   8
LEVEL001
   6
CONTINUOUS
  62
7
  10
 361.090
  20
 660.603
  30
0.0
  11
 359.783
  21
 660.499
  31
0.0
   0
LINE
   8
LEVEL001
   6
CONTINUOUS
  62
7
  10
 359.783
  20
 660.499
  30
0.0
  11
 358.500
  21
 660.242
  31
0.0
   0
LINE
   8
LEVEL001
   6
CONTINUOUS
  62
7
  10
 358.500
  20
 660.242
  30
0.0
  11
 357.261
  21
 659.838
  31
0.0
   0
LINE
   8
LEVEL001
   6
CONTINUOUS
  62
7
  10
 357.261
  20
 659.838
  30
0.0
  11
 356.086
  21
 659.291
  31
0.0
   0
LINE
   8
LEVEL001
   6
CONTINUOUS
  62
7
  10
 356.086
  20
 659.291
  30
0.0
  11
 354.992
  21
 658.611
  31
0.0
   0
LINE
   8
LEVEL001
   6
CONTINUOUS
  62
7
  10
 354.992
  20
 658.611
  30
0.0
  11
 353.997
  21
 657.808
  31
0.0
   0
LINE
   8
LEVEL001
   6
CONTINUOUS
  62
7
  10
 353.997
  20
 657.808
  30
0.0
  11
 353.116
  21
 656.895
  31
0.0
   0
LINE
   8
LEVEL001
   6
CONTINUOUS
  62
7
  10
 353.116
  20
 656.895
  30
0.0
  11
 352.363
  21
 655.885
  31
0.0
   0
LINE
   8
LEVEL001
   6
CONTINUOUS
  62
7
  10
 352.363
  20
 655.885
  30
0.0
  11
 352.298
  21
 655.784
  31
0.0
   0
LINE
   8
LEVEL001
   6
CONTINUOUS
  62
7
  10
 358.272
  20
 660.605
  30
0.0
  11
 356.963
  21
 660.528
  31
0.0
   0
LINE
   8
LEVEL001
   6
CONTINUOUS
  62
7
  10
 356.963
  20
 660.528
  30
0.0
  11
 355.674
  21
 660.298
  31
0.0
   0
LINE
   8
LEVEL001
   6
CONTINUOUS
  62
7
  10
 355.674
  20
 660.298
  30
0.0
  11
 354.426
  21
 659.920
  31
0.0
   0
LINE
   8
LEVEL001
   6
CONTINUOUS
  62
7
  10
 354.426
  20
 659.920
  30
0.0
  11
 353.238
  21
 659.397
  31
0.0
   0
LINE
   8
LEVEL001
   6
CONTINUOUS
  62
7
  10
 353.238
  20
 659.397
  30
0.0
  11
 352.128
  21
 658.740
  31
0.0
   0
LINE
   8
LEVEL001
   6
CONTINUOUS
  62
7
  10
 352.128
  20
 658.740
  30
0.0
  11
 351.114
  21
 657.958
  31
0.0
   0
LINE
   8
LEVEL001
   6
CONTINUOUS
  62
7
  10
 351.114
  20
 657.958
  30
0.0
  11
 350.212
  21
 657.063
  31
0.0
   0
LINE
   8
LEVEL001
   6
CONTINUOUS
  62
7
  10
 350.212
  20
 657.063
  30
0.0
  11
 350.027
  21
 656.848
  31
0.0
   0
CIRCLE
   8
LEVEL001
   6
CONTINUOUS
  62
7
  10
 361.371
  20
 650.738
  30
0.0
  40
 7.50000
   0
LINE
   8
LEVEL001
   6
CONTINUOUS
  62
7
  10
 361.371
  20
 641.277
  30
0.0
  11
 352.871
  21
 645.831
  31
0.0
   0
LINE
   8
LEVEL001
   6
CONTINUOUS
  62
7
  10
 352.871
  20
 645.831
  30
0.0
  11
 352.871
  21
 655.112
  31
0.0
   0
LINE
   8
LEVEL001
   6
CONTINUOUS
  62
7
  10
 352.871
  20
 655.112
  30
0.0
  11
 361.371
  21
 659.723
  31
0.0
   0
LINE
   8
LEVEL001
   6
CONTINUOUS
  62
7
  10
 361.371
  20
 659.723
  30
0.0
  11
 369.871
  21
 655.112
  31
0.0
   0
LINE
   8
LEVEL001
   6
CONTINUOUS
  62
7
  10
 369.871
  20
 655.112
  30
0.0
  11
 369.871
  21
 645.831
  31
0.0
   0
LINE
   8
LEVEL001
   6
CONTINUOUS
  62
7
  10
 369.871
  20
 645.831
  30
0.0
  11
 361.371
  21
 641.277
  31
0.0
   0
LINE
   8
LEVEL001
   6
CONTINUOUS
  62
7
  10
 352.871
  20
 650.474
  30
0.0
  11
 352.938
  21
 649.478
  31
0.0
   0
LINE
   8
LEVEL001
   6
CONTINUOUS
  62
7
  10
 352.938
  20
 649.478
  30
0.0
  11
 353.136
  21
 648.498
  31
0.0
   0
LINE
   8
LEVEL001
   6
CONTINUOUS
  62
7
  10
 353.136
  20
 648.498
  30
0.0
  11
 353.462
  21
 647.548
  31
0.0
   0
LINE
   8
LEVEL001
   6
CONTINUOUS
  62
7
  10
 353.462
  20
 647.548
  30
0.0
  11
 353.912
  21
 646.644
  31
0.0
   0
LINE
   8
LEVEL001
   6
CONTINUOUS
  62
7
  10
 353.912
  20
 646.644
  30
0.0
  11
 354.478
  21
 645.800
  31
0.0
   0
LINE
   8
LEVEL001
   6
CONTINUOUS
  62
7
  10
 354.478
  20
 645.800
  30
0.0
  11
 355.152
  21
 645.029
  31
0.0
   0
LINE
   8
LEVEL001
   6
CONTINUOUS
  62
7
  10
 355.152
  20
 645.029
  30
0.0
  11
 355.923
  21
 644.343
  31
0.0
   0
LINE
   8
LEVEL001
   6
CONTINUOUS
  62
7
  10
 355.923
  20
 644.343
  30
0.0
  11
 356.779
  21
 643.753
  31
0.0
   0
LINE
   8
LEVEL001
   6
CONTINUOUS
  62
7
  10
 356.779
  20
 643.753
  30
0.0
  11
 357.706
  21
 643.267
  31
0.0
   0
LINE
   8
LEVEL001
   6
CONTINUOUS
  62
7
  10
 357.706
  20
 643.267
  30
0.0
  11
 358.691
  21
 642.894
  31
0.0
   0
LINE
   8
LEVEL001
   6
CONTINUOUS
  62
7
  10
 358.691
  20
 642.894
  30
0.0
  11
 359.718
  21
 642.639
  31
0.0
   0
LINE
   8
LEVEL001
   6
CONTINUOUS
  62
7
  10
 359.718
  20
 642.639
  30
0.0
  11
 360.770
  21
 642.506
  31
0.0
   0
LINE
   8
LEVEL001
   6
CONTINUOUS
  62
7
  10
 360.770
  20
 642.506
  30
0.0
  11
 361.832
  21
 642.498
  31
0.0
   0
LINE
   8
LEVEL001
   6
CONTINUOUS
  62
7
  10
 361.832
  20
 642.498
  30
0.0
  11
 362.886
  21
 642.614
  31
0.0
   0
LINE
   8
LEVEL001
   6
CONTINUOUS
  62
7
  10
 362.886
  20
 642.614
  30
0.0
  11
 363.917
  21
 642.853
  31
0.0
   0
LINE
   8
LEVEL001
   6
CONTINUOUS
  62
7
  10
 363.917
  20
 642.853
  30
0.0
  11
 364.909
  21
 643.211
  31
0.0
   0
LINE
   8
LEVEL001
   6
CONTINUOUS
  62
7
  10
 364.909
  20
 643.211
  30
0.0
  11
 365.845
  21
 643.682
  31
0.0
   0
LINE
   8
LEVEL001
   6
CONTINUOUS
  62
7
  10
 365.845
  20
 643.682
  30
0.0
  11
 366.711
  21
 644.259
  31
0.0
   0
LINE
   8
LEVEL001
   6
CONTINUOUS
  62
7
  10
 366.711
  20
 644.259
  30
0.0
  11
 367.494
  21
 644.933
  31
0.0
   0
LINE
   8
LEVEL001
   6
CONTINUOUS
  62
7
  10
 367.494
  20
 644.933
  30
0.0
  11
 368.181
  21
 645.694
  31
0.0
   0
LINE
   8
LEVEL001
   6
CONTINUOUS
  62
7
  10
 368.181
  20
 645.694
  30
0.0
  11
 368.762
  21
 646.529
  31
0.0
   0
LINE
   8
LEVEL001
   6
CONTINUOUS
  62
7
  10
 368.762
  20
 646.529
  30
0.0
  11
 369.228
  21
 647.425
  31
0.0
   0
LINE
   8
LEVEL001
   6
CONTINUOUS
  62
7
  10
 369.228
  20
 647.425
  30
0.0
  11
 369.571
  21
 648.370
  31
0.0
   0
LINE
   8
LEVEL001
   6
CONTINUOUS
  62
7
  10
 369.571
  20
 648.370
  30
0.0
  11
 369.786
  21
 649.347
  31
0.0
   0
LINE
   8
LEVEL001
   6
CONTINUOUS
  62
7
  10
 369.786
  20
 649.347
  30
0.0
  11
 369.870
  21
 650.341
  31
0.0
   0
LINE
   8
LEVEL001
   6
CONTINUOUS
  62
7
  10
 369.870
  20
 650.341
  30
0.0
  11
 369.821
  21
 651.338
  31
0.0
   0
LINE
   8
LEVEL001
   6
CONTINUOUS
  62
7
  10
 369.821
  20
 651.338
  30
0.0
  11
 369.641
  21
 652.321
  31
0.0
   0
LINE
   8
LEVEL001
   6
CONTINUOUS
  62
7
  10
 369.641
  20
 652.321
  30
0.0
  11
 369.331
  21
 653.276
  31
0.0
   0
LINE
   8
LEVEL001
   6
CONTINUOUS
  62
7
  10
 369.331
  20
 653.276
  30
0.0
  11
 368.897
  21
 654.186
  31
0.0
   0
LINE
   8
LEVEL001
   6
CONTINUOUS
  62
7
  10
 368.897
  20
 654.186
  30
0.0
  11
 368.346
  21
 655.039
  31
0.0
   0
LINE
   8
LEVEL001
   6
CONTINUOUS
  62
7
  10
 368.346
  20
 655.039
  30
0.0
  11
 367.686
  21
 655.821
  31
0.0
   0
LINE
   8
LEVEL001
   6
CONTINUOUS
  62
7
  10
 367.686
  20
 655.821
  30
0.0
  11
 366.927
  21
 656.519
  31
0.0
   0
LINE
   8
LEVEL001
   6
CONTINUOUS
  62
7
  10
 366.927
  20
 656.519
  30
0.0
  11
 366.082
  21
 657.122
  31
0.0
   0
LINE
   8
LEVEL001
   6
CONTINUOUS
  62
7
  10
 366.082
  20
 657.122
  30
0.0
  11
 365.163
  21
 657.622
  31
0.0
   0
LINE
   8
LEVEL001
   6
CONTINUOUS
  62
7
  10
 365.163
  20
 657.622
  30
0.0
  11
 364.185
  21
 658.011
  31
0.0
   0
LINE
   8
LEVEL001
   6
CONTINUOUS
  62
7
  10
 364.185
  20
 658.011
  30
0.0
  11
 363.163
  21
 658.282
  31
0.0
   0
LINE
   8
LEVEL001
   6
CONTINUOUS
  62
7
  10
 363.163
  20
 658.282
  30
0.0
  11
 362.113
  21
 658.431
  31
0.0
   0
LINE
   8
LEVEL001
   6
CONTINUOUS
  62
7
  10
 362.113
  20
 658.431
  30
0.0
  11
 361.052
  21
 658.456
  31
0.0
   0
LINE
   8
LEVEL001
   6
CONTINUOUS
  62
7
  10
 361.052
  20
 658.456
  30
0.0
  11
 359.995
  21
 658.356
  31
0.0
   0
LINE
   8
LEVEL001
   6
CONTINUOUS
  62
7
  10
 359.995
  20
 658.356
  30
0.0
  11
 358.960
  21
 658.133
  31
0.0
   0
LINE
   8
LEVEL001
   6
CONTINUOUS
  62
7
  10
 358.960
  20
 658.133
  30
0.0
  11
 357.963
  21
 657.791
  31
0.0
   0
LINE
   8
LEVEL001
   6
CONTINUOUS
  62
7
  10
 357.963
  20
 657.791
  30
0.0
  11
 357.019
  21
 657.334
  31
0.0
   0
LINE
   8
LEVEL001
   6
CONTINUOUS
  62
7
  10
 357.019
  20
 657.334
  30
0.0
  11
 356.142
  21
 656.771
  31
0.0
   0
LINE
   8
LEVEL001
   6
CONTINUOUS
  62
7
  10
 356.142
  20
 656.771
  30
0.0
  11
 355.348
  21
 656.109
  31
0.0
   0
LINE
   8
LEVEL001
   6
CONTINUOUS
  62
7
  10
 355.348
  20
 656.109
  30
0.0
  11
 354.647
  21
 655.360
  31
0.0
   0
LINE
   8
LEVEL001
   6
CONTINUOUS
  62
7
  10
 354.647
  20
 655.360
  30
0.0
  11
 354.051
  21
 654.534
  31
0.0
   0
LINE
   8
LEVEL001
   6
CONTINUOUS
  62
7
  10
 354.051
  20
 654.534
  30
0.0
  11
 353.570
  21
 653.644
  31
0.0
   0
LINE
   8
LEVEL001
   6
CONTINUOUS
  62
7
  10
 353.570
  20
 653.644
  30
0.0
  11
 353.210
  21
 652.706
  31
0.0
   0
LINE
   8
LEVEL001
   6
CONTINUOUS
  62
7
  10
 353.210
  20
 652.706
  30
0.0
  11
 352.977
  21
 651.732
  31
0.0
   0
LINE
   8
LEVEL001
   6
CONTINUOUS
  62
7
  10
 352.977
  20
 651.732
  30
0.0
  11
 352.876
  21
 650.739
  31
0.0
   0
LINE
   8
LEVEL001
   6
CONTINUOUS
  62
7
  10
 352.876
  20
 650.739
  30
0.0
  11
 352.871
  21
 650.474
  31
0.0
   0
LINE
   8
LEVEL001
   6
CONTINUOUS
  62
7
  10
 352.298
  20
 655.784
  30
0.0
  11
 351.699
  21
 654.688
  31
0.0
   0
LINE
   8
LEVEL001
   6
CONTINUOUS
  62
7
  10
 351.699
  20
 654.688
  30
0.0
  11
 351.250
  21
 653.529
  31
0.0
   0
LINE
   8
LEVEL001
   6
CONTINUOUS
  62
7
  10
 351.250
  20
 653.529
  30
0.0
  11
 350.959
  21
 652.328
  31
0.0
   0
LINE
   8
LEVEL001
   6
CONTINUOUS
  62
7
  10
 350.959
  20
 652.328
  30
0.0
  11
 350.829
  21
 651.101
  31
0.0
   0
LINE
   8
LEVEL001
   6
CONTINUOUS
  62
7
  10
 350.829
  20
 651.101
  30
0.0
  11
 350.862
  21
 649.869
  31
0.0
   0
LINE
   8
LEVEL001
   6
CONTINUOUS
  62
7
  10
 350.862
  20
 649.869
  30
0.0
  11
 351.059
  21
 648.651
  31
0.0
   0
LINE
   8
LEVEL001
   6
CONTINUOUS
  62
7
  10
 351.059
  20
 648.651
  30
0.0
  11
 351.416
  21
 647.465
  31
0.0
   0
LINE
   8
LEVEL001
   6
CONTINUOUS
  62
7
  10
 351.416
  20
 647.465
  30
0.0
  11
 351.928
  21
 646.330
  31
0.0
   0
LINE
   8
LEVEL001
   6
CONTINUOUS
  62
7
  10
 351.928
  20
 646.330
  30
0.0
  11
 352.586
  21
 645.264
  31
0.0
   0
LINE
   8
LEVEL001
   6
CONTINUOUS
  62
7
  10
 352.586
  20
 645.264
  30
0.0
  11
 352.871
  21
 644.882
  31
0.0
   0
LINE
   8
LEVEL001
   6
DASHDOT
  62
1
  10
 326.821
  20
 650.738
  30
0.0
  11
 349.821
  21
 650.738
  31
0.0
   0
LINE
   8
LEVEL001
   6
DASHDOT
  62
1
  10
 371.104
  20
 650.738
  30
0.0
  11
 351.863
  21
 650.738
  31
0.0
   0
LINE
   8
LEVEL001
   6
DASHDOT
  62
1
  10
 361.321
  20
 665.738
  30
0.0
  11
 361.321
  21
 635.492
  31
0.0
   0
LINE
   8
LEVEL001
   6
CONTINUOUS
  62
7
  10
 369.871
  20
 645.011
  30
0.0
  11
 370.565
  21
 646.057
  31
0.0
   0
LINE
   8
LEVEL001
   6
CONTINUOUS
  62
7
  10
 370.565
  20
 646.057
  30
0.0
  11
 371.113
  21
 647.177
  31
0.0
   0
LINE
   8
LEVEL001
   6
CONTINUOUS
  62
7
  10
 371.113
  20
 647.177
  30
0.0
  11
 371.510
  21
 648.352
  31
0.0
   0
LINE
   8
LEVEL001
   6
CONTINUOUS
  62
7
  10
 371.510
  20
 648.352
  30
0.0
  11
 371.747
  21
 649.564
  31
0.0
   0
LINE
   8
LEVEL001
   6
CONTINUOUS
  62
7
  10
 371.747
  20
 649.564
  30
0.0
  11
 371.821
  21
 650.794
  31
0.0
   0
LINE
   8
LEVEL001
   6
CONTINUOUS
  62
7
  10
 371.821
  20
 650.794
  30
0.0
  11
 371.776
  21
 651.653
  31
0.0
   0
LINE
   8
LEVEL001
   6
DASHDOT
  62
1
  10
 358.321
  20
 602.971
  30
0.0
  11
 358.321
  21
 579.654
  31
0.0
   0
LINE
   8
LEVEL001
   6
CONTINUOUS
  62
7
  10
 371.782
  20
 651.654
  30
0.0
  11
 372.821
  21
 639.767
  31
0.0
   0
LINE
   8
LEVEL001
   6
CONTINUOUS
  62
7
  10
 330.650
  20
 642.538
  30
0.0
  11
 329.821
  21
 642.988
  31
0.0
   0
LINE
   8
LEVEL001
   6
CONTINUOUS
  62
7
  10
 329.821
  20
 642.988
  30
0.0
  11
 329.821
  21
 645.831
  31
0.0
   0
ARC
   8
LEVEL001
   6
CONTINUOUS
  62
7
  10
 97.2550
  20
 212.646
  30
0.0
  40
 7.50000
  50
 20.0000
  51
 200.000
   0
LINE
   8
LEVEL001
   6
CONTINUOUS
  62
7
  10
 109.639
  20
 207.319
  30
0.0
  11
 108.663
  21
 206.156
  31
0.0
   0
LINE
   8
LEVEL001
   6
CONTINUOUS
  62
7
  10
 108.663
  20
 206.156
  30
0.0
  11
 92.6878
  21
 200.341
  31
0.0
   0
LINE
   8
LEVEL001
   6
CONTINUOUS
  62
7
  10
 92.6878
  20
 200.341
  30
0.0
  11
 91.1925
  21
 200.605
  31
0.0
   0
LINE
   8
LEVEL001
   6
CONTINUOUS
  62
7
  10
 91.1925
  20
 200.605
  30
0.0
  11
 88.2916
  21
 208.575
  31
0.0
   0
LINE
   8
LEVEL001
   6
CONTINUOUS
  62
7
  10
 88.2916
  20
 208.575
  30
0.0
  11
 89.2676
  21
 209.738
  31
0.0
   0
LINE
   8
LEVEL001
   6
CONTINUOUS
  62
7
  10
 89.2676
  20
 209.738
  30
0.0
  11
 105.242
  21
 215.553
  31
0.0
   0
LINE
   8
LEVEL001
   6
CONTINUOUS
  62
7
  10
 105.242
  20
 215.553
  30
0.0
  11
 106.738
  21
 215.289
  31
0.0
   0
LINE
   8
LEVEL001
   6
CONTINUOUS
  62
7
  10
 106.738
  20
 215.289
  30
0.0
  11
 109.639
  21
 207.319
  31
0.0
   0
LINE
   8
LEVEL001
   6
CONTINUOUS
  62
7
  10
 95.8040
  20
 202.284
  30
0.0
  11
 92.9031
  21
 210.254
  31
0.0
   0
ARC
   8
LEVEL001
   6
CONTINUOUS
  62
7
  10
 102.810
  20
 197.384
  30
0.0
  40
 16.2408
  50
 92.4120
  51
 127.588
   0
ARC
   8
LEVEL001
   6
CONTINUOUS
  62
7
  10
 92.3046
  20
 201.394
  30
0.0
  40
 8.87961
  50
 86.1351
  51
 110.000
   0
LINE
   8
LEVEL001
   6
CONTINUOUS
  62
7
  10
 105.027
  20
 205.640
  30
0.0
  11
 102.126
  21
 213.611
  31
0.0
   0
ARC
   8
LEVEL001
   6
CONTINUOUS
  62
7
  10
 108.279
  20
 207.209
  30
0.0
  40
 8.87961
  50
 110.000
  51
 133.865
   0
LINE
   8
LEVEL001
   6
DASHDOT
  62
1
  10
 93.8163
  20
 222.093
  30
0.0
  11
 118.510
  21
 154.249
  31
0.0
   0
ARC
   8
LEVEL001
   6
CONTINUOUS
  62
7
  10
 95.1205
  20
 218.510
  30
0.0
  40
 16.2408
  50
 272.412
  51
 307.588
   0
ARC
   8
LEVEL001
   6
CONTINUOUS
  62
7
  10
 105.626
  20
 214.500
  30
0.0
  40
 8.87961
  50
 266.135
  51
 290.000
   0
ARC
   8
LEVEL001
   6
CONTINUOUS
  62
7
  10
 89.6508
  20
 208.686
  30
0.0
  40
 8.87961
  50
 290.000
  51
 313.865
   0
LINE
   8
LEVEL001
   6
CONTINUOUS
  62
7
  10
 361.321
  20
 660.605
  30
0.0
  11
 358.272
  21
 660.605
  31
0.0
   0
LINE
   8
LEVEL001
   6
CONTINUOUS
  62
7
  10
 367.321
  20
 682.738
  30
0.0
  11
 367.321
  21
 658.836
  31
0.0
   0
LINE
   8
LEVEL087
   6
CONTINUOUS
  62
7
  10
 370.373
  20
 655.738
  30
0.0
  11
 401.321
  21
 655.738
  31
0.0
   0
LINE
   8
LEVEL001
   6
CONTINUOUS
  62
7
  10
 372.321
  20
 654.238
  30
0.0
  11
 371.139
  21
 654.238
  31
0.0
   0
ARC
   8
LEVEL001
   6
CONTINUOUS
  62
7
  10
 357.978
  20
 658.738
  30
0.0
  40
 5.00000
  50
 20.9505
  51
 90.0000
   0
LINE
   8
LEVEL001
   6
CONTINUOUS
  62
7
  10
 335.967
  20
 642.538
  30
0.0
  11
 329.821
  21
 645.831
  31
0.0
   0
LINE
   8
LEVEL001
   6
CONTINUOUS
  62
7
  10
 329.821
  20
 645.831
  30
0.0
  11
 329.821
  21
 655.112
  31
0.0
   0
LINE
   8
LEVEL001
   6
CONTINUOUS
  62
7
  10
 329.821
  20
 655.112
  30
0.0
  11
 338.321
  21
 659.723
  31
0.0
   0
LINE
   8
LEVEL001
   6
CONTINUOUS
  62
7
  10
 338.321
  20
 659.723
  30
0.0
  11
 346.821
  21
 655.112
  31
0.0
   0
LINE
   8
LEVEL001
   6
CONTINUOUS
  62
7
  10
 346.821
  20
 655.112
  30
0.0
  11
 346.821
  21
 645.831
  31
0.0
   0
LINE
   8
LEVEL001
   6
CONTINUOUS
  62
7
  10
 346.821
  20
 645.831
  30
0.0
  11
 345.715
  21
 645.238
  31
0.0
   0
ARC
   8
LEVEL001
   6
CONTINUOUS
  62
7
  10
 338.321
  20
 650.738
  30
0.0
  40
 7.50000
  50
 312.833
  51
 285.466
   0
LINE
   8
LEVEL001
   6
CONTINUOUS
  62
7
  10
 344.741
  20
 645.238
  30
0.0
  11
 345.385
  21
 646.031
  31
0.0
   0
LINE
   8
LEVEL001
   6
CONTINUOUS
  62
7
  10
 345.385
  20
 646.031
  30
0.0
  11
 345.920
  21
 646.894
  31
0.0
   0
LINE
   8
LEVEL001
   6
CONTINUOUS
  62
7
  10
 345.920
  20
 646.894
  30
0.0
  11
 346.335
  21
 647.812
  31
0.0
   0
LINE
   8
LEVEL001
   6
CONTINUOUS
  62
7
  10
 346.335
  20
 647.812
  30
0.0
  11
 346.626
  21
 648.771
  31
0.0
   0
LINE
   8
LEVEL001
   6
CONTINUOUS
  62
7
  10
 346.626
  20
 648.771
  30
0.0
  11
 346.787
  21
 649.758
  31
0.0
   0
LINE
   8
LEVEL001
   6
CONTINUOUS
  62
7
  10
 346.787
  20
 649.758
  30
0.0
  11
 346.816
  21
 650.755
  31
0.0
   0
LINE
   8
LEVEL001
   6
CONTINUOUS
  62
7
  10
 346.816
  20
 650.755
  30
0.0
  11
 346.713
  21
 651.748
  31
0.0
   0
LINE
   8
LEVEL001
   6
CONTINUOUS
  62
7
  10
 346.713
  20
 651.748
  30
0.0
  11
 346.478
  21
 652.721
  31
0.0
   0
LINE
   8
LEVEL001
   6
CONTINUOUS
  62
7
  10
 346.478
  20
 652.721
  30
0.0
  11
 346.116
  21
 653.659
  31
0.0
   0
LINE
   8
LEVEL001
   6
CONTINUOUS
  62
7
  10
 346.116
  20
 653.659
  30
0.0
  11
 345.633
  21
 654.548
  31
0.0
   0
LINE
   8
LEVEL001
   6
CONTINUOUS
  62
7
  10
 345.633
  20
 654.548
  30
0.0
  11
 345.035
  21
 655.372
  31
0.0
   0
LINE
   8
LEVEL001
   6
CONTINUOUS
  62
7
  10
 345.035
  20
 655.372
  30
0.0
  11
 344.333
  21
 656.121
  31
0.0
   0
LINE
   8
LEVEL001
   6
CONTINUOUS
  62
7
  10
 344.333
  20
 656.121
  30
0.0
  11
 343.537
  21
 656.781
  31
0.0
   0
LINE
   8
LEVEL001
   6
CONTINUOUS
  62
7
  10
 343.537
  20
 656.781
  30
0.0
  11
 342.659
  21
 657.343
  31
0.0
   0
LINE
   8
LEVEL001
   6
CONTINUOUS
  62
7
  10
 342.659
  20
 657.343
  30
0.0
  11
 341.714
  21
 657.797
  31
0.0
   0
LINE
   8
LEVEL001
   6
CONTINUOUS
  62
7
  10
 341.714
  20
 657.797
  30
0.0
  11
 340.716
  21
 658.138
  31
0.0
   0
LINE
   8
LEVEL001
   6
CONTINUOUS
  62
7
  10
 340.716
  20
 658.138
  30
0.0
  11
 339.681
  21
 658.358
  31
0.0
   0
LINE
   8
LEVEL001
   6
CONTINUOUS
  62
7
  10
 339.681
  20
 658.358
  30
0.0
  11
 338.624
  21
 658.456
  31
0.0
   0
LINE
   8
LEVEL001
   6
CONTINUOUS
  62
7
  10
 338.624
  20
 658.456
  30
0.0
  11
 337.562
  21
 658.429
  31
0.0
   0
LINE
   8
LEVEL001
   6
CONTINUOUS
  62
7
  10
 337.562
  20
 658.429
  30
0.0
  11
 336.513
  21
 658.278
  31
0.0
   0
LINE
   8
LEVEL001
   6
CONTINUOUS
  62
7
  10
 336.513
  20
 658.278
  30
0.0
  11
 335.491
  21
 658.005
  31
0.0
   0
LINE
   8
LEVEL001
   6
CONTINUOUS
  62
7
  10
 335.491
  20
 658.005
  30
0.0
  11
 334.514
  21
 657.615
  31
0.0
   0
LINE
   8
LEVEL001
   6
CONTINUOUS
  62
7
  10
 334.514
  20
 657.615
  30
0.0
  11
 333.596
  21
 657.113
  31
0.0
   0
LINE
   8
LEVEL001
   6
CONTINUOUS
  62
7
  10
 333.596
  20
 657.113
  30
0.0
  11
 332.752
  21
 656.508
  31
0.0
   0
LINE
   8
LEVEL001
   6
CONTINUOUS
  62
7
  10
 332.752
  20
 656.508
  30
0.0
  11
 331.995
  21
 655.809
  31
0.0
   0
LINE
   8
LEVEL001
   6
CONTINUOUS
  62
7
  10
 331.995
  20
 655.809
  30
0.0
  11
 331.337
  21
 655.026
  31
0.0
   0
LINE
   8
LEVEL001
   6
CONTINUOUS
  62
7
  10
 331.337
  20
 655.026
  30
0.0
  11
 330.787
  21
 654.172
  31
0.0
   0
LINE
   8
LEVEL001
   6
CONTINUOUS
  62
7
  10
 330.787
  20
 654.172
  30
0.0
  11
 330.356
  21
 653.260
  31
0.0
   0
LINE
   8
LEVEL001
   6
CONTINUOUS
  62
7
  10
 330.356
  20
 653.260
  30
0.0
  11
 330.048
  21
 652.305
  31
0.0
   0
LINE
   8
LEVEL001
   6
CONTINUOUS
  62
7
  10
 330.048
  20
 652.305
  30
0.0
  11
 329.870
  21
 651.322
  31
0.0
   0
LINE
   8
LEVEL001
   6
CONTINUOUS
  62
7
  10
 329.870
  20
 651.322
  30
0.0
  11
 329.823
  21
 650.325
  31
0.0
   0
LINE
   8
LEVEL001
   6
CONTINUOUS
  62
7
  10
 329.823
  20
 650.325
  30
0.0
  11
 329.909
  21
 649.331
  31
0.0
   0
LINE
   8
LEVEL001
   6
CONTINUOUS
  62
7
  10
 329.909
  20
 649.331
  30
0.0
  11
 330.126
  21
 648.354
  31
0.0
   0
LINE
   8
LEVEL001
   6
CONTINUOUS
  62
7
  10
 330.126
  20
 648.354
  30
0.0
  11
 330.471
  21
 647.410
  31
0.0
   0
LINE
   8
LEVEL001
   6
CONTINUOUS
  62
7
  10
 330.471
  20
 647.410
  30
0.0
  11
 330.939
  21
 646.515
  31
0.0
   0
LINE
   8
LEVEL001
   6
CONTINUOUS
  62
7
  10
 330.939
  20
 646.515
  30
0.0
  11
 331.522
  21
 645.681
  31
0.0
   0
LINE
   8
LEVEL001
   6
CONTINUOUS
  62
7
  10
 331.522
  20
 645.681
  30
0.0
  11
 332.211
  21
 644.921
  31
0.0
   0
LINE
   8
LEVEL001
   6
CONTINUOUS
  62
7
  10
 332.211
  20
 644.921
  30
0.0
  11
 332.995
  21
 644.249
  31
0.0
   0
LINE
   8
LEVEL001
   6
CONTINUOUS
  62
7
  10
 332.995
  20
 644.249
  30
0.0
  11
 333.863
  21
 643.673
  31
0.0
   0
LINE
   8
LEVEL001
   6
CONTINUOUS
  62
7
  10
 333.863
  20
 643.673
  30
0.0
  11
 334.800
  21
 643.204
  31
0.0
   0
LINE
   8
LEVEL001
   6
CONTINUOUS
  62
7
  10
 334.800
  20
 643.204
  30
0.0
  11
 335.792
  21
 642.848
  31
0.0
   0
LINE
   8
LEVEL001
   6
CONTINUOUS
  62
7
  10
 335.792
  20
 642.848
  30
0.0
  11
 336.823
  21
 642.611
  31
0.0
   0
LINE
   8
LEVEL001
   6
CONTINUOUS
  62
7
  10
 336.823
  20
 642.611
  30
0.0
  11
 337.878
  21
 642.497
  31
0.0
   0
LINE
   8
LEVEL001
   6
CONTINUOUS
  62
7
  10
 337.878
  20
 642.497
  30
0.0
  11
 338.940
  21
 642.508
  31
0.0
   0
LINE
   8
LEVEL001
   6
CONTINUOUS
  62
7
  10
 338.940
  20
 642.508
  30
0.0
  11
 339.992
  21
 642.642
  31
0.0
   0
LINE
   8
LEVEL001
   6
CONTINUOUS
  62
7
  10
 339.992
  20
 642.642
  30
0.0
  11
 340.321
  21
 642.711
  31
0.0
   0
LINE
   8
LEVEL001
   6
CONTINUOUS
  62
7
  10
 347.039
  20
 645.238
  30
0.0
  11
 347.701
  21
 646.303
  31
0.0
   0
LINE
   8
LEVEL001
   6
CONTINUOUS
  62
7
  10
 347.701
  20
 646.303
  30
0.0
  11
 348.216
  21
 647.436
  31
0.0
   0
LINE
   8
LEVEL001
   6
CONTINUOUS
  62
7
  10
 348.216
  20
 647.436
  30
0.0
  11
 348.577
  21
 648.621
  31
0.0
   0
LINE
   8
LEVEL001
   6
CONTINUOUS
  62
7
  10
 348.577
  20
 648.621
  30
0.0
  11
 348.778
  21
 649.839
  31
0.0
   0
LINE
   8
LEVEL001
   6
CONTINUOUS
  62
7
  10
 348.778
  20
 649.839
  30
0.0
  11
 348.815
  21
 651.071
  31
0.0
   0
LINE
   8
LEVEL001
   6
CONTINUOUS
  62
7
  10
 348.815
  20
 651.071
  30
0.0
  11
 348.689
  21
 652.298
  31
0.0
   0
LINE
   8
LEVEL001
   6
CONTINUOUS
  62
7
  10
 348.689
  20
 652.298
  30
0.0
  11
 348.402
  21
 653.500
  31
0.0
   0
LINE
   8
LEVEL001
   6
CONTINUOUS
  62
7
  10
 348.402
  20
 653.500
  30
0.0
  11
 347.957
  21
 654.660
  31
0.0
   0
LINE
   8
LEVEL001
   6
CONTINUOUS
  62
7
  10
 347.957
  20
 654.660
  30
0.0
  11
 347.729
  21
 655.121
  31
0.0
   0
LINE
   8
LEVEL001
   6
CONTINUOUS
  62
7
  10
 346.821
  20
 645.831
  30
0.0
  11
 346.821
  21
 645.238
  31
0.0
   0
LINE
   8
LEVEL001
   6
CONTINUOUS
  62
7
  10
 369.871
  20
 645.831
  30
0.0
  11
 369.871
  21
 642.988
  31
0.0
   0
LINE
   8
LEVEL001
   6
CONTINUOUS
  62
7
  10
 369.871
  20
 642.988
  30
0.0
  11
 361.371
  21
 638.376
  31
0.0
   0
LINE
   8
LEVEL001
   6
CONTINUOUS
  62
7
  10
 361.371
  20
 638.376
  30
0.0
  11
 356.649
  21
 640.938
  31
0.0
   0
LINE
   8
LEVEL001
   6
CONTINUOUS
  62
7
  10
 353.700
  20
 642.538
  30
0.0
  11
 352.871
  21
 642.988
  31
0.0
   0
LINE
   8
LEVEL001
   6
CONTINUOUS
  62
7
  10
 352.871
  20
 642.988
  30
0.0
  11
 352.871
  21
 645.831
  31
0.0
   0
CIRCLE
   8
LEVEL003
   6
CONTINUOUS
  62
7
  10
 927.375
  20
 43.0928
  30
0.0
  40
 9.00000
   0
LINE
   8
LEVEL003
   6
CONTINUOUS
  62
7
  10
 945.039
  20
 52.0928
  30
0.0
  11
 933.609
  21
 32.2928
  31
0.0
   0
LINE
   8
LEVEL003
   6
CONTINUOUS
  62
7
  10
 933.609
  20
 32.2928
  30
0.0
  11
 910.746
  21
 32.2928
  31
0.0
   0
LINE
   8
LEVEL003
   6
CONTINUOUS
  62
7
  10
 908.148
  20
 27.7928
  30
0.0
  11
 949.011
  21
 27.7928
  31
0.0
   0
LINE
   8
LEVEL003
   6
CONTINUOUS
  62
7
  10
 949.011
  20
 27.7928
  30
0.0
  11
 963.039
  21
 52.0928
  31
0.0
   0
LINE
   8
LEVEL003
   6
CONTINUOUS
  62
7
  10
 963.039
  20
 52.0928
  30
0.0
  11
 945.039
  21
 52.0928
  31
0.0
   0
LINE
   8
LEVEL003
   6
CONTINUOUS
  62
7
  10
 910.746
  20
 32.2928
  30
0.0
  11
 908.148
  21
 27.7928
  31
0.0
   0
TEXT
   8
LEVEL003
  62
7
  10
 970.188
  20
 21.7728
  30
0.0
  40
 22.5000
   1
ＯＳＡＫＡ ＪＡＣＫ
   7
STANDARD
   0
TEXT
   8
LEVEL003
  62
7
  10
 974.926
  20
 67.3218
  30
0.0
  40
 15.0000
   1
Model : ＦＰＡ－０．５
   7
STANDARD
   0
ENDSEC
   0
EOF
