   0
SECTION
   2
HEADER
   9
$LIMMIN
  10
0.0
  20
0.0
   9
$LIMMAX
  10
 1260.00
  20
 891.000
   9
$EXTMIN
  10
0.0
  20
0.0
   9
$EXTMAX
  10
 1260.00
  20
 891.000
   9
$LTSCALE
  40
 25.2000
   0
ENDSEC
   0
SECTION
   2
TABLES
  0
TABLE
  2
LTYPE
 70
    25
  0
LTYPE
  2
CONTINUOUS
 70
    64
  3
Solid line
 72
    65
 73
     0
 40
0.0
  0
LTYPE
  2
BORDER
 70
    64
  3
__ __ . __ __ . __ __ . __ __ . __ __ . __ __ .
 72
    65
 73
     6
 40
1.75
 49
0.5
 49
-0.25
 49
0.5
 49
-0.25
 49
0.0
 49
-0.25
  0
LTYPE
  2
BORDER2
 70
    64
  3
__.__.__.__.__.__.__.__.__.__.__.__.__.__.__.__
 72
    65
 73
     6
 40
0.875
 49
0.25
 49
-0.125
 49
0.25
 49
-0.125
 49
0.0
 49
-0.125
  0
LTYPE
  2
BORDERX2
 70
    64
  3
____  ____  .  ____  ____  .  ____  ____  .  __
 72
    65
 73
     6
 40
3.5
 49
1.0
 49
-0.5
 49
1.0
 49
-0.5
 49
0.0
 49
-0.5
  0
LTYPE
  2
CENTER
 70
    64
  3
____ _ ____ _ ____ _ ____ _ ____ _ ____ _ ____ 
 72
    65
 73
     4
 40
2.0
 49
1.25
 49
-0.25
 49
0.25
 49
-0.25
  0
LTYPE
  2
CENTER2
 70
    64
  3
___ _ ___ _ ___ _ ___ _ ___ _ ___ _ ___ _ ___ _
 72
    65
 73
     4
 40
1.125
 49
0.75
 49
-0.125
 49
0.125
 49
-0.125
  0
LTYPE
  2
CENTERX2
 70
    64
  3
________  __  ________  __  ________  __  _____
 72
    65
 73
     4
 40
4.0
 49
2.5
 49
-0.5
 49
0.5
 49
-0.5
  0
LTYPE
  2
DASHDOT
 70
    64
  3
__ . __ . __ . __ . __ . __ . __ . __ . __ . __
 72
    65
 73
     4
 40
1.0
 49
0.5
 49
-0.25
 49
0.0
 49
-0.25
  0
LTYPE
  2
DASHDOT2
 70
    64
  3
_._._._._._._._._._._._._._._._._._._._._._._._
 72
    65
 73
     4
 40
0.5
 49
0.25
 49
-0.125
 49
0.0
 49
-0.125
  0
LTYPE
  2
DASHDOTX2
 70
    64
  3
____  .  ____  .  ____  .  ____  .  ____  .  __
 72
    65
 73
     4
 40
2.0
 49
1.0
 49
-0.5
 49
0.0
 49
-0.5
  0
LTYPE
  2
DASHED
 70
    64
  3
__ __ __ __ __ __ __ __ __ __ __ __ __ __ __ __
 72
    65
 73
     2
 40
0.75
 49
0.5
 49
-0.25
  0
LTYPE
  2
DASHED2
 70
    64
  3
_ _ _ _ _ _ _ _ _ _ _ _ _ _ _ _ _ _ _ _ _ _ _ _
 72
    65
 73
     2
 40
0.375
 49
0.25
 49
-0.125
  0
LTYPE
  2
DASHEDX2
 70
    64
  3
____  ____  ____  ____  ____  ____  ____  ____ 
 72
    65
 73
     2
 40
1.5
 49
1.0
 49
-0.5
  0
LTYPE
  2
DIVIDE
 70
    64
  3
____ . . ____ . . ____ . . ____ . . ____ . . __
 72
    65
 73
     6
 40
1.25
 49
0.5
 49
-0.25
 49
0.0
 49
-0.25
 49
0.0
 49
-0.25
  0
LTYPE
  2
DIVIDE2
 70
    64
  3
__..__..__..__..__..__..__..__..__..__..__..__.
 72
    65
 73
     6
 40
0.625
 49
0.25
 49
-0.125
 49
0.0
 49
-0.125
 49
0.0
 49
-0.125
  0
LTYPE
  2
DIVIDEX2
 70
    64
  3
________  .  .  ________  .  .  ________  .  . 
 72
    65
 73
     6
 40
2.5
 49
1.0
 49
-0.5
 49
0.0
 49
-0.5
 49
0.0
 49
-0.5
  0
LTYPE
  2
DOT
 70
    64
  3
. . . . . . . . . . . . . . . . . . . . . . . .
 72
    65
 73
     2
 40
0.25
 49
0.0
 49
-0.25
  0
LTYPE
  2
DOT2
 70
    64
  3
...............................................
 72
    65
 73
     2
 40
0.125
 49
0.0
 49
-0.125
  0
LTYPE
  2
DOTX2
 70
    64
  3
.  .  .  .  .  .  .  .  .  .  .  .  .  .  .  . 
 72
    65
 73
     2
 40
0.5
 49
0.0
 49
-0.5
  0
LTYPE
  2
HIDDEN
 70
    64
  3
__ __ __ __ __ __ __ __ __ __ __ __ __ __ __ __
 72
    65
 73
     2
 40
0.375
 49
0.25
 49
-0.125
  0
LTYPE
  2
HIDDEN2
 70
    64
  3
_ _ _ _ _ _ _ _ _ _ _ _ _ _ _ _ _ _ _ _ _ _ _ _
 72
    65
 73
     2
 40
0.1875
 49
0.125
 49
-0.0625
  0
LTYPE
  2
HIDDENX2
 70
    64
  3
____ ____ ____ ____ ____ ____ ____ ____ ____ __
 72
    65
 73
     2
 40
0.75
 49
0.5
 49
-0.25
  0
LTYPE
  2
PHANTOM
 70
    64
  3
______  __  __  ______  __  __  ______  __  __ 
 72
    65
 73
     6
 40
2.5
 49
1.25
 49
-0.25
 49
0.25
 49
-0.25
 49
0.25
 49
-0.25
  0
LTYPE
  2
PHANTOM2
 70
    64
  3
___ _ _ ___ _ _ ___ _ _ ___ _ _ ___ _ _ ___ _ _
 72
    65
 73
     6
 40
1.25
 49
0.625
 49
-0.125
 49
0.125
 49
-0.125
 49
0.125
 49
-0.125
  0
LTYPE
  2
PHANTOMX2
 70
    64
  3
____________    ____    ____    ____________   
 72
    65
 73
     6
 40
5.0
 49
2.5
 49
-0.5
 49
0.5
 49
-0.5
 49
0.5
 49
-0.5
  0
ENDTAB
  0
TABLE
  2
STYLE
 70
     2
  0
STYLE
  2
STANDARD
 70
0
 40
0.0
 41
1.0
 50
0.0
 71
0
 42
0.2
  3
TXT
  4
BIGFONT
  0
STYLE
  2
STANDARD1
 70
     4
 40
0.0
 41
1.0
 50
0.0
 71
     0
 42
0.2
  3
TXT
  4
BIGFONT
  0
ENDTAB
   0
TABLE
   2
LAYER
  70
7
   0
LAYER
   2
0
  70
0
  62
7
   6
CONTINUOUS
   0
LAYER
   2
LEVEL001
  70
0
  62
7
   6
CONTINUOUS
   0
LAYER
   2
LEVEL003
  70
0
  62
7
   6
CONTINUOUS
   0
LAYER
   2
LEVEL020
  70
0
  62
7
   6
CONTINUOUS
   0
LAYER
   2
LEVEL050
  70
0
  62
7
   6
CONTINUOUS
   0
LAYER
   2
LEVEL100
  70
0
  62
-7
   6
CONTINUOUS
   0
LAYER
   2
LEVEL110
  70
0
  62
7
   6
CONTINUOUS
   0
ENDTAB
   0
ENDSEC
   0
SECTION
   2
ENTITIES
   0
LINE
   8
LEVEL100
   6
CONTINUOUS
  62
7
  10
 933.750
  20
 192.000
  30
0.0
  11
 933.750
  21
 171.000
  31
0.0
   0
LINE
   8
LEVEL100
   6
CONTINUOUS
  62
7
  10
 1023.75
  20
 192.000
  30
0.0
  11
 1023.75
  21
 123.000
  31
0.0
   0
LINE
   8
LEVEL100
   6
CONTINUOUS
  62
7
  10
 1083.75
  20
 192.000
  30
0.0
  11
 1083.75
  21
 171.000
  31
0.0
   0
LINE
   8
LEVEL100
   6
CONTINUOUS
  62
7
  10
 1107.75
  20
 192.000
  30
0.0
  11
 1107.75
  21
 171.000
  31
0.0
   0
LINE
   8
LEVEL100
   6
CONTINUOUS
  62
7
  10
 1142.25
  20
 192.000
  30
0.0
  11
 1142.25
  21
 171.000
  31
0.0
   0
LINE
   8
LEVEL100
   6
CONTINUOUS
  62
7
  10
 995.250
  20
 171.000
  30
0.0
  11
 995.250
  21
 123.000
  31
0.0
   0
LINE
   8
LEVEL100
   6
CONTINUOUS
  62
7
  10
 945.750
  20
 79.5000
  30
0.0
  11
 960.750
  21
 94.5000
  31
0.0
   0
CIRCLE
   8
LEVEL100
   6
CONTINUOUS
  62
7
  10
 924.750
  20
 34.5000
  30
0.0
  40
 1.20000
   0
CIRCLE
   8
LEVEL100
   6
CONTINUOUS
  62
7
  10
 945.750
  20
 34.5000
  30
0.0
  40
 1.20000
   0
CIRCLE
   8
LEVEL100
   6
CONTINUOUS
  62
7
  10
 924.750
  20
 34.5000
  30
0.0
  40
 0.750000
   0
CIRCLE
   8
LEVEL100
   6
CONTINUOUS
  62
7
  10
 945.750
  20
 34.5000
  30
0.0
  40
 0.750000
   0
LINE
   8
LEVEL100
   6
CONTINUOUS
  62
7
  10
 1038.00
  20
 46.5000
  30
0.0
  11
 1038.00
  21
 49.5000
  31
0.0
   0
LINE
   8
LEVEL100
   6
CONTINUOUS
  62
7
  10
 1038.00
  20
 49.5000
  30
0.0
  11
 1047.00
  21
 49.5000
  31
0.0
   0
LINE
   8
LEVEL100
   6
CONTINUOUS
  62
7
  10
 1047.00
  20
 49.5000
  30
0.0
  11
 1047.00
  21
 46.5000
  31
0.0
   0
LINE
   8
LEVEL100
   6
CONTINUOUS
  62
7
  10
 1047.00
  20
 46.5000
  30
0.0
  11
 1038.00
  21
 46.5000
  31
0.0
   0
LINE
   8
LEVEL100
   6
CONTINUOUS
  62
7
  10
 903.750
  20
 30.0000
  30
0.0
  11
 903.750
  21
 192.000
  31
0.0
   0
LINE
   8
LEVEL100
   6
CONTINUOUS
  62
7
  10
 966.750
  20
 171.000
  30
0.0
  11
 966.750
  21
 30.0000
  31
0.0
   0
LINE
   8
LEVEL100
   6
CONTINUOUS
  62
7
  10
 903.750
  20
 99.0000
  30
0.0
  11
 966.750
  21
 99.0000
  31
0.0
   0
TEXT
   8
LEVEL100
  62
7
  10
 977.250
  20
 40.5000
  30
0.0
  40
 15.0000
   1
ＯＪ
  41
 0.700000
   7
STANDARD
   0
LINE
   8
LEVEL100
   6
CONTINUOUS
  62
7
  10
 903.750
  20
 171.000
  30
0.0
  11
 1224.45
  21
 171.000
  31
0.0
   0
LINE
   8
LEVEL100
   6
CONTINUOUS
  62
7
  10
 903.750
  20
 159.000
  30
0.0
  11
 1224.45
  21
 159.000
  31
0.0
   0
LINE
   8
LEVEL100
   6
CONTINUOUS
  62
7
  10
 903.750
  20
 192.000
  30
0.0
  11
 1224.45
  21
 192.000
  31
0.0
   0
LINE
   8
LEVEL100
   6
CONTINUOUS
  62
7
  10
 981.450
  20
 789.000
  30
0.0
  11
 981.450
  21
 864.000
  31
0.0
   0
LINE
   8
LEVEL100
   6
CONTINUOUS
  62
7
  10
 981.450
  20
 849.000
  30
0.0
  11
 1224.45
  21
 849.000
  31
0.0
   0
LINE
   8
LEVEL100
   6
CONTINUOUS
  62
7
  10
 981.450
  20
 834.000
  30
0.0
  11
 1224.45
  21
 834.000
  31
0.0
   0
LINE
   8
LEVEL100
   6
CONTINUOUS
  62
7
  10
 1008.45
  20
 849.000
  30
0.0
  11
 1008.45
  21
 834.000
  31
0.0
   0
LINE
   8
LEVEL100
   6
CONTINUOUS
  62
7
  10
 1164.45
  20
 849.000
  30
0.0
  11
 1164.45
  21
 834.000
  31
0.0
   0
LINE
   8
LEVEL100
   6
CONTINUOUS
  62
7
  10
 1200.45
  20
 849.000
  30
0.0
  11
 1200.45
  21
 834.000
  31
0.0
   0
LINE
   8
LEVEL100
   6
CONTINUOUS
  62
7
  10
 903.750
  20
 123.000
  30
0.0
  11
 1224.45
  21
 123.000
  31
0.0
   0
LINE
   8
LEVEL100
   6
CONTINUOUS
  62
7
  10
 903.750
  20
 75.0000
  30
0.0
  11
 1224.45
  21
 75.0000
  31
0.0
   0
LINE
   8
LEVEL100
   6
CONTINUOUS
  62
7
  10
 1140.45
  20
 75.0000
  30
0.0
  11
 1140.45
  21
 30.0000
  31
0.0
   0
LINE
   8
LEVEL100
   6
CONTINUOUS
  62
7
  10
 1152.45
  20
 30.0000
  30
0.0
  11
 1203.45
  21
 60.0000
  31
0.0
   0
LINE
   8
LEVEL100
   6
CONTINUOUS
  62
7
  10
 75.0000
  20
 864.000
  30
0.0
  11
 1224.45
  21
 864.000
  31
0.0
   0
LINE
   8
LEVEL100
   6
CONTINUOUS
  62
7
  10
 1224.45
  20
 864.000
  30
0.0
  11
 1224.45
  21
 30.0000
  31
0.0
   0
LINE
   8
LEVEL100
   6
CONTINUOUS
  62
7
  10
 1224.45
  20
 30.0000
  30
0.0
  11
 75.0000
  21
 30.0000
  31
0.0
   0
LINE
   8
LEVEL100
   6
CONTINUOUS
  62
7
  10
 75.0000
  20
 837.600
  30
0.0
  11
 225.450
  21
 837.600
  31
0.0
   0
LINE
   8
LEVEL100
   6
CONTINUOUS
  62
7
  10
 225.450
  20
 837.600
  30
0.0
  11
 225.450
  21
 864.000
  31
0.0
   0
TEXT
   8
LEVEL100
  62
7
  10
 222.450
  20
 858.300
  30
0.0
  40
 15.0000
   1
ＯＪ．
  50
 180.000
  41
 0.900000
   7
STANDARD
   0
LINE
   8
LEVEL100
   6
CONTINUOUS
  62
7
  10
 171.450
  20
 852.300
  30
0.0
  11
 162.450
  21
 852.300
  31
0.0
   0
LINE
   8
LEVEL100
   6
CONTINUOUS
  62
7
  10
 162.450
  20
 852.300
  30
0.0
  11
 162.450
  21
 849.300
  31
0.0
   0
LINE
   8
LEVEL100
   6
CONTINUOUS
  62
7
  10
 162.450
  20
 849.300
  30
0.0
  11
 171.450
  21
 849.300
  31
0.0
   0
LINE
   8
LEVEL100
   6
CONTINUOUS
  62
7
  10
 171.450
  20
 849.300
  30
0.0
  11
 171.450
  21
 852.300
  31
0.0
   0
TEXT
   8
LEVEL100
  62
7
  10
 936.750
  20
 174.000
  30
0.0
  40
 12.0000
   1
Ｓ．ＩＭＡＮＩＳＨＩ
  41
 0.625000
   7
STANDARD
   0
LINE
   8
LEVEL001
   6
CONTINUOUS
  62
7
  10
 796.500
  20
 579.000
  30
0.0
  11
 673.500
  21
 579.000
  31
0.0
   0
ARC
   8
LEVEL001
   6
CONTINUOUS
  62
7
  10
 673.500
  20
 577.000
  30
0.0
  40
 2.00000
  50
 90.0000
  51
 180.000
   0
LINE
   8
LEVEL003
   6
CONTINUOUS
  62
7
  10
 671.500
  20
 559.000
  30
0.0
  11
 671.500
  21
 577.000
  31
0.0
   0
LINE
   8
LEVEL003
   6
DASHDOT
  62
1
  10
 710.000
  20
 581.250
  30
0.0
  11
 710.000
  21
 576.750
  31
0.0
   0
LINE
   8
LEVEL003
   6
DASHDOT
  62
1
  10
 690.000
  20
 581.250
  30
0.0
  11
 690.000
  21
 576.750
  31
0.0
   0
LINE
   8
LEVEL003
   6
CONTINUOUS
  62
7
  10
 616.000
  20
 304.000
  30
0.0
  11
 735.000
  21
 304.000
  31
0.0
   0
ARC
   8
LEVEL003
   6
CONTINUOUS
  62
7
  10
 615.000
  20
 305.000
  30
0.0
  40
 1.00000
  50
 270.000
  51
0.0
   0
LINE
   8
LEVEL003
   6
CONTINUOUS
  62
7
  10
 615.000
  20
 284.000
  30
0.0
  11
 615.000
  21
 304.000
  31
0.0
   0
LINE
   8
LEVEL003
   6
CONTINUOUS
  62
7
  10
 615.000
  20
 284.000
  30
0.0
  11
 735.000
  21
 284.000
  31
0.0
   0
LINE
   8
LEVEL003
   6
DASHDOT
  62
1
  10
 695.000
  20
 271.250
  30
0.0
  11
 695.000
  21
 266.750
  31
0.0
   0
LINE
   8
LEVEL003
   6
DASHDOT
  62
1
  10
 662.500
  20
 271.250
  30
0.0
  11
 662.500
  21
 266.750
  31
0.0
   0
LINE
   8
LEVEL003
   6
DASHDOT
  62
1
  10
 637.500
  20
 271.250
  30
0.0
  11
 637.500
  21
 266.750
  31
0.0
   0
LINE
   8
LEVEL003
   6
CONTINUOUS
  62
7
  10
 619.500
  20
 269.000
  30
0.0
  11
 735.000
  21
 269.000
  31
0.0
   0
ARC
   8
LEVEL003
   6
CONTINUOUS
  62
7
  10
 619.500
  20
 271.000
  30
0.0
  40
 2.00000
  50
 180.000
  51
 270.000
   0
LINE
   8
LEVEL003
   6
CONTINUOUS
  62
7
  10
 617.500
  20
 284.000
  30
0.0
  11
 617.500
  21
 271.000
  31
0.0
   0
LINE
   8
LEVEL001
   6
DASHDOT
  62
1
  10
 735.000
  20
 255.000
  30
0.0
  11
 735.000
  21
 583.564
  31
0.0
   0
ARC
   8
LEVEL001
   6
CONTINUOUS
  62
7
  10
 796.500
  20
 577.000
  30
0.0
  40
 2.00000
  50
0.0
  51
 90.0000
   0
LINE
   8
LEVEL003
   6
CONTINUOUS
  62
7
  10
 798.500
  20
 559.000
  30
0.0
  11
 798.500
  21
 577.000
  31
0.0
   0
LINE
   8
LEVEL003
   6
DASHDOT
  62
1
  10
 760.000
  20
 581.250
  30
0.0
  11
 760.000
  21
 576.750
  31
0.0
   0
LINE
   8
LEVEL003
   6
DASHDOT
  62
1
  10
 780.000
  20
 581.250
  30
0.0
  11
 780.000
  21
 576.750
  31
0.0
   0
ARC
   8
LEVEL003
   6
CONTINUOUS
  62
7
  10
 659.500
  20
 557.000
  30
0.0
  40
 2.00000
  50
 90.0000
  51
 180.000
   0
ARC
   8
LEVEL003
   6
CONTINUOUS
  62
7
  10
 657.840
  20
 537.361
  30
0.0
  40
 2.00000
  50
 354.709
  51
 65.4750
   0
ARC
   8
LEVEL003
   6
CONTINUOUS
  62
7
  10
 659.500
  20
 541.000
  30
0.0
  40
 2.00000
  50
 180.000
  51
 245.475
   0
LINE
   8
LEVEL003
   6
CONTINUOUS
  62
7
  10
 659.500
  20
 539.000
  30
0.0
  11
 710.000
  21
 539.000
  31
0.0
   0
ARC
   8
LEVEL003
   6
CONTINUOUS
  62
7
  10
 712.000
  20
 557.000
  30
0.0
  40
 2.00000
  50
 90.0000
  51
 180.000
   0
LINE
   8
LEVEL003
   6
CONTINUOUS
  62
7
  10
 710.000
  20
 494.000
  30
0.0
  11
 710.000
  21
 557.000
  31
0.0
   0
ARC
   8
LEVEL003
   6
CONTINUOUS
  62
7
  10
 712.000
  20
 494.000
  30
0.0
  40
 2.00000
  50
 180.000
  51
 270.000
   0
ARC
   8
LEVEL003
   6
CONTINUOUS
  62
7
  10
 727.000
  20
 489.000
  30
0.0
  40
 3.00000
  50
0.0
  51
 90.0000
   0
LINE
   8
LEVEL003
   6
CONTINUOUS
  62
7
  10
 712.000
  20
 492.000
  30
0.0
  11
 735.000
  21
 492.000
  31
0.0
   0
LINE
   8
LEVEL003
   6
CONTINUOUS
  62
7
  10
 735.000
  20
 559.000
  30
0.0
  11
 659.500
  21
 559.000
  31
0.0
   0
LINE
   8
LEVEL003
   6
CONTINUOUS
  62
7
  10
 735.000
  20
 533.619
  30
0.0
  11
 739.000
  21
 531.309
  31
0.0
   0
LINE
   8
LEVEL003
   6
CONTINUOUS
  62
7
  10
 739.000
  20
 531.309
  30
0.0
  11
 739.000
  21
 526.691
  31
0.0
   0
LINE
   8
LEVEL003
   6
CONTINUOUS
  62
7
  10
 739.000
  20
 526.691
  30
0.0
  11
 735.000
  21
 524.381
  31
0.0
   0
LINE
   8
LEVEL003
   6
CONTINUOUS
  62
7
  10
 735.000
  20
 524.381
  30
0.0
  11
 731.000
  21
 526.691
  31
0.0
   0
LINE
   8
LEVEL003
   6
CONTINUOUS
  62
7
  10
 731.000
  20
 526.691
  30
0.0
  11
 731.000
  21
 531.309
  31
0.0
   0
LINE
   8
LEVEL003
   6
CONTINUOUS
  62
7
  10
 731.000
  20
 531.309
  30
0.0
  11
 735.000
  21
 533.619
  31
0.0
   0
CIRCLE
   8
LEVEL003
   6
CONTINUOUS
  62
7
  10
 735.000
  20
 529.000
  30
0.0
  40
 8.00000
   0
CIRCLE
   8
LEVEL003
   6
CONTINUOUS
  62
7
  10
 735.000
  20
 529.000
  30
0.0
  40
 7.13397
   0
LINE
   8
LEVEL003
   6
DASHDOT
  62
1
  10
 746.000
  20
 529.000
  30
0.0
  11
 724.000
  21
 529.000
  31
0.0
   0
LINE
   8
LEVEL003
   6
CONTINUOUS
  62
7
  10
 659.831
  20
 537.176
  30
0.0
  11
 659.545
  21
 534.082
  31
0.0
   0
ARC
   8
LEVEL003
   6
CONTINUOUS
  62
7
  10
 727.000
  20
 433.000
  30
0.0
  40
 3.00000
  50
 270.000
  51
0.0
   0
ARC
   8
LEVEL003
   6
CONTINUOUS
  62
7
  10
 727.000
  20
 425.686
  30
0.0
  40
 3.00000
  50
 270.000
  51
 0.651378E-10
   0
LINE
   8
LEVEL003
   6
CONTINUOUS
  62
7
  10
 730.000
  20
 489.000
  30
0.0
  11
 730.000
  21
 425.686
  31
0.0
   0
ARC
   8
LEVEL003
   6
CONTINUOUS
  62
7
  10
 630.952
  20
 442.223
  30
0.0
  40
 20.0000
  50
 322.327
  51
 355.632
   0
ARC
   8
LEVEL003
   6
CONTINUOUS
  62
7
  10
 501.271
  20
 495.050
  30
0.0
  40
 150.000
  50
 334.300
  51
 354.709
   0
ARC
   8
LEVEL001
   6
CONTINUOUS
  62
7
  10
 708.688
  20
 436.608
  30
0.0
  40
 0.800000
  50
 154.074
  51
 204.928
   0
ARC
   8
LEVEL001
   6
CONTINUOUS
  62
7
  10
 701.312
  20
 436.608
  30
0.0
  40
 0.800000
  50
 335.072
  51
 25.9259
   0
ARC
   8
LEVEL001
   6
CONTINUOUS
  62
7
  10
 705.000
  20
 440.850
  30
0.0
  40
 1.00000
  50
 14.4774
  51
 165.523
   0
LINE
   8
LEVEL001
   6
DASHDOT
  62
1
  10
 705.000
  20
 444.850
  30
0.0
  11
 705.000
  21
 418.100
  31
0.0
   0
LINE
   8
LEVEL001
   6
CONTINUOUS
  62
7
  10
 705.000
  20
 441.100
  30
0.0
  11
 702.600
  21
 441.100
  31
0.0
   0
LINE
   8
LEVEL001
   6
CONTINUOUS
  62
7
  10
 702.600
  20
 441.100
  30
0.0
  11
 701.700
  21
 438.400
  31
0.0
   0
LINE
   8
LEVEL001
   6
CONTINUOUS
  62
7
  10
 701.700
  20
 438.400
  30
0.0
  11
 705.000
  21
 438.400
  31
0.0
   0
LINE
   8
LEVEL001
   6
CONTINUOUS
  62
7
  10
 705.000
  20
 438.400
  30
0.0
  11
 708.300
  21
 438.400
  31
0.0
   0
LINE
   8
LEVEL001
   6
CONTINUOUS
  62
7
  10
 708.300
  20
 438.400
  30
0.0
  11
 707.400
  21
 441.100
  31
0.0
   0
LINE
   8
LEVEL001
   6
CONTINUOUS
  62
7
  10
 707.400
  20
 441.100
  30
0.0
  11
 705.000
  21
 441.100
  31
0.0
   0
LINE
   8
LEVEL001
   6
CONTINUOUS
  62
7
  10
 702.112
  20
 436.614
  30
0.0
  11
 707.875
  21
 436.614
  31
0.0
   0
ARC
   8
LEVEL001
   6
CONTINUOUS
  62
7
  10
 705.000
  20
 438.400
  30
0.0
  40
 3.30000
  50
 180.000
  51
 205.918
   0
ARC
   8
LEVEL001
   6
CONTINUOUS
  62
7
  10
 705.000
  20
 438.400
  30
0.0
  40
 3.30000
  50
 334.082
  51
 0.217126E-10
   0
ARC
   8
LEVEL001
   6
CONTINUOUS
  62
7
  10
 702.500
  20
 437.821
  30
0.0
  40
 7.22093
  50
 249.744
  51
 290.256
   0
ARC
   8
LEVEL001
   6
CONTINUOUS
  62
7
  10
 707.500
  20
 437.821
  30
0.0
  40
 7.22093
  50
 249.744
  51
 290.256
   0
ARC
   8
LEVEL001
   6
CONTINUOUS
  62
7
  10
 707.500
  20
 426.679
  30
0.0
  40
 7.22070
  50
 69.7433
  51
 110.257
   0
ARC
   8
LEVEL001
   6
CONTINUOUS
  62
7
  10
 702.500
  20
 426.679
  30
0.0
  40
 7.22070
  50
 69.7433
  51
 110.257
   0
LINE
   8
LEVEL001
   6
CONTINUOUS
  62
7
  10
 705.000
  20
 431.046
  30
0.0
  11
 705.000
  21
 433.453
  31
0.0
   0
ARC
   8
LEVEL001
   6
CONTINUOUS
  62
7
  10
 713.403
  20
 438.800
  30
0.0
  40
 6.00000
  50
 204.933
  51
 235.448
   0
ARC
   8
LEVEL001
   6
CONTINUOUS
  62
7
  10
 696.597
  20
 438.800
  30
0.0
  40
 6.00000
  50
 304.552
  51
 335.067
   0
LINE
   8
LEVEL001
   6
CONTINUOUS
  62
7
  10
 710.000
  20
 433.858
  30
0.0
  11
 710.000
  21
 430.600
  31
0.0
   0
LINE
   8
LEVEL001
   6
CONTINUOUS
  62
7
  10
 710.000
  20
 430.600
  30
0.0
  11
 700.000
  21
 430.600
  31
0.0
   0
LINE
   8
LEVEL001
   6
CONTINUOUS
  62
7
  10
 700.000
  20
 430.600
  30
0.0
  11
 700.000
  21
 433.858
  31
0.0
   0
LINE
   8
LEVEL001
   6
CONTINUOUS
  62
7
  10
 700.117
  20
 430.600
  30
0.0
  11
 700.136
  21
 430.000
  31
0.0
   0
LINE
   8
LEVEL001
   6
CONTINUOUS
  62
7
  10
 709.864
  20
 430.000
  30
0.0
  11
 709.883
  21
 430.600
  31
0.0
   0
LINE
   8
LEVEL001
   6
CONTINUOUS
  62
3
  10
 700.117
  20
 430.600
  30
0.0
  11
 700.717
  21
 430.000
  31
0.0
   0
LINE
   8
LEVEL001
   6
CONTINUOUS
  62
3
  10
 709.883
  20
 430.600
  30
0.0
  11
 709.283
  21
 430.000
  31
0.0
   0
LINE
   8
LEVEL003
   6
CONTINUOUS
  62
7
  10
 727.000
  20
 430.000
  30
0.0
  11
 627.500
  21
 430.000
  31
0.0
   0
ARC
   8
LEVEL003
   6
CONTINUOUS
  62
7
  10
 603.000
  20
 403.000
  30
0.0
  40
 2.00000
  50
 90.0000
  51
 180.000
   0
LINE
   8
LEVEL003
   6
CONTINUOUS
  62
7
  10
 603.000
  20
 405.000
  30
0.0
  11
 610.500
  21
 405.000
  31
0.0
   0
ARC
   8
LEVEL003
   6
CONTINUOUS
  62
7
  10
 610.500
  20
 407.000
  30
0.0
  40
 2.00000
  50
 270.000
  51
0.0
   0
ARC
   8
LEVEL003
   6
CONTINUOUS
  62
7
  10
 603.000
  20
 347.000
  30
0.0
  40
 2.00000
  50
 180.000
  51
 270.000
   0
LINE
   8
LEVEL003
   6
CONTINUOUS
  62
7
  10
 603.000
  20
 345.000
  30
0.0
  11
 610.500
  21
 345.000
  31
0.0
   0
ARC
   8
LEVEL003
   6
CONTINUOUS
  62
7
  10
 610.500
  20
 343.000
  30
0.0
  40
 2.00000
  50
0.0
  51
 90.0000
   0
LINE
   8
LEVEL003
   6
DASHDOT
  62
1
  10
 775.000
  20
 271.250
  30
0.0
  11
 775.000
  21
 266.750
  31
0.0
   0
LINE
   8
LEVEL003
   6
DASHDOT
  62
1
  10
 807.500
  20
 271.250
  30
0.0
  11
 807.500
  21
 266.750
  31
0.0
   0
LINE
   8
LEVEL003
   6
DASHDOT
  62
1
  10
 832.500
  20
 271.250
  30
0.0
  11
 832.500
  21
 266.750
  31
0.0
   0
LINE
   8
LEVEL003
   6
CONTINUOUS
  62
7
  10
 850.500
  20
 269.000
  30
0.0
  11
 735.000
  21
 269.000
  31
0.0
   0
ARC
   8
LEVEL003
   6
CONTINUOUS
  62
7
  10
 850.500
  20
 271.000
  30
0.0
  40
 2.00000
  50
 270.000
  51
0.0
   0
LINE
   8
LEVEL003
   6
CONTINUOUS
  62
7
  10
 852.500
  20
 284.000
  30
0.0
  11
 852.500
  21
 271.000
  31
0.0
   0
LINE
   8
LEVEL003
   6
CONTINUOUS
  62
7
  10
 854.000
  20
 304.000
  30
0.0
  11
 735.000
  21
 304.000
  31
0.0
   0
ARC
   8
LEVEL003
   6
CONTINUOUS
  62
7
  10
 855.000
  20
 305.000
  30
0.0
  40
 1.00000
  50
 180.000
  51
 270.000
   0
LINE
   8
LEVEL003
   6
CONTINUOUS
  62
7
  10
 855.000
  20
 284.000
  30
0.0
  11
 855.000
  21
 304.000
  31
0.0
   0
LINE
   8
LEVEL003
   6
CONTINUOUS
  62
7
  10
 855.000
  20
 284.000
  30
0.0
  11
 735.000
  21
 284.000
  31
0.0
   0
LINE
   8
LEVEL003
   6
CONTINUOUS
  62
7
  10
 735.000
  20
 320.000
  30
0.0
  11
 842.500
  21
 320.000
  31
0.0
   0
LINE
   8
LEVEL003
   6
CONTINUOUS
  62
7
  10
 857.000
  20
 319.000
  30
0.0
  11
 842.500
  21
 319.000
  31
0.0
   0
ARC
   8
LEVEL003
   6
CONTINUOUS
  62
7
  10
 857.000
  20
 319.500
  30
0.0
  40
 0.500000
  50
 270.000
  51
0.0
   0
LINE
   8
LEVEL003
   6
CONTINUOUS
  62
7
  10
 854.000
  20
 305.000
  30
0.0
  11
 854.000
  21
 319.000
  31
0.0
   0
LINE
   8
LEVEL003
   6
DASHDOT
  62
1
  10
 870.000
  20
 329.000
  30
0.0
  11
 819.247
  21
 329.000
  31
0.0
   0
LINE
   8
LEVEL003
   6
CONTINUOUS
  62
7
  10
 857.000
  20
 431.000
  30
0.0
  11
 842.500
  21
 431.000
  31
0.0
   0
ARC
   8
LEVEL003
   6
CONTINUOUS
  62
7
  10
 857.000
  20
 430.500
  30
0.0
  40
 0.500000
  50
0.0
  51
 90.0000
   0
LINE
   8
LEVEL003
   6
DASHDOT
  62
1
  10
 870.000
  20
 421.000
  30
0.0
  11
 819.247
  21
 421.000
  31
0.0
   0
LINE
   8
LEVEL003
   6
CONTINUOUS
  62
7
  10
 743.000
  20
 430.000
  30
0.0
  11
 842.500
  21
 430.000
  31
0.0
   0
ARC
   8
LEVEL003
   6
CONTINUOUS
  62
7
  10
 743.000
  20
 489.000
  30
0.0
  40
 3.00000
  50
 90.0000
  51
 180.000
   0
LINE
   8
LEVEL003
   6
CONTINUOUS
  62
7
  10
 758.000
  20
 492.000
  30
0.0
  11
 735.000
  21
 492.000
  31
0.0
   0
ARC
   8
LEVEL003
   6
CONTINUOUS
  62
7
  10
 743.000
  20
 433.000
  30
0.0
  40
 3.00000
  50
 180.000
  51
 270.000
   0
ARC
   8
LEVEL003
   6
CONTINUOUS
  62
7
  10
 743.000
  20
 425.686
  30
0.0
  40
 3.00000
  50
 180.000
  51
 270.000
   0
LINE
   8
LEVEL003
   6
CONTINUOUS
  62
7
  10
 740.000
  20
 489.000
  30
0.0
  11
 740.000
  21
 425.686
  31
0.0
   0
ARC
   8
LEVEL001
   6
CONTINUOUS
  62
7
  10
 796.500
  20
 577.000
  30
0.0
  40
 2.00000
  50
0.0
  51
 90.0000
   0
LINE
   8
LEVEL003
   6
CONTINUOUS
  62
7
  10
 798.500
  20
 559.000
  30
0.0
  11
 798.500
  21
 577.000
  31
0.0
   0
ARC
   8
LEVEL003
   6
CONTINUOUS
  62
7
  10
 810.500
  20
 557.000
  30
0.0
  40
 2.00000
  50
0.0
  51
 90.0000
   0
ARC
   8
LEVEL003
   6
CONTINUOUS
  62
7
  10
 812.160
  20
 537.361
  30
0.0
  40
 2.00000
  50
 114.525
  51
 185.291
   0
ARC
   8
LEVEL003
   6
CONTINUOUS
  62
7
  10
 810.500
  20
 541.000
  30
0.0
  40
 2.00000
  50
 294.525
  51
 0.713258E-9
   0
LINE
   8
LEVEL003
   6
CONTINUOUS
  62
7
  10
 810.500
  20
 539.000
  30
0.0
  11
 760.000
  21
 539.000
  31
0.0
   0
ARC
   8
LEVEL003
   6
CONTINUOUS
  62
7
  10
 758.000
  20
 557.000
  30
0.0
  40
 2.00000
  50
0.0
  51
 90.0000
   0
LINE
   8
LEVEL003
   6
CONTINUOUS
  62
7
  10
 760.000
  20
 494.000
  30
0.0
  11
 760.000
  21
 557.000
  31
0.0
   0
ARC
   8
LEVEL003
   6
CONTINUOUS
  62
7
  10
 758.000
  20
 494.000
  30
0.0
  40
 2.00000
  50
 270.000
  51
0.0
   0
LINE
   8
LEVEL003
   6
CONTINUOUS
  62
7
  10
 735.000
  20
 559.000
  30
0.0
  11
 810.500
  21
 559.000
  31
0.0
   0
LINE
   8
LEVEL003
   6
CONTINUOUS
  62
7
  10
 812.500
  20
 557.000
  30
0.0
  11
 812.500
  21
 541.000
  31
0.0
   0
ARC
   8
LEVEL003
   6
CONTINUOUS
  62
7
  10
 968.729
  20
 495.050
  30
0.0
  40
 150.000
  50
 185.291
  51
 205.700
   0
ARC
   8
LEVEL003
   6
CONTINUOUS
  62
7
  10
 839.048
  20
 442.223
  30
0.0
  40
 20.0000
  50
 184.368
  51
 217.673
   0
LINE
   8
LEVEL003
   6
CONTINUOUS
  62
7
  10
 857.500
  20
 319.500
  30
0.0
  11
 857.500
  21
 430.500
  31
0.0
   0
LINE
   8
LEVEL003
   6
CONTINUOUS
  62
7
  10
 842.500
  20
 319.000
  30
0.0
  11
 842.500
  21
 431.000
  31
0.0
   0
LINE
   8
LEVEL003
   6
DASHDOT
  62
1
  10
 870.000
  20
 375.000
  30
0.0
  11
 525.000
  21
 375.000
  31
0.0
   0
TEXT
   8
LEVEL020
  62
6
  10
 375.000
  20
 735.000
  30
0.0
  40
 15.0000
   1
ストローク
   7
STANDARD
   0
TEXT
   8
LEVEL020
  62
6
  10
 375.000
  20
 756.000
  30
0.0
  40
 15.0000
   1
揚　　　力
   7
STANDARD
   0
TEXT
   8
LEVEL020
  62
6
  10
 630.000
  20
 735.000
  30
0.0
  40
 15.0000
   1
ｍｍ
  41
 0.700000
   7
STANDARD
   0
LINE
   8
LEVEL020
   6
CONTINUOUS
  62
6
  10
 375.000
  20
 774.000
  30
0.0
  11
 675.000
  21
 774.000
  31
0.0
   0
LINE
   8
LEVEL020
   6
CONTINUOUS
  62
6
  10
 375.000
  20
 753.000
  30
0.0
  11
 675.000
  21
 753.000
  31
0.0
   0
LINE
   8
LEVEL020
   6
CONTINUOUS
  62
6
  10
 375.000
  20
 732.000
  30
0.0
  11
 675.000
  21
 732.000
  31
0.0
   0
TEXT
   8
LEVEL020
  62
6
  10
 375.000
  20
 777.000
  30
0.0
  40
 15.0000
   1
形　　　式
   7
STANDARD
   0
TEXT
   8
LEVEL020
  62
6
  10
 375.000
  20
 798.000
  30
0.0
  40
 15.0000
   1
仕　　　様
   7
STANDARD
   0
LINE
   8
LEVEL020
   6
CONTINUOUS
  62
6
  10
 375.000
  20
 795.000
  30
0.0
  11
 450.000
  21
 795.000
  31
0.0
   0
TEXT
   8
LEVEL020
  62
6
  10
 375.000
  20
 714.000
  30
0.0
  40
 15.0000
   1
最低高さ
   7
STANDARD
   0
TEXT
   8
LEVEL020
  62
6
  10
 630.000
  20
 714.000
  30
0.0
  40
 15.0000
   1
ｍｍ
  41
 0.700000
   7
STANDARD
   0
LINE
   8
LEVEL020
   6
CONTINUOUS
  62
6
  10
 375.000
  20
 711.000
  30
0.0
  11
 675.000
  21
 711.000
  31
0.0
   0
LINE
   8
LEVEL020
   6
CONTINUOUS
  62
6
  10
 375.000
  20
 690.000
  30
0.0
  11
 675.000
  21
 690.000
  31
0.0
   0
LINE
   8
LEVEL020
   6
CONTINUOUS
  62
6
  10
 375.000
  20
 669.000
  30
0.0
  11
 675.000
  21
 669.000
  31
0.0
   0
TEXT
   8
LEVEL020
  62
6
  10
 375.000
  20
 672.000
  30
0.0
  40
 15.0000
   1
付　属　品
   7
STANDARD
   0
TEXT
   8
LEVEL020
  62
6
  10
 546.000
  20
 672.000
  30
0.0
  40
 15.0000
   1
　　　　　　１
  41
 0.700000
   7
STANDARD
   0
TEXT
   8
LEVEL020
  62
6
  10
 630.000
  20
 672.000
  30
0.0
  40
 15.0000
   1
本
  41
 0.500000
   7
STANDARD
   0
TEXT
   8
LEVEL020
  62
6
  10
 630.000
  20
 693.000
  30
0.0
  40
 15.0000
   1
ｋｇ
  41
 0.700000
   7
STANDARD
   0
ARC
   8
LEVEL001
   6
CONTINUOUS
  62
7
  10
 331.500
  20
 577.000
  30
0.0
  40
 2.00000
  50
0.0
  51
 90.0000
   0
LINE
   8
LEVEL003
   6
CONTINUOUS
  62
7
  10
 333.500
  20
 577.000
  30
0.0
  11
 333.500
  21
 559.000
  31
0.0
   0
LINE
   8
LEVEL001
   6
CONTINUOUS
  62
7
  10
 331.500
  20
 579.000
  30
0.0
  11
 208.500
  21
 579.000
  31
0.0
   0
ARC
   8
LEVEL001
   6
CONTINUOUS
  62
7
  10
 208.500
  20
 577.000
  30
0.0
  40
 2.00000
  50
 90.0000
  51
 180.000
   0
LINE
   8
LEVEL003
   6
CONTINUOUS
  62
7
  10
 206.500
  20
 559.000
  30
0.0
  11
 206.500
  21
 577.000
  31
0.0
   0
LINE
   8
LEVEL003
   6
DASHDOT
  62
1
  10
 295.000
  20
 581.250
  30
0.0
  11
 295.000
  21
 576.750
  31
0.0
   0
LINE
   8
LEVEL003
   6
DASHDOT
  62
1
  10
 315.000
  20
 581.250
  30
0.0
  11
 315.000
  21
 576.750
  31
0.0
   0
LINE
   8
LEVEL003
   6
DASHDOT
  62
1
  10
 245.000
  20
 581.250
  30
0.0
  11
 245.000
  21
 576.750
  31
0.0
   0
LINE
   8
LEVEL003
   6
DASHDOT
  62
1
  10
 225.000
  20
 581.250
  30
0.0
  11
 225.000
  21
 576.750
  31
0.0
   0
LINE
   8
LEVEL003
   6
DASHDOT
  62
1
  10
 320.000
  20
 375.000
  30
0.0
  11
 440.000
  21
 375.000
  31
0.0
   0
LINE
   8
LEVEL003
   6
CONTINUOUS
  62
7
  10
 177.500
  20
 537.000
  30
0.0
  11
 177.500
  21
 521.000
  31
0.0
   0
LINE
   8
LEVEL003
   6
CONTINUOUS
  62
7
  10
 151.000
  20
 304.000
  30
0.0
  11
 270.000
  21
 304.000
  31
0.0
   0
ARC
   8
LEVEL003
   6
CONTINUOUS
  62
7
  10
 150.000
  20
 305.000
  30
0.0
  40
 1.00000
  50
 270.000
  51
0.0
   0
LINE
   8
LEVEL003
   6
CONTINUOUS
  62
7
  10
 150.000
  20
 284.000
  30
0.0
  11
 150.000
  21
 304.000
  31
0.0
   0
ARC
   8
LEVEL003
   6
CONTINUOUS
  62
7
  10
 165.952
  20
 442.223
  30
0.0
  40
 20.0000
  50
 300.046
  51
 355.632
   0
ARC
   8
LEVEL003
   6
CONTINUOUS
  62
7
  10
 201.000
  20
 381.629
  30
0.0
  40
 50.0000
  50
 120.046
  51
 180.000
   0
LINE
   8
LEVEL003
   6
CONTINUOUS
  62
7
  10
 186.000
  20
 492.000
  30
0.0
  11
 185.000
  21
 491.000
  31
0.0
   0
ARC
   8
LEVEL003
   6
CONTINUOUS
  62
7
  10
 20.0000
  20
 497.664
  30
0.0
  40
 165.135
  50
 326.223
  51
 357.687
   0
ARC
   8
LEVEL003
   6
CONTINUOUS
  62
7
  10
 187.654
  20
 490.000
  30
0.0
  40
 2.00000
  50
 355.632
  51
 90.0000
   0
LINE
   8
LEVEL003
   6
CONTINUOUS
  62
7
  10
 185.894
  20
 440.700
  30
0.0
  11
 189.648
  21
 489.848
  31
0.0
   0
LINE
   8
LEVEL003
   6
DASHDOT
  62
1
  10
 174.000
  20
 529.000
  30
0.0
  11
 214.517
  21
 529.000
  31
0.0
   0
LINE
   8
LEVEL003
   6
CONTINUOUS
  62
7
  10
 186.000
  20
 521.000
  30
0.0
  11
 177.500
  21
 521.000
  31
0.0
   0
LINE
   8
LEVEL003
   6
CONTINUOUS
  62
7
  10
 177.500
  20
 521.000
  30
0.0
  11
 177.000
  21
 521.866
  31
0.0
   0
LINE
   8
LEVEL003
   6
CONTINUOUS
  62
7
  10
 177.000
  20
 521.866
  30
0.0
  11
 177.000
  21
 536.134
  31
0.0
   0
LINE
   8
LEVEL003
   6
CONTINUOUS
  62
7
  10
 177.000
  20
 536.134
  30
0.0
  11
 177.500
  21
 537.000
  31
0.0
   0
LINE
   8
LEVEL003
   6
CONTINUOUS
  62
7
  10
 177.500
  20
 537.000
  30
0.0
  11
 186.000
  21
 537.000
  31
0.0
   0
ARC
   8
LEVEL003
   6
CONTINUOUS
  62
7
  10
 187.000
  20
 493.000
  30
0.0
  40
 1.00000
  50
 180.000
  51
 270.000
   0
LINE
   8
LEVEL003
   6
CONTINUOUS
  62
7
  10
 189.806
  20
 493.955
  30
0.0
  11
 189.806
  21
 556.662
  31
0.0
   0
LINE
   8
LEVEL003
   6
CONTINUOUS
  62
7
  10
 187.000
  20
 492.000
  30
0.0
  11
 187.806
  21
 492.000
  31
0.0
   0
ARC
   8
LEVEL003
   6
CONTINUOUS
  62
7
  10
 187.806
  20
 490.000
  30
0.0
  40
 2.00000
  50
0.0
  51
 90.0000
   0
LINE
   8
LEVEL003
   6
CONTINUOUS
  62
7
  10
 354.000
  20
 492.000
  30
0.0
  11
 355.000
  21
 491.000
  31
0.0
   0
ARC
   8
LEVEL003
   6
CONTINUOUS
  62
7
  10
 352.346
  20
 490.000
  30
0.0
  40
 2.00000
  50
 90.0000
  51
 184.368
   0
LINE
   8
LEVEL003
   6
CONTINUOUS
  62
7
  10
 353.512
  20
 448.477
  30
0.0
  11
 350.352
  21
 489.848
  31
0.0
   0
ARC
   8
LEVEL003
   6
CONTINUOUS
  62
7
  10
 373.454
  20
 450.000
  30
0.0
  40
 20.0000
  50
 184.368
  51
 270.000
   0
LINE
   8
LEVEL003
   6
CONTINUOUS
  62
7
  10
 353.000
  20
 492.000
  30
0.0
  11
 352.346
  21
 492.000
  31
0.0
   0
ARC
   8
LEVEL003
   6
CONTINUOUS
  62
7
  10
 353.000
  20
 493.000
  30
0.0
  40
 1.00000
  50
 270.000
  51
0.0
   0
LINE
   8
LEVEL003
   6
CONTINUOUS
  62
7
  10
 385.500
  20
 269.000
  30
0.0
  11
 270.000
  21
 269.000
  31
0.0
   0
ARC
   8
LEVEL003
   6
CONTINUOUS
  62
7
  10
 385.500
  20
 271.000
  30
0.0
  40
 2.00000
  50
 270.000
  51
0.0
   0
LINE
   8
LEVEL003
   6
DASHDOT
  62
1
  10
 310.000
  20
 271.250
  30
0.0
  11
 310.000
  21
 266.750
  31
0.0
   0
LINE
   8
LEVEL003
   6
DASHDOT
  62
1
  10
 342.500
  20
 271.250
  30
0.0
  11
 342.500
  21
 266.750
  31
0.0
   0
LINE
   8
LEVEL003
   6
DASHDOT
  62
1
  10
 367.500
  20
 271.250
  30
0.0
  11
 367.500
  21
 266.750
  31
0.0
   0
LINE
   8
LEVEL003
   6
CONTINUOUS
  62
7
  10
 150.000
  20
 284.000
  30
0.0
  11
 270.000
  21
 284.000
  31
0.0
   0
LINE
   8
LEVEL003
   6
DASHDOT
  62
1
  10
 230.000
  20
 271.250
  30
0.0
  11
 230.000
  21
 266.750
  31
0.0
   0
LINE
   8
LEVEL003
   6
DASHDOT
  62
1
  10
 197.500
  20
 271.250
  30
0.0
  11
 197.500
  21
 266.750
  31
0.0
   0
LINE
   8
LEVEL003
   6
DASHDOT
  62
1
  10
 172.500
  20
 271.250
  30
0.0
  11
 172.500
  21
 266.750
  31
0.0
   0
LINE
   8
LEVEL003
   6
CONTINUOUS
  62
7
  10
 154.500
  20
 269.000
  30
0.0
  11
 270.000
  21
 269.000
  31
0.0
   0
ARC
   8
LEVEL003
   6
CONTINUOUS
  62
7
  10
 154.500
  20
 271.000
  30
0.0
  40
 2.00000
  50
 180.000
  51
 270.000
   0
LINE
   8
LEVEL003
   6
CONTINUOUS
  62
7
  10
 152.500
  20
 284.000
  30
0.0
  11
 152.500
  21
 271.000
  31
0.0
   0
LINE
   8
LEVEL003
   6
DASHDOT
  62
1
  10
 277.000
  20
 299.000
  30
0.0
  11
 263.000
  21
 299.000
  31
0.0
   0
ARC
   8
LEVEL003
   6
CONTINUOUS
  62
3
  10
 270.000
  20
 299.000
  30
0.0
  40
 3.37500
  50
 90.0000
  51
 270.000
   0
LINE
   8
LEVEL003
   6
CONTINUOUS
  62
7
  10
 270.000
  20
 296.691
  30
0.0
  11
 268.000
  21
 297.845
  31
0.0
   0
LINE
   8
LEVEL003
   6
CONTINUOUS
  62
7
  10
 268.000
  20
 297.845
  30
0.0
  11
 268.000
  21
 300.155
  31
0.0
   0
LINE
   8
LEVEL003
   6
CONTINUOUS
  62
7
  10
 268.000
  20
 300.155
  30
0.0
  11
 270.000
  21
 301.309
  31
0.0
   0
ARC
   8
LEVEL003
   6
CONTINUOUS
  62
7
  10
 270.000
  20
 299.000
  30
0.0
  40
 4.00000
  50
 90.0000
  51
 270.000
   0
LINE
   8
LEVEL003
   6
CONTINUOUS
  62
7
  10
 186.000
  20
 557.000
  30
0.0
  11
 186.000
  21
 492.000
  31
0.0
   0
ARC
   8
LEVEL003
   6
CONTINUOUS
  62
7
  10
 188.000
  20
 557.000
  30
0.0
  40
 2.00000
  50
 90.0000
  51
 180.000
   0
LINE
   8
LEVEL003
   6
CONTINUOUS
  62
7
  10
 270.000
  20
 559.000
  30
0.0
  11
 188.000
  21
 559.000
  31
0.0
   0
LINE
   8
LEVEL001
   6
DASHDOT
  62
1
  10
 270.000
  20
 255.000
  30
0.0
  11
 270.000
  21
 583.564
  31
0.0
   0
LINE
   8
LEVEL003
   6
CONTINUOUS
  62
3
  10
 205.500
  20
 579.000
  30
0.0
  11
 99.0000
  21
 579.000
  31
0.0
   0
LINE
   8
LEVEL003
   6
CONTINUOUS
  62
3
  10
 151.500
  20
 269.000
  30
0.0
  11
 99.0000
  21
 269.000
  31
0.0
   0
LINE
   8
LEVEL003
   6
CONTINUOUS
  62
3
  10
 105.000
  20
 579.000
  30
0.0
  11
 105.000
  21
 269.000
  31
0.0
   0
LINE
   8
LEVEL003
   6
CONTINUOUS
  62
3
  10
 103.500
  20
 570.000
  30
0.0
  11
 105.000
  21
 579.000
  31
0.0
   0
LINE
   8
LEVEL003
   6
CONTINUOUS
  62
3
  10
 105.000
  20
 579.000
  30
0.0
  11
 106.500
  21
 570.000
  31
0.0
   0
LINE
   8
LEVEL003
   6
CONTINUOUS
  62
3
  10
 105.000
  20
 579.000
  30
0.0
  11
 105.000
  21
 570.000
  31
0.0
   0
LINE
   8
LEVEL003
   6
CONTINUOUS
  62
3
  10
 106.500
  20
 278.000
  30
0.0
  11
 105.000
  21
 269.000
  31
0.0
   0
LINE
   8
LEVEL003
   6
CONTINUOUS
  62
3
  10
 105.000
  20
 269.000
  30
0.0
  11
 103.500
  21
 278.000
  31
0.0
   0
LINE
   8
LEVEL003
   6
CONTINUOUS
  62
3
  10
 105.000
  20
 269.000
  30
0.0
  11
 105.000
  21
 278.000
  31
0.0
   0
TEXT
   8
LEVEL003
  62
3
  10
 110.600
  20
 415.000
  30
0.0
  40
 12.0000
   1
310
  50
 90.0000
  41
 0.500000
   7
STANDARD
  72
1
  11
 102.600
  21
 424.000
  31
0.0
  73
2
   0
TEXT
   8
LEVEL020
  62
6
  10
 546.000
  20
 735.000
  30
0.0
  40
 15.0000
   1
　　　　１０５
  41
 0.700000
   7
STANDARD
   0
TEXT
   8
LEVEL020
  62
6
  10
 546.000
  20
 714.000
  30
0.0
  40
 15.0000
   1
　　　　３１０
  41
 0.700000
   7
STANDARD
   0
TEXT
   8
LEVEL020
  62
6
  10
 546.000
  20
 693.000
  30
0.0
  40
 15.0000
   1
　　　約　７５
  41
 0.700000
   7
STANDARD
   0
TEXT
   8
LEVEL020
  62
6
  10
 460.500
  20
 672.000
  30
0.0
  40
 15.0000
   1
ハンドル棒（%%c３２×１５００Ｌ）
  41
 0.600000
   7
STANDARD
   0
ARC
   8
LEVEL003
   6
CONTINUOUS
  62
7
  10
 262.000
  20
 408.854
  30
0.0
  40
 3.00000
  50
 270.000
  51
0.0
   0
LINE
   8
LEVEL003
   6
CONTINUOUS
  62
3
  10
 517.500
  20
 292.000
  30
0.0
  11
 517.500
  21
 204.000
  31
0.0
   0
LINE
   8
LEVEL003
   6
CONTINUOUS
  62
3
  10
 867.000
  20
 317.500
  30
0.0
  11
 867.000
  21
 204.000
  31
0.0
   0
LINE
   8
LEVEL003
   6
CONTINUOUS
  62
3
  10
 517.500
  20
 210.000
  30
0.0
  11
 867.000
  21
 210.000
  31
0.0
   0
LINE
   8
LEVEL003
   6
CONTINUOUS
  62
3
  10
 526.500
  20
 208.500
  30
0.0
  11
 517.500
  21
 210.000
  31
0.0
   0
LINE
   8
LEVEL003
   6
CONTINUOUS
  62
3
  10
 517.500
  20
 210.000
  30
0.0
  11
 526.500
  21
 211.500
  31
0.0
   0
LINE
   8
LEVEL003
   6
CONTINUOUS
  62
3
  10
 517.500
  20
 210.000
  30
0.0
  11
 526.500
  21
 210.000
  31
0.0
   0
LINE
   8
LEVEL003
   6
CONTINUOUS
  62
3
  10
 858.000
  20
 211.500
  30
0.0
  11
 867.000
  21
 210.000
  31
0.0
   0
LINE
   8
LEVEL003
   6
CONTINUOUS
  62
3
  10
 867.000
  20
 210.000
  30
0.0
  11
 858.000
  21
 208.500
  31
0.0
   0
LINE
   8
LEVEL003
   6
CONTINUOUS
  62
3
  10
 867.000
  20
 210.000
  30
0.0
  11
 858.000
  21
 210.000
  31
0.0
   0
TEXT
   8
LEVEL003
  62
3
  10
 677.250
  20
 204.400
  30
0.0
  40
 12.0000
   1
約350
   7
STANDARD
  72
1
  11
 692.250
  21
 212.400
  31
0.0
  73
2
   0
LINE
   8
LEVEL003
   6
CONTINUOUS
  62
3
  10
 206.500
  20
 580.000
  30
0.0
  11
 206.500
  21
 636.000
  31
0.0
   0
LINE
   8
LEVEL003
   6
CONTINUOUS
  62
3
  10
 333.500
  20
 580.000
  30
0.0
  11
 333.500
  21
 636.000
  31
0.0
   0
LINE
   8
LEVEL003
   6
CONTINUOUS
  62
3
  10
 206.500
  20
 630.000
  30
0.0
  11
 333.500
  21
 630.000
  31
0.0
   0
LINE
   8
LEVEL003
   6
CONTINUOUS
  62
3
  10
 215.500
  20
 628.500
  30
0.0
  11
 206.500
  21
 630.000
  31
0.0
   0
LINE
   8
LEVEL003
   6
CONTINUOUS
  62
3
  10
 206.500
  20
 630.000
  30
0.0
  11
 215.500
  21
 631.500
  31
0.0
   0
LINE
   8
LEVEL003
   6
CONTINUOUS
  62
3
  10
 206.500
  20
 630.000
  30
0.0
  11
 215.500
  21
 630.000
  31
0.0
   0
LINE
   8
LEVEL003
   6
CONTINUOUS
  62
3
  10
 324.500
  20
 631.500
  30
0.0
  11
 333.500
  21
 630.000
  31
0.0
   0
LINE
   8
LEVEL003
   6
CONTINUOUS
  62
3
  10
 333.500
  20
 630.000
  30
0.0
  11
 324.500
  21
 628.500
  31
0.0
   0
LINE
   8
LEVEL003
   6
CONTINUOUS
  62
3
  10
 333.500
  20
 630.000
  30
0.0
  11
 324.500
  21
 630.000
  31
0.0
   0
TEXT
   8
LEVEL003
  62
3
  10
 255.000
  20
 624.400
  30
0.0
  40
 12.0000
   1
%%c127
   7
STANDARD
  72
1
  11
 270.000
  21
 632.400
  31
0.0
  73
2
   0
LINE
   8
LEVEL003
   6
CONTINUOUS
  62
3
  10
 152.500
  20
 268.000
  30
0.0
  11
 152.500
  21
 204.000
  31
0.0
   0
LINE
   8
LEVEL003
   6
CONTINUOUS
  62
3
  10
 387.500
  20
 268.000
  30
0.0
  11
 387.500
  21
 204.000
  31
0.0
   0
LINE
   8
LEVEL003
   6
CONTINUOUS
  62
3
  10
 152.500
  20
 210.000
  30
0.0
  11
 387.500
  21
 210.000
  31
0.0
   0
LINE
   8
LEVEL003
   6
CONTINUOUS
  62
3
  10
 161.500
  20
 208.500
  30
0.0
  11
 152.500
  21
 210.000
  31
0.0
   0
LINE
   8
LEVEL003
   6
CONTINUOUS
  62
3
  10
 152.500
  20
 210.000
  30
0.0
  11
 161.500
  21
 211.500
  31
0.0
   0
LINE
   8
LEVEL003
   6
CONTINUOUS
  62
3
  10
 152.500
  20
 210.000
  30
0.0
  11
 161.500
  21
 210.000
  31
0.0
   0
LINE
   8
LEVEL003
   6
CONTINUOUS
  62
3
  10
 378.500
  20
 211.500
  30
0.0
  11
 387.500
  21
 210.000
  31
0.0
   0
LINE
   8
LEVEL003
   6
CONTINUOUS
  62
3
  10
 387.500
  20
 210.000
  30
0.0
  11
 378.500
  21
 208.500
  31
0.0
   0
LINE
   8
LEVEL003
   6
CONTINUOUS
  62
3
  10
 387.500
  20
 210.000
  30
0.0
  11
 378.500
  21
 210.000
  31
0.0
   0
TEXT
   8
LEVEL003
  62
3
  10
 255.000
  20
 204.400
  30
0.0
  40
 12.0000
   1
%%c235
   7
STANDARD
  72
1
  11
 270.000
  21
 212.400
  31
0.0
  73
2
   0
TEXT
   8
LEVEL020
  62
6
  10
 546.000
  20
 777.000
  30
0.0
  40
 15.0000
   1
　　ＪＪ－１００１１
  41
 0.700000
   7
STANDARD
   0
TEXT
   8
LEVEL020
  62
6
  10
 375.000
  20
 693.000
  30
0.0
  40
 15.0000
   1
質　　　量
   7
STANDARD
   0
TEXT
   8
LEVEL020
  62
6
  10
 630.000
  20
 756.000
  30
0.0
  40
 15.0000
   1
ｋＮ
  41
 0.700000
   7
STANDARD
   0
TEXT
   8
LEVEL020
  62
6
  10
 535.427
  20
 756.000
  30
0.0
  40
 15.0000
   1
　　　　１０００
  41
 0.700000
   7
STANDARD
   0
LINE
   8
LEVEL003
   6
CONTINUOUS
  62
7
  10
 151.000
  20
 366.363
  30
0.0
  11
 151.000
  21
 381.629
  31
0.0
   0
ARC
   8
LEVEL003
   6
CONTINUOUS
  62
7
  10
 146.000
  20
 366.363
  30
0.0
  40
 5.00000
  50
 315.585
  51
 0.156331E-10
   0
LINE
   8
LEVEL003
   6
CONTINUOUS
  62
7
  10
 151.000
  20
 305.000
  30
0.0
  11
 151.000
  21
 315.637
  31
0.0
   0
ARC
   8
LEVEL003
   6
CONTINUOUS
  62
7
  10
 146.000
  20
 315.637
  30
0.0
  40
 5.00000
  50
 0.227982E-10
  51
 44.4153
   0
ARC
   8
LEVEL003
   6
CONTINUOUS
  62
7
  10
 149.000
  20
 358.000
  30
0.0
  40
 2.00000
  50
 0.439680E-10
  51
 60.0000
   0
ARC
   8
LEVEL003
   6
CONTINUOUS
  62
7
  10
 151.000
  20
 361.464
  30
0.0
  40
 2.00000
  50
 135.585
  51
 240.000
   0
LINE
   8
LEVEL003
   6
CONTINUOUS
  62
7
  10
 151.000
  20
 358.000
  30
0.0
  11
 151.000
  21
 324.000
  31
0.0
   0
ARC
   8
LEVEL003
   6
CONTINUOUS
  62
7
  10
 149.000
  20
 324.000
  30
0.0
  40
 2.00000
  50
 300.000
  51
0.0
   0
ARC
   8
LEVEL003
   6
CONTINUOUS
  62
7
  10
 151.000
  20
 320.536
  30
0.0
  40
 2.00000
  50
 120.000
  51
 224.415
   0
ARC
   8
LEVEL003
   6
CONTINUOUS
  62
7
  10
 111.857
  20
 340.935
  30
0.0
  40
 42.8005
  50
 335.900
  51
 23.9298
   0
ARC
   8
LEVEL003
   6
CONTINUOUS
  62
7
  10
 109.177
  20
 341.052
  30
0.0
  40
 47.4632
  50
 333.870
  51
 26.0154
   0
ARC
   8
LEVEL003
   6
CONTINUOUS
  62
7
  10
 262.000
  20
 517.875
  30
0.0
  40
 3.00000
  50
0.0
  51
 63.6122
   0
LINE
   8
LEVEL003
   6
CONTINUOUS
  62
7
  10
 265.000
  20
 517.875
  30
0.0
  11
 265.000
  21
 463.887
  31
0.0
   0
LINE
   8
LEVEL003
   6
CONTINUOUS
  62
7
  10
 265.000
  20
 452.788
  30
0.0
  11
 265.000
  21
 408.854
  31
0.0
   0
ARC
   8
LEVEL003
   6
CONTINUOUS
  62
7
  10
 270.000
  20
 534.000
  30
0.0
  40
 15.0000
  50
 90.0000
  51
 168.707
   0
ARC
   8
LEVEL003
   6
CONTINUOUS
  62
7
  10
 270.000
  20
 534.000
  30
0.0
  40
 15.0000
  50
 212.514
  51
 270.000
   0
ARC
   8
LEVEL001
   6
CONTINUOUS
  62
7
  10
 270.000
  20
 534.000
  30
0.0
  40
 11.5000
  50
 90.0000
  51
 270.000
   0
ARC
   8
LEVEL001
   6
CONTINUOUS
  62
7
  10
 270.000
  20
 534.000
  30
0.0
  40
 12.5000
  50
 90.0000
  51
 270.000
   0
ARC
   8
LEVEL001
   6
CONTINUOUS
  62
7
  10
 270.000
  20
 496.000
  30
0.0
  40
 32.5000
  50
 108.380
  51
 270.000
   0
ARC
   8
LEVEL001
   6
DASHDOT
  62
1
  10
 270.000
  20
 496.000
  30
0.0
  40
 38.0000
  50
 90.0000
  51
 270.000
   0
ARC
   8
LEVEL001
   6
CONTINUOUS
  62
7
  10
 270.000
  20
 496.000
  30
0.0
  40
 43.5000
  50
 105.869
  51
 270.000
   0
LINE
   8
LEVEL003
   6
CONTINUOUS
  62
7
  10
 194.162
  20
 539.000
  30
0.0
  11
 253.302
  21
 539.000
  31
0.0
   0
LINE
   8
0
   6
CONTINUOUS
  62
7
  10
 648.000
  20
 546.500
  30
0.0
  11
 648.000
  21
 521.500
  31
0.0
   0
LINE
   8
0
   6
CONTINUOUS
  62
7
  10
 625.000
  20
 546.500
  30
0.0
  11
 625.000
  21
 521.500
  31
0.0
   0
LINE
   8
0
   6
DASHDOT
  62
1
  10
 620.000
  20
 534.000
  30
0.0
  11
 655.000
  21
 534.000
  31
0.0
   0
LINE
   8
0
   6
CONTINUOUS
  62
7
  10
 630.500
  20
 534.000
  30
0.0
  11
 630.500
  21
 458.000
  31
0.0
   0
LINE
   8
0
   6
CONTINUOUS
  62
7
  10
 641.500
  20
 534.000
  30
0.0
  11
 641.500
  21
 458.000
  31
0.0
   0
ARC
   8
0
   6
CONTINUOUS
  62
7
  10
 636.000
  20
 534.000
  30
0.0
  40
 5.50000
  50
0.0
  51
 180.000
   0
ARC
   8
0
   6
CONTINUOUS
  62
7
  10
 636.000
  20
 458.000
  30
0.0
  40
 5.50000
  50
 180.000
  51
0.0
   0
LINE
   8
0
   6
DASHDOT
  62
1
  10
 636.000
  20
 544.000
  30
0.0
  11
 636.000
  21
 449.000
  31
0.0
   0
LINE
   8
0
   6
CONTINUOUS
  62
7
  10
 630.500
  20
 521.500
  30
0.0
  11
 625.000
  21
 521.500
  31
0.0
   0
LINE
   8
0
   6
CONTINUOUS
  62
7
  10
 625.000
  20
 521.500
  30
0.0
  11
 624.000
  21
 522.500
  31
0.0
   0
LINE
   8
0
   6
CONTINUOUS
  62
7
  10
 624.000
  20
 522.500
  30
0.0
  11
 624.000
  21
 545.500
  31
0.0
   0
LINE
   8
0
   6
CONTINUOUS
  62
7
  10
 624.000
  20
 545.500
  30
0.0
  11
 625.000
  21
 546.500
  31
0.0
   0
LINE
   8
0
   6
CONTINUOUS
  62
7
  10
 625.000
  20
 546.500
  30
0.0
  11
 648.000
  21
 546.500
  31
0.0
   0
LINE
   8
0
   6
CONTINUOUS
  62
7
  10
 648.000
  20
 546.500
  30
0.0
  11
 650.000
  21
 541.500
  31
0.0
   0
LINE
   8
0
   6
CONTINUOUS
  62
7
  10
 650.000
  20
 541.500
  30
0.0
  11
 650.000
  21
 526.500
  31
0.0
   0
LINE
   8
0
   6
CONTINUOUS
  62
7
  10
 650.000
  20
 526.500
  30
0.0
  11
 648.000
  21
 521.500
  31
0.0
   0
LINE
   8
0
   6
CONTINUOUS
  62
7
  10
 648.000
  20
 521.500
  30
0.0
  11
 641.500
  21
 521.500
  31
0.0
   0
LINE
   8
LEVEL003
   6
CONTINUOUS
  62
7
  10
 650.000
  20
 541.500
  30
0.0
  11
 650.000
  21
 547.000
  31
0.0
   0
ARC
   8
LEVEL003
   6
CONTINUOUS
  62
7
  10
 652.000
  20
 547.000
  30
0.0
  40
 2.00000
  50
 90.0000
  51
 180.000
   0
LINE
   8
LEVEL003
   6
CONTINUOUS
  62
7
  10
 650.000
  20
 526.500
  30
0.0
  11
 650.000
  21
 521.000
  31
0.0
   0
LINE
   8
LEVEL003
   6
CONTINUOUS
  62
7
  10
 659.545
  20
 534.082
  30
0.0
  11
 650.867
  21
 440.379
  31
0.0
   0
LINE
   8
LEVEL003
   6
CONTINUOUS
  62
7
  10
 653.840
  20
 515.857
  30
0.0
  11
 650.632
  21
 481.217
  31
0.0
   0
ARC
   8
LEVEL003
   6
CONTINUOUS
  62
7
  10
 650.852
  20
 516.133
  30
0.0
  40
 3.00000
  50
 354.709
  51
 76.7306
   0
ARC
   8
LEVEL003
   6
CONTINUOUS
  62
7
  10
 652.000
  20
 521.000
  30
0.0
  40
 2.00000
  50
 180.000
  51
 256.731
   0
LINE
   8
LEVEL003
   6
CONTINUOUS
  62
7
  10
 652.000
  20
 549.000
  30
0.0
  11
 654.500
  21
 549.000
  31
0.0
   0
ARC
   8
LEVEL003
   6
CONTINUOUS
  62
7
  10
 654.500
  20
 552.000
  30
0.0
  40
 3.00000
  50
 270.000
  51
0.0
   0
LINE
   8
LEVEL003
   6
CONTINUOUS
  62
7
  10
 657.500
  20
 557.000
  30
0.0
  11
 657.500
  21
 541.000
  31
0.0
   0
LINE
   8
0
   6
CONTINUOUS
  62
7
  10
 822.000
  20
 546.500
  30
0.0
  11
 822.000
  21
 521.500
  31
0.0
   0
LINE
   8
0
   6
CONTINUOUS
  62
7
  10
 845.000
  20
 546.500
  30
0.0
  11
 845.000
  21
 521.500
  31
0.0
   0
LINE
   8
0
   6
DASHDOT
  62
1
  10
 850.000
  20
 534.000
  30
0.0
  11
 815.000
  21
 534.000
  31
0.0
   0
LINE
   8
0
   6
CONTINUOUS
  62
7
  10
 839.500
  20
 534.000
  30
0.0
  11
 839.500
  21
 458.000
  31
0.0
   0
LINE
   8
0
   6
CONTINUOUS
  62
7
  10
 828.500
  20
 534.000
  30
0.0
  11
 828.500
  21
 458.000
  31
0.0
   0
LINE
   8
0
   6
CONTINUOUS
  62
7
  10
 839.500
  20
 534.000
  30
0.0
  11
 839.457
  21
 534.686
  31
0.0
   0
LINE
   8
0
   6
CONTINUOUS
  62
7
  10
 839.457
  20
 534.686
  30
0.0
  11
 839.329
  21
 535.361
  31
0.0
   0
LINE
   8
0
   6
CONTINUOUS
  62
7
  10
 839.329
  20
 535.361
  30
0.0
  11
 839.118
  21
 536.014
  31
0.0
   0
LINE
   8
0
   6
CONTINUOUS
  62
7
  10
 839.118
  20
 536.014
  30
0.0
  11
 838.827
  21
 536.637
  31
0.0
   0
LINE
   8
0
   6
CONTINUOUS
  62
7
  10
 838.827
  20
 536.637
  30
0.0
  11
 838.460
  21
 537.218
  31
0.0
   0
LINE
   8
0
   6
CONTINUOUS
  62
7
  10
 838.460
  20
 537.218
  30
0.0
  11
 838.024
  21
 537.749
  31
0.0
   0
LINE
   8
0
   6
CONTINUOUS
  62
7
  10
 838.024
  20
 537.749
  30
0.0
  11
 837.525
  21
 538.221
  31
0.0
   0
LINE
   8
0
   6
CONTINUOUS
  62
7
  10
 837.525
  20
 538.221
  30
0.0
  11
 836.972
  21
 538.628
  31
0.0
   0
LINE
   8
0
   6
CONTINUOUS
  62
7
  10
 836.972
  20
 538.628
  30
0.0
  11
 836.371
  21
 538.962
  31
0.0
   0
LINE
   8
0
   6
CONTINUOUS
  62
7
  10
 836.371
  20
 538.962
  30
0.0
  11
 835.734
  21
 539.219
  31
0.0
   0
LINE
   8
0
   6
CONTINUOUS
  62
7
  10
 835.734
  20
 539.219
  30
0.0
  11
 835.070
  21
 539.395
  31
0.0
   0
LINE
   8
0
   6
CONTINUOUS
  62
7
  10
 835.070
  20
 539.395
  30
0.0
  11
 834.389
  21
 539.486
  31
0.0
   0
LINE
   8
0
   6
CONTINUOUS
  62
7
  10
 834.389
  20
 539.486
  30
0.0
  11
 833.702
  21
 539.492
  31
0.0
   0
LINE
   8
0
   6
CONTINUOUS
  62
7
  10
 833.702
  20
 539.492
  30
0.0
  11
 833.020
  21
 539.412
  31
0.0
   0
LINE
   8
0
   6
CONTINUOUS
  62
7
  10
 833.020
  20
 539.412
  30
0.0
  11
 832.353
  21
 539.247
  31
0.0
   0
LINE
   8
0
   6
CONTINUOUS
  62
7
  10
 832.353
  20
 539.247
  30
0.0
  11
 831.711
  21
 539.001
  31
0.0
   0
LINE
   8
0
   6
CONTINUOUS
  62
7
  10
 831.711
  20
 539.001
  30
0.0
  11
 831.106
  21
 538.677
  31
0.0
   0
LINE
   8
0
   6
CONTINUOUS
  62
7
  10
 831.106
  20
 538.677
  30
0.0
  11
 830.545
  21
 538.279
  31
0.0
   0
LINE
   8
0
   6
CONTINUOUS
  62
7
  10
 830.545
  20
 538.279
  30
0.0
  11
 830.038
  21
 537.815
  31
0.0
   0
LINE
   8
0
   6
CONTINUOUS
  62
7
  10
 830.038
  20
 537.815
  30
0.0
  11
 829.594
  21
 537.292
  31
0.0
   0
LINE
   8
0
   6
CONTINUOUS
  62
7
  10
 829.594
  20
 537.292
  30
0.0
  11
 829.218
  21
 536.717
  31
0.0
   0
LINE
   8
0
   6
CONTINUOUS
  62
7
  10
 829.218
  20
 536.717
  30
0.0
  11
 828.916
  21
 536.099
  31
0.0
   0
LINE
   8
0
   6
CONTINUOUS
  62
7
  10
 828.916
  20
 536.099
  30
0.0
  11
 828.694
  21
 535.449
  31
0.0
   0
LINE
   8
0
   6
CONTINUOUS
  62
7
  10
 828.694
  20
 535.449
  30
0.0
  11
 828.555
  21
 534.776
  31
0.0
   0
LINE
   8
0
   6
CONTINUOUS
  62
7
  10
 828.555
  20
 534.776
  30
0.0
  11
 828.501
  21
 534.091
  31
0.0
   0
LINE
   8
0
   6
CONTINUOUS
  62
7
  10
 828.501
  20
 534.091
  30
0.0
  11
 828.500
  21
 534.000
  31
0.0
   0
LINE
   8
0
   6
CONTINUOUS
  62
7
  10
 828.500
  20
 458.000
  30
0.0
  11
 828.543
  21
 457.314
  31
0.0
   0
LINE
   8
0
   6
CONTINUOUS
  62
7
  10
 828.543
  20
 457.314
  30
0.0
  11
 828.671
  21
 456.639
  31
0.0
   0
LINE
   8
0
   6
CONTINUOUS
  62
7
  10
 828.671
  20
 456.639
  30
0.0
  11
 828.882
  21
 455.986
  31
0.0
   0
LINE
   8
0
   6
CONTINUOUS
  62
7
  10
 828.882
  20
 455.986
  30
0.0
  11
 829.173
  21
 455.363
  31
0.0
   0
LINE
   8
0
   6
CONTINUOUS
  62
7
  10
 829.173
  20
 455.363
  30
0.0
  11
 829.540
  21
 454.782
  31
0.0
   0
LINE
   8
0
   6
CONTINUOUS
  62
7
  10
 829.540
  20
 454.782
  30
0.0
  11
 829.976
  21
 454.251
  31
0.0
   0
LINE
   8
0
   6
CONTINUOUS
  62
7
  10
 829.976
  20
 454.251
  30
0.0
  11
 830.475
  21
 453.779
  31
0.0
   0
LINE
   8
0
   6
CONTINUOUS
  62
7
  10
 830.475
  20
 453.779
  30
0.0
  11
 831.028
  21
 453.372
  31
0.0
   0
LINE
   8
0
   6
CONTINUOUS
  62
7
  10
 831.028
  20
 453.372
  30
0.0
  11
 831.629
  21
 453.038
  31
0.0
   0
LINE
   8
0
   6
CONTINUOUS
  62
7
  10
 831.629
  20
 453.038
  30
0.0
  11
 832.266
  21
 452.781
  31
0.0
   0
LINE
   8
0
   6
CONTINUOUS
  62
7
  10
 832.266
  20
 452.781
  30
0.0
  11
 832.930
  21
 452.605
  31
0.0
   0
LINE
   8
0
   6
CONTINUOUS
  62
7
  10
 832.930
  20
 452.605
  30
0.0
  11
 833.611
  21
 452.514
  31
0.0
   0
LINE
   8
0
   6
CONTINUOUS
  62
7
  10
 833.611
  20
 452.514
  30
0.0
  11
 834.298
  21
 452.508
  31
0.0
   0
LINE
   8
0
   6
CONTINUOUS
  62
7
  10
 834.298
  20
 452.508
  30
0.0
  11
 834.980
  21
 452.588
  31
0.0
   0
LINE
   8
0
   6
CONTINUOUS
  62
7
  10
 834.980
  20
 452.588
  30
0.0
  11
 835.647
  21
 452.753
  31
0.0
   0
LINE
   8
0
   6
CONTINUOUS
  62
7
  10
 835.647
  20
 452.753
  30
0.0
  11
 836.289
  21
 452.999
  31
0.0
   0
LINE
   8
0
   6
CONTINUOUS
  62
7
  10
 836.289
  20
 452.999
  30
0.0
  11
 836.894
  21
 453.323
  31
0.0
   0
LINE
   8
0
   6
CONTINUOUS
  62
7
  10
 836.894
  20
 453.323
  30
0.0
  11
 837.455
  21
 453.721
  31
0.0
   0
LINE
   8
0
   6
CONTINUOUS
  62
7
  10
 837.455
  20
 453.721
  30
0.0
  11
 837.962
  21
 454.185
  31
0.0
   0
LINE
   8
0
   6
CONTINUOUS
  62
7
  10
 837.962
  20
 454.185
  30
0.0
  11
 838.406
  21
 454.708
  31
0.0
   0
LINE
   8
0
   6
CONTINUOUS
  62
7
  10
 838.406
  20
 454.708
  30
0.0
  11
 838.782
  21
 455.283
  31
0.0
   0
LINE
   8
0
   6
CONTINUOUS
  62
7
  10
 838.782
  20
 455.283
  30
0.0
  11
 839.084
  21
 455.901
  31
0.0
   0
LINE
   8
0
   6
CONTINUOUS
  62
7
  10
 839.084
  20
 455.901
  30
0.0
  11
 839.306
  21
 456.551
  31
0.0
   0
LINE
   8
0
   6
CONTINUOUS
  62
7
  10
 839.306
  20
 456.551
  30
0.0
  11
 839.445
  21
 457.224
  31
0.0
   0
LINE
   8
0
   6
CONTINUOUS
  62
7
  10
 839.445
  20
 457.224
  30
0.0
  11
 839.499
  21
 457.909
  31
0.0
   0
LINE
   8
0
   6
CONTINUOUS
  62
7
  10
 839.499
  20
 457.909
  30
0.0
  11
 839.500
  21
 458.000
  31
0.0
   0
LINE
   8
0
   6
DASHDOT
  62
1
  10
 834.000
  20
 544.000
  30
0.0
  11
 834.000
  21
 449.000
  31
0.0
   0
LINE
   8
0
   6
CONTINUOUS
  62
7
  10
 839.500
  20
 521.500
  30
0.0
  11
 845.000
  21
 521.500
  31
0.0
   0
LINE
   8
0
   6
CONTINUOUS
  62
7
  10
 845.000
  20
 521.500
  30
0.0
  11
 846.000
  21
 522.500
  31
0.0
   0
LINE
   8
0
   6
CONTINUOUS
  62
7
  10
 846.000
  20
 522.500
  30
0.0
  11
 846.000
  21
 545.500
  31
0.0
   0
LINE
   8
0
   6
CONTINUOUS
  62
7
  10
 846.000
  20
 545.500
  30
0.0
  11
 845.000
  21
 546.500
  31
0.0
   0
LINE
   8
0
   6
CONTINUOUS
  62
7
  10
 845.000
  20
 546.500
  30
0.0
  11
 822.000
  21
 546.500
  31
0.0
   0
LINE
   8
0
   6
CONTINUOUS
  62
7
  10
 822.000
  20
 546.500
  30
0.0
  11
 820.000
  21
 541.500
  31
0.0
   0
LINE
   8
0
   6
CONTINUOUS
  62
7
  10
 820.000
  20
 541.500
  30
0.0
  11
 820.000
  21
 526.500
  31
0.0
   0
LINE
   8
0
   6
CONTINUOUS
  62
7
  10
 820.000
  20
 526.500
  30
0.0
  11
 822.000
  21
 521.500
  31
0.0
   0
LINE
   8
0
   6
CONTINUOUS
  62
7
  10
 822.000
  20
 521.500
  30
0.0
  11
 828.500
  21
 521.500
  31
0.0
   0
LINE
   8
LEVEL003
   6
CONTINUOUS
  62
7
  10
 820.000
  20
 541.500
  30
0.0
  11
 820.000
  21
 547.000
  31
0.0
   0
ARC
   8
LEVEL003
   6
CONTINUOUS
  62
7
  10
 818.000
  20
 547.000
  30
0.0
  40
 2.00000
  50
0.0
  51
 90.0000
   0
LINE
   8
LEVEL003
   6
CONTINUOUS
  62
7
  10
 820.000
  20
 526.500
  30
0.0
  11
 820.000
  21
 521.000
  31
0.0
   0
ARC
   8
LEVEL003
   6
CONTINUOUS
  62
7
  10
 819.148
  20
 516.133
  30
0.0
  40
 3.00000
  50
 103.269
  51
 185.291
   0
ARC
   8
LEVEL003
   6
CONTINUOUS
  62
7
  10
 818.000
  20
 521.000
  30
0.0
  40
 2.00000
  50
 283.269
  51
0.0
   0
LINE
   8
LEVEL003
   6
CONTINUOUS
  62
7
  10
 818.000
  20
 549.000
  30
0.0
  11
 815.500
  21
 549.000
  31
0.0
   0
ARC
   8
LEVEL003
   6
CONTINUOUS
  62
7
  10
 815.500
  20
 552.000
  30
0.0
  40
 3.00000
  50
 180.000
  51
 270.000
   0
LINE
   8
LEVEL003
   6
CONTINUOUS
  62
7
  10
 816.160
  20
 515.857
  30
0.0
  11
 819.368
  21
 481.217
  31
0.0
   0
LINE
   8
LEVEL003
   6
CONTINUOUS
  62
7
  10
 810.169
  20
 537.176
  30
0.0
  11
 819.133
  21
 440.379
  31
0.0
   0
ARC
   8
LEVEL003
   6
CONTINUOUS
  62
7
  10
 278.000
  20
 408.854
  30
0.0
  40
 3.00000
  50
 180.000
  51
 270.000
   0
ARC
   8
LEVEL003
   6
CONTINUOUS
  62
7
  10
 278.000
  20
 517.875
  30
0.0
  40
 3.00000
  50
 116.388
  51
 180.000
   0
LINE
   8
LEVEL003
   6
CONTINUOUS
  62
7
  10
 275.000
  20
 517.875
  30
0.0
  11
 275.000
  21
 463.887
  31
0.0
   0
LINE
   8
LEVEL003
   6
CONTINUOUS
  62
7
  10
 275.000
  20
 452.788
  30
0.0
  11
 275.000
  21
 408.854
  31
0.0
   0
ARC
   8
LEVEL003
   6
CONTINUOUS
  62
7
  10
 270.000
  20
 534.000
  30
0.0
  40
 15.0000
  50
 11.2934
  51
 90.0000
   0
ARC
   8
LEVEL003
   6
CONTINUOUS
  62
7
  10
 270.000
  20
 534.000
  30
0.0
  40
 15.0000
  50
 270.000
  51
 327.486
   0
ARC
   8
LEVEL001
   6
CONTINUOUS
  62
7
  10
 270.000
  20
 534.000
  30
0.0
  40
 11.5000
  50
 270.000
  51
 90.0000
   0
ARC
   8
LEVEL001
   6
CONTINUOUS
  62
7
  10
 270.000
  20
 534.000
  30
0.0
  40
 12.5000
  50
 270.000
  51
 90.0000
   0
ARC
   8
LEVEL001
   6
CONTINUOUS
  62
7
  10
 270.000
  20
 496.000
  30
0.0
  40
 32.5000
  50
 270.000
  51
 71.6203
   0
ARC
   8
LEVEL001
   6
DASHDOT
  62
1
  10
 270.000
  20
 496.000
  30
0.0
  40
 38.0000
  50
 270.000
  51
 90.0000
   0
ARC
   8
LEVEL001
   6
CONTINUOUS
  62
7
  10
 270.000
  20
 496.000
  30
0.0
  40
 43.5000
  50
 270.000
  51
 74.1306
   0
LINE
   8
LEVEL003
   6
CONTINUOUS
  62
7
  10
 345.838
  20
 539.000
  30
0.0
  11
 286.698
  21
 539.000
  31
0.0
   0
LINE
   8
LEVEL003
   6
CONTINUOUS
  62
7
  10
 362.500
  20
 537.000
  30
0.0
  11
 362.500
  21
 521.000
  31
0.0
   0
LINE
   8
LEVEL003
   6
DASHDOT
  62
1
  10
 366.000
  20
 529.000
  30
0.0
  11
 325.483
  21
 529.000
  31
0.0
   0
LINE
   8
LEVEL003
   6
CONTINUOUS
  62
7
  10
 354.000
  20
 521.000
  30
0.0
  11
 362.500
  21
 521.000
  31
0.0
   0
LINE
   8
LEVEL003
   6
CONTINUOUS
  62
7
  10
 362.500
  20
 521.000
  30
0.0
  11
 363.000
  21
 521.866
  31
0.0
   0
LINE
   8
LEVEL003
   6
CONTINUOUS
  62
7
  10
 363.000
  20
 521.866
  30
0.0
  11
 363.000
  21
 536.134
  31
0.0
   0
LINE
   8
LEVEL003
   6
CONTINUOUS
  62
7
  10
 363.000
  20
 536.134
  30
0.0
  11
 362.500
  21
 537.000
  31
0.0
   0
LINE
   8
LEVEL003
   6
CONTINUOUS
  62
7
  10
 362.500
  20
 537.000
  30
0.0
  11
 354.000
  21
 537.000
  31
0.0
   0
LINE
   8
LEVEL003
   6
CONTINUOUS
  62
7
  10
 350.194
  20
 493.955
  30
0.0
  11
 350.194
  21
 556.662
  31
0.0
   0
LINE
   8
LEVEL003
   6
CONTINUOUS
  62
7
  10
 354.000
  20
 557.000
  30
0.0
  11
 354.000
  21
 492.000
  31
0.0
   0
ARC
   8
LEVEL003
   6
CONTINUOUS
  62
7
  10
 352.000
  20
 557.000
  30
0.0
  40
 2.00000
  50
0.0
  51
 90.0000
   0
LINE
   8
LEVEL003
   6
CONTINUOUS
  62
7
  10
 270.000
  20
 559.000
  30
0.0
  11
 352.000
  21
 559.000
  31
0.0
   0
ARC
   8
LEVEL003
   6
CONTINUOUS
  62
3
  10
 270.000
  20
 299.000
  30
0.0
  40
 3.37500
  50
 270.000
  51
 90.0000
   0
LINE
   8
LEVEL003
   6
CONTINUOUS
  62
7
  10
 270.000
  20
 296.691
  30
0.0
  11
 272.000
  21
 297.845
  31
0.0
   0
LINE
   8
LEVEL003
   6
CONTINUOUS
  62
7
  10
 272.000
  20
 297.845
  30
0.0
  11
 272.000
  21
 300.155
  31
0.0
   0
LINE
   8
LEVEL003
   6
CONTINUOUS
  62
7
  10
 272.000
  20
 300.155
  30
0.0
  11
 270.000
  21
 301.309
  31
0.0
   0
ARC
   8
LEVEL003
   6
CONTINUOUS
  62
7
  10
 270.000
  20
 299.000
  30
0.0
  40
 4.00000
  50
 270.000
  51
 90.0000
   0
LINE
   8
LEVEL003
   6
CONTINUOUS
  62
7
  10
 735.000
  20
 320.000
  30
0.0
  11
 627.500
  21
 320.000
  31
0.0
   0
LINE
   8
LEVEL003
   6
CONTINUOUS
  62
7
  10
 613.000
  20
 319.000
  30
0.0
  11
 627.500
  21
 319.000
  31
0.0
   0
ARC
   8
LEVEL003
   6
CONTINUOUS
  62
7
  10
 613.000
  20
 319.500
  30
0.0
  40
 0.500000
  50
 180.000
  51
 270.000
   0
LINE
   8
LEVEL003
   6
CONTINUOUS
  62
7
  10
 616.000
  20
 305.000
  30
0.0
  11
 616.000
  21
 319.000
  31
0.0
   0
LINE
   8
LEVEL003
   6
DASHDOT
  62
1
  10
 600.000
  20
 329.000
  30
0.0
  11
 650.753
  21
 329.000
  31
0.0
   0
LINE
   8
LEVEL003
   6
CONTINUOUS
  62
7
  10
 612.500
  20
 319.500
  30
0.0
  11
 612.500
  21
 430.500
  31
0.0
   0
LINE
   8
LEVEL003
   6
CONTINUOUS
  62
7
  10
 627.500
  20
 319.000
  30
0.0
  11
 627.500
  21
 431.000
  31
0.0
   0
LINE
   8
LEVEL003
   6
CONTINUOUS
  62
7
  10
 613.000
  20
 431.000
  30
0.0
  11
 627.500
  21
 431.000
  31
0.0
   0
ARC
   8
LEVEL003
   6
CONTINUOUS
  62
7
  10
 613.000
  20
 430.500
  30
0.0
  40
 0.500000
  50
 90.0000
  51
 180.000
   0
LINE
   8
LEVEL003
   6
DASHDOT
  62
1
  10
 600.000
  20
 421.000
  30
0.0
  11
 650.753
  21
 421.000
  31
0.0
   0
LINE
   8
LEVEL003
   6
CONTINUOUS
  62
7
  10
 601.000
  20
 403.000
  30
0.0
  11
 601.000
  21
 347.000
  31
0.0
   0
ARC
   8
LEVEL001
   6
CONTINUOUS
  62
7
  10
 379.136
  20
 427.399
  30
0.0
  40
 6.51666
  50
 62.6964
  51
 82.3791
   0
ARC
   8
LEVEL001
   6
CONTINUOUS
  62
7
  10
 385.000
  20
 440.850
  30
0.0
  40
 1.00000
  50
 14.4774
  51
 165.523
   0
ARC
   8
LEVEL001
   6
CONTINUOUS
  62
7
  10
 381.312
  20
 436.608
  30
0.0
  40
 0.800000
  50
 335.072
  51
 25.9259
   0
ARC
   8
LEVEL001
   6
CONTINUOUS
  62
7
  10
 385.000
  20
 438.400
  30
0.0
  40
 3.30000
  50
 180.000
  51
 205.918
   0
ARC
   8
LEVEL001
   6
CONTINUOUS
  62
7
  10
 376.597
  20
 438.800
  30
0.0
  40
 6.00000
  50
 304.552
  51
 335.067
   0
LINE
   8
LEVEL001
   6
CONTINUOUS
  62
7
  10
 380.000
  20
 433.858
  30
0.0
  11
 379.250
  21
 433.425
  31
0.0
   0
LINE
   8
LEVEL001
   6
CONTINUOUS
  62
7
  10
 379.250
  20
 433.425
  30
0.0
  11
 379.250
  21
 431.467
  31
0.0
   0
LINE
   8
LEVEL001
   6
CONTINUOUS
  62
7
  10
 382.125
  20
 433.190
  30
0.0
  11
 382.125
  21
 431.268
  31
0.0
   0
ARC
   8
LEVEL001
   6
CONTINUOUS
  62
7
  10
 388.688
  20
 436.608
  30
0.0
  40
 0.800000
  50
 154.074
  51
 204.928
   0
ARC
   8
LEVEL001
   6
CONTINUOUS
  62
7
  10
 385.000
  20
 438.400
  30
0.0
  40
 3.30000
  50
 334.082
  51
 0.236865E-10
   0
ARC
   8
LEVEL001
   6
CONTINUOUS
  62
7
  10
 385.000
  20
 427.341
  30
0.0
  40
 6.51666
  50
 63.8210
  51
 116.179
   0
LINE
   8
LEVEL001
   6
CONTINUOUS
  62
7
  10
 387.875
  20
 431.268
  30
0.0
  11
 387.875
  21
 433.190
  31
0.0
   0
LINE
   8
LEVEL001
   6
CONTINUOUS
  62
7
  10
 385.000
  20
 441.100
  30
0.0
  11
 382.600
  21
 441.100
  31
0.0
   0
LINE
   8
LEVEL001
   6
CONTINUOUS
  62
7
  10
 382.600
  20
 441.100
  30
0.0
  11
 381.700
  21
 438.400
  31
0.0
   0
LINE
   8
LEVEL001
   6
CONTINUOUS
  62
7
  10
 381.700
  20
 438.400
  30
0.0
  11
 385.000
  21
 438.400
  31
0.0
   0
LINE
   8
LEVEL001
   6
CONTINUOUS
  62
7
  10
 385.000
  20
 438.400
  30
0.0
  11
 388.300
  21
 438.400
  31
0.0
   0
LINE
   8
LEVEL001
   6
CONTINUOUS
  62
7
  10
 388.300
  20
 438.400
  30
0.0
  11
 387.400
  21
 441.100
  31
0.0
   0
LINE
   8
LEVEL001
   6
CONTINUOUS
  62
7
  10
 387.400
  20
 441.100
  30
0.0
  11
 385.000
  21
 441.100
  31
0.0
   0
LINE
   8
LEVEL001
   6
CONTINUOUS
  62
7
  10
 382.112
  20
 436.614
  30
0.0
  11
 387.875
  21
 436.614
  31
0.0
   0
ARC
   8
LEVEL001
   6
CONTINUOUS
  62
7
  10
 390.864
  20
 427.399
  30
0.0
  40
 6.51666
  50
 97.6209
  51
 117.304
   0
ARC
   8
LEVEL001
   6
CONTINUOUS
  62
7
  10
 393.403
  20
 438.800
  30
0.0
  40
 6.00000
  50
 204.933
  51
 235.448
   0
LINE
   8
LEVEL001
   6
CONTINUOUS
  62
7
  10
 390.000
  20
 433.858
  30
0.0
  11
 390.750
  21
 433.425
  31
0.0
   0
LINE
   8
LEVEL001
   6
CONTINUOUS
  62
7
  10
 390.750
  20
 433.425
  30
0.0
  11
 390.750
  21
 431.467
  31
0.0
   0
CIRCLE
   8
LEVEL001
   6
CONTINUOUS
  62
7
  10
 385.000
  20
 375.000
  30
0.0
  40
 22.5000
   0
CIRCLE
   8
LEVEL001
   6
CONTINUOUS
  62
7
  10
 385.000
  20
 375.000
  30
0.0
  40
 23.5000
   0
ARC
   8
LEVEL001
   6
CONTINUOUS
  62
7
  10
 326.000
  20
 368.588
  30
0.0
  40
 1.00000
  50
 95.2380
  51
 180.001
   0
ARC
   8
LEVEL001
   6
CONTINUOUS
  62
7
  10
 326.000
  20
 320.500
  30
0.0
  40
 1.00000
  50
 180.000
  51
 269.999
   0
LINE
   8
LEVEL001
   6
CONTINUOUS
  62
7
  10
 325.000
  20
 368.587
  30
0.0
  11
 325.000
  21
 320.500
  31
0.0
   0
ARC
   8
LEVEL001
   6
CONTINUOUS
  62
7
  10
 444.000
  20
 368.587
  30
0.0
  40
 1.00000
  50
 0.159671E-2
  51
 84.7620
   0
ARC
   8
LEVEL001
   6
CONTINUOUS
  62
7
  10
 444.000
  20
 320.500
  30
0.0
  40
 1.00000
  50
 270.001
  51
 0.435433E-3
   0
LINE
   8
LEVEL001
   6
CONTINUOUS
  62
7
  10
 445.000
  20
 368.588
  30
0.0
  11
 445.000
  21
 320.500
  31
0.0
   0
ARC
   8
LEVEL001
   6
CONTINUOUS
  62
7
  10
 342.953
  20
 381.188
  30
0.0
  40
 10.0000
  50
 275.238
  51
 351.629
   0
LINE
   8
LEVEL001
   6
CONTINUOUS
  62
7
  10
 325.909
  20
 369.583
  30
0.0
  11
 343.866
  21
 371.229
  31
0.0
   0
ARC
   8
LEVEL001
   6
CONTINUOUS
  62
7
  10
 342.953
  20
 381.188
  30
0.0
  40
 8.60000
  50
 275.238
  51
 351.628
   0
ARC
   8
LEVEL001
   6
CONTINUOUS
  62
7
  10
 427.047
  20
 381.188
  30
0.0
  40
 8.60000
  50
 188.371
  51
 264.763
   0
ARC
   8
LEVEL001
   6
CONTINUOUS
  62
7
  10
 385.000
  20
 375.000
  30
0.0
  40
 33.9000
  50
 8.37164
  51
 171.628
   0
ARC
   8
LEVEL001
   6
CONTINUOUS
  62
7
  10
 427.047
  20
 381.188
  30
0.0
  40
 10.0000
  50
 188.371
  51
 264.762
   0
LINE
   8
LEVEL001
   6
CONTINUOUS
  62
7
  10
 426.134
  20
 371.229
  30
0.0
  11
 444.091
  21
 369.583
  31
0.0
   0
ARC
   8
LEVEL001
   6
CONTINUOUS
  62
7
  10
 385.000
  20
 375.000
  30
0.0
  40
 32.5000
  50
 8.37126
  51
 171.629
   0
LINE
   8
LEVEL001
   6
CONTINUOUS
  62
7
  10
 326.628
  20
 369.649
  30
0.0
  11
 326.500
  21
 371.043
  31
0.0
   0
LINE
   8
LEVEL001
   6
CONTINUOUS
  62
7
  10
 443.372
  20
 369.649
  30
0.0
  11
 443.500
  21
 371.043
  31
0.0
   0
LINE
   8
LEVEL001
   6
CONTINUOUS
  62
7
  10
 426.262
  20
 372.624
  30
0.0
  11
 443.500
  21
 371.043
  31
0.0
   0
LINE
   8
LEVEL001
   6
CONTINUOUS
  62
7
  10
 326.500
  20
 371.043
  30
0.0
  11
 343.738
  21
 372.624
  31
0.0
   0
ARC
   8
LEVEL001
   6
CONTINUOUS
  62
7
  10
 335.183
  20
 369.831
  30
0.0
  40
 5.40000
  50
 95.2376
  51
 129.185
   0
ARC
   8
LEVEL001
   6
CONTINUOUS
  62
7
  10
 333.919
  20
 371.381
  30
0.0
  40
 3.40000
  50
 129.185
  51
 179.483
   0
ARC
   8
LEVEL001
   6
CONTINUOUS
  62
7
  10
 335.183
  20
 369.831
  30
0.0
  40
 5.40000
  50
 61.2915
  51
 95.2389
   0
ARC
   8
LEVEL001
   6
CONTINUOUS
  62
7
  10
 336.143
  20
 371.585
  30
0.0
  40
 3.40000
  50
 10.9934
  51
 61.2913
   0
ARC
   8
LEVEL001
   6
CONTINUOUS
  62
7
  10
 434.817
  20
 369.831
  30
0.0
  40
 5.40000
  50
 50.8154
  51
 84.7624
   0
ARC
   8
LEVEL001
   6
CONTINUOUS
  62
7
  10
 436.081
  20
 371.381
  30
0.0
  40
 3.40000
  50
 0.517102
  51
 50.8152
   0
ARC
   8
LEVEL001
   6
CONTINUOUS
  62
7
  10
 434.817
  20
 369.831
  30
0.0
  40
 5.40000
  50
 84.7611
  51
 118.708
   0
ARC
   8
LEVEL001
   6
CONTINUOUS
  62
7
  10
 433.857
  20
 371.585
  30
0.0
  40
 3.40000
  50
 118.709
  51
 169.007
   0
LINE
   8
LEVEL001
   6
DASHDOT
  62
1
  10
 334.530
  20
 376.957
  30
0.0
  11
 335.893
  21
 362.082
  31
0.0
   0
LINE
   8
LEVEL001
   6
DASHDOT
  62
1
  10
 435.470
  20
 376.957
  30
0.0
  11
 434.107
  21
 362.082
  31
0.0
   0
ARC
   8
LEVEL001
   6
CONTINUOUS
  62
7
  10
 359.500
  20
 280.376
  30
0.0
  40
 2.00000
  50
 180.000
  51
 254.918
   0
ARC
   8
LEVEL001
   6
CONTINUOUS
  62
7
  10
 410.500
  20
 280.376
  30
0.0
  40
 2.00000
  50
 285.081
  51
 0.124399E-3
   0
ARC
   8
LEVEL001
   6
CONTINUOUS
  62
7
  10
 385.000
  20
 375.000
  30
0.0
  40
 100.000
  50
 254.918
  51
 285.082
   0
LINE
   8
LEVEL001
   6
CONTINUOUS
  62
7
  10
 357.500
  20
 280.376
  30
0.0
  11
 357.500
  21
 287.944
  31
0.0
   0
LINE
   8
LEVEL001
   6
CONTINUOUS
  62
7
  10
 412.500
  20
 287.944
  30
0.0
  11
 412.500
  21
 280.376
  31
0.0
   0
ARC
   8
LEVEL001
   6
CONTINUOUS
  62
7
  10
 385.000
  20
 375.000
  30
0.0
  40
 90.0000
  50
 253.070
  51
 286.930
   0
ARC
   8
LEVEL001
   6
CONTINUOUS
  62
7
  10
 359.000
  20
 289.880
  30
0.0
  40
 1.00000
  50
 255.522
  51
 0.175872E-9
   0
ARC
   8
LEVEL001
   6
CONTINUOUS
  62
7
  10
 358.500
  20
 287.944
  30
0.0
  40
 1.00000
  50
 75.5216
  51
 180.000
   0
ARC
   8
LEVEL001
   6
CONTINUOUS
  62
7
  10
 411.000
  20
 289.880
  30
0.0
  40
 1.00000
  50
 180.000
  51
 284.476
   0
ARC
   8
LEVEL001
   6
CONTINUOUS
  62
7
  10
 411.500
  20
 287.944
  30
0.0
  40
 1.00000
  50
 0.855054E-3
  51
 104.476
   0
ARC
   8
LEVEL001
   6
CONTINUOUS
  62
7
  10
 353.328
  20
 305.500
  30
0.0
  40
 8.00000
  50
 189.040
  51
 270.000
   0
ARC
   8
LEVEL001
   6
CONTINUOUS
  62
7
  10
 338.733
  20
 314.500
  30
0.0
  40
 5.00000
  50
 9.03949
  51
 89.9999
   0
LINE
   8
LEVEL001
   6
CONTINUOUS
  62
7
  10
 343.670
  20
 315.286
  30
0.0
  11
 345.427
  21
 304.243
  31
0.0
   0
ARC
   8
LEVEL001
   6
CONTINUOUS
  62
7
  10
 355.000
  20
 292.500
  30
0.0
  40
 5.00000
  50
 0.901582E-4
  51
 90.0002
   0
LINE
   8
LEVEL001
   6
CONTINUOUS
  62
7
  10
 353.328
  20
 297.500
  30
0.0
  11
 355.000
  21
 297.500
  31
0.0
   0
LINE
   8
LEVEL001
   6
CONTINUOUS
  62
7
  10
 358.084
  20
 296.436
  30
0.0
  11
 357.500
  21
 296.436
  31
0.0
   0
ARC
   8
LEVEL001
   6
CONTINUOUS
  62
7
  10
 459.904
  20
 272.043
  30
0.0
  40
 50.0000
  50
 108.171
  51
 161.457
   0
ARC
   8
LEVEL001
   6
CONTINUOUS
  62
7
  10
 413.000
  20
 316.500
  30
0.0
  40
 3.00000
  50
 90.0000
  51
 180.000
   0
LINE
   8
LEVEL001
   6
CONTINUOUS
  62
7
  10
 413.000
  20
 319.500
  30
0.0
  11
 444.000
  21
 319.500
  31
0.0
   0
ARC
   8
LEVEL001
   6
CONTINUOUS
  62
7
  10
 357.000
  20
 316.500
  30
0.0
  40
 3.00000
  50
 0.108563E-11
  51
 90.0000
   0
LINE
   8
LEVEL001
   6
CONTINUOUS
  62
7
  10
 326.000
  20
 319.500
  30
0.0
  11
 357.000
  21
 319.500
  31
0.0
   0
LINE
   8
LEVEL001
   6
CONTINUOUS
  62
7
  10
 360.000
  20
 341.500
  30
0.0
  11
 360.000
  21
 289.880
  31
0.0
   0
LINE
   8
LEVEL001
   6
CONTINUOUS
  62
7
  10
 410.000
  20
 341.500
  30
0.0
  11
 410.000
  21
 289.880
  31
0.0
   0
CIRCLE
   8
LEVEL001
   6
CONTINUOUS
  62
7
  10
 385.000
  20
 295.000
  30
0.0
  40
 5.00000
   0
LINE
   8
LEVEL001
   6
DASHDOT
  62
1
  10
 375.000
  20
 295.000
  30
0.0
  11
 395.000
  21
 295.000
  31
0.0
   0
LINE
   8
LEVEL001
   6
DASHDOT
  62
1
  10
 320.000
  20
 344.500
  30
0.0
  11
 465.500
  21
 344.500
  31
0.0
   0
ARC
   8
LEVEL001
   6
CONTINUOUS
  62
7
  10
 322.500
  20
 360.250
  30
0.0
  40
 1.50000
  50
 90.0000
  51
 180.000
   0
LINE
   8
LEVEL001
   6
CONTINUOUS
  62
7
  10
 322.500
  20
 361.750
  30
0.0
  11
 325.000
  21
 361.750
  31
0.0
   0
ARC
   8
LEVEL001
   6
CONTINUOUS
  62
7
  10
 322.500
  20
 328.750
  30
0.0
  40
 1.50000
  50
 180.000
  51
 270.000
   0
LINE
   8
LEVEL001
   6
CONTINUOUS
  62
7
  10
 321.000
  20
 360.250
  30
0.0
  11
 321.000
  21
 328.750
  31
0.0
   0
LINE
   8
LEVEL001
   6
CONTINUOUS
  62
7
  10
 322.500
  20
 327.250
  30
0.0
  11
 325.000
  21
 327.250
  31
0.0
   0
ARC
   8
LEVEL001
   6
CONTINUOUS
  62
7
  10
 459.500
  20
 360.250
  30
0.0
  40
 1.50000
  50
0.0
  51
 89.9983
   0
LINE
   8
LEVEL001
   6
CONTINUOUS
  62
7
  10
 445.000
  20
 361.750
  30
0.0
  11
 459.500
  21
 361.750
  31
0.0
   0
ARC
   8
LEVEL001
   6
CONTINUOUS
  62
7
  10
 459.500
  20
 328.750
  30
0.0
  40
 1.50000
  50
 270.002
  51
 0.267239E-7
   0
LINE
   8
LEVEL001
   6
CONTINUOUS
  62
7
  10
 461.000
  20
 360.250
  30
0.0
  11
 461.000
  21
 328.750
  31
0.0
   0
LINE
   8
LEVEL001
   6
CONTINUOUS
  62
7
  10
 445.000
  20
 327.250
  30
0.0
  11
 459.500
  21
 327.250
  31
0.0
   0
CIRCLE
   8
LEVEL003
   6
CONTINUOUS
  62
7
  10
 385.000
  20
 375.000
  30
0.0
  40
 15.0000
   0
CIRCLE
   8
LEVEL003
   6
CONTINUOUS
  62
7
  10
 382.000
  20
 391.700
  30
0.0
  40
 1.00000
   0
ARC
   8
LEVEL003
   6
CONTINUOUS
  62
7
  10
 381.000
  20
 393.100
  30
0.0
  40
 1.00000
  50
 90.0009
  51
 180.000
   0
ARC
   8
LEVEL003
   6
CONTINUOUS
  62
7
  10
 383.500
  20
 393.600
  30
0.0
  40
 0.500000
  50
 0.875944E-3
  51
 90.0017
   0
LINE
   8
LEVEL003
   6
CONTINUOUS
  62
7
  10
 383.500
  20
 394.100
  30
0.0
  11
 381.000
  21
 394.100
  31
0.0
   0
LINE
   8
LEVEL003
   6
CONTINUOUS
  62
7
  10
 384.000
  20
 393.600
  30
0.0
  11
 384.000
  21
 389.967
  31
0.0
   0
ARC
   8
LEVEL003
   6
CONTINUOUS
  62
7
  10
 379.000
  20
 390.655
  30
0.0
  40
 1.00000
  50
 289.757
  51
 0.179349E-3
   0
LINE
   8
LEVEL003
   6
CONTINUOUS
  62
7
  10
 380.000
  20
 393.100
  30
0.0
  11
 380.000
  21
 390.655
  31
0.0
   0
ARC
   8
LEVEL003
   6
CONTINUOUS
  62
7
  10
 385.000
  20
 373.950
  30
0.0
  40
 16.7500
  50
 109.757
  51
 270.000
   0
CIRCLE
   8
LEVEL003
   6
CONTINUOUS
  62
7
  10
 388.000
  20
 391.700
  30
0.0
  40
 1.00000
   0
ARC
   8
LEVEL003
   6
CONTINUOUS
  62
7
  10
 389.000
  20
 393.100
  30
0.0
  40
 1.00000
  50
0.0
  51
 89.9991
   0
ARC
   8
LEVEL003
   6
CONTINUOUS
  62
7
  10
 386.500
  20
 393.600
  30
0.0
  40
 0.500000
  50
 89.9983
  51
 179.999
   0
LINE
   8
LEVEL003
   6
CONTINUOUS
  62
7
  10
 386.500
  20
 394.100
  30
0.0
  11
 389.000
  21
 394.100
  31
0.0
   0
LINE
   8
LEVEL003
   6
CONTINUOUS
  62
7
  10
 386.000
  20
 393.600
  30
0.0
  11
 386.000
  21
 389.967
  31
0.0
   0
ARC
   8
LEVEL003
   6
CONTINUOUS
  62
7
  10
 391.000
  20
 390.655
  30
0.0
  40
 1.00000
  50
 180.000
  51
 250.243
   0
LINE
   8
LEVEL003
   6
CONTINUOUS
  62
7
  10
 390.000
  20
 393.100
  30
0.0
  11
 390.000
  21
 390.655
  31
0.0
   0
ARC
   8
LEVEL003
   6
CONTINUOUS
  62
7
  10
 385.000
  20
 373.950
  30
0.0
  40
 16.7500
  50
 270.000
  51
 70.2434
   0
ARC
   8
LEVEL001
   6
CONTINUOUS
  62
7
  10
 357.000
  20
 336.966
  30
0.0
  40
 3.00000
  50
 0.108563E-11
  51
 90.0000
   0
ARC
   8
LEVEL001
   6
CONTINUOUS
  62
7
  10
 413.000
  20
 336.966
  30
0.0
  40
 3.00000
  50
 90.0000
  51
 180.000
   0
LINE
   8
LEVEL003
   6
CONTINUOUS
  62
7
  10
 354.693
  20
 344.500
  30
0.0
  11
 352.693
  21
 346.500
  31
0.0
   0
LINE
   8
LEVEL003
   6
CONTINUOUS
  62
7
  10
 352.693
  20
 346.500
  30
0.0
  11
 352.693
  21
 345.500
  31
0.0
   0
LINE
   8
LEVEL003
   6
CONTINUOUS
  62
7
  10
 352.693
  20
 345.500
  30
0.0
  11
 345.693
  21
 345.500
  31
0.0
   0
LINE
   8
LEVEL003
   6
CONTINUOUS
  62
7
  10
 345.693
  20
 345.500
  30
0.0
  11
 345.693
  21
 343.500
  31
0.0
   0
LINE
   8
LEVEL003
   6
CONTINUOUS
  62
7
  10
 345.693
  20
 343.500
  30
0.0
  11
 352.693
  21
 343.500
  31
0.0
   0
LINE
   8
LEVEL003
   6
CONTINUOUS
  62
7
  10
 352.693
  20
 343.500
  30
0.0
  11
 352.693
  21
 342.500
  31
0.0
   0
LINE
   8
LEVEL003
   6
CONTINUOUS
  62
7
  10
 352.693
  20
 342.500
  30
0.0
  11
 354.693
  21
 344.500
  31
0.0
   0
TEXT
   8
LEVEL003
  62
7
  10
 342.036
  20
 348.702
  30
0.0
  40
 8.10000
   1
ＵＰ
  50
 180.000
  41
 0.851852
   7
STANDARD
   0
LINE
   8
LEVEL003
   6
CONTINUOUS
  62
7
  10
 403.420
  20
 344.500
  30
0.0
  11
 405.420
  21
 346.500
  31
0.0
   0
LINE
   8
LEVEL003
   6
CONTINUOUS
  62
7
  10
 405.420
  20
 346.500
  30
0.0
  11
 405.420
  21
 345.500
  31
0.0
   0
LINE
   8
LEVEL003
   6
CONTINUOUS
  62
7
  10
 405.420
  20
 345.500
  30
0.0
  11
 412.420
  21
 345.500
  31
0.0
   0
LINE
   8
LEVEL003
   6
CONTINUOUS
  62
7
  10
 412.420
  20
 345.500
  30
0.0
  11
 412.420
  21
 343.500
  31
0.0
   0
LINE
   8
LEVEL003
   6
CONTINUOUS
  62
7
  10
 412.420
  20
 343.500
  30
0.0
  11
 405.420
  21
 343.500
  31
0.0
   0
LINE
   8
LEVEL003
   6
CONTINUOUS
  62
7
  10
 405.420
  20
 343.500
  30
0.0
  11
 405.420
  21
 342.500
  31
0.0
   0
LINE
   8
LEVEL003
   6
CONTINUOUS
  62
7
  10
 405.420
  20
 342.500
  30
0.0
  11
 403.420
  21
 344.500
  31
0.0
   0
TEXT
   8
LEVEL003
  62
7
  10
 443.788
  20
 348.702
  30
0.0
  40
 8.10000
   1
ＤＯＷＮ
  50
 180.000
  41
 0.851852
   7
STANDARD
   0
ARC
   8
LEVEL003
   6
CONTINUOUS
  62
7
  10
 374.000
  20
 324.000
  30
0.0
  40
 3.00000
  50
 180.000
  51
 270.000
   0
ARC
   8
LEVEL003
   6
CONTINUOUS
  62
7
  10
 369.000
  20
 334.200
  30
0.0
  40
 2.00000
  50
0.0
  51
 90.0000
   0
LINE
   8
LEVEL003
   6
CONTINUOUS
  62
7
  10
 374.000
  20
 321.000
  30
0.0
  11
 396.000
  21
 321.000
  31
0.0
   0
ARC
   8
LEVEL003
   6
CONTINUOUS
  62
7
  10
 396.000
  20
 324.000
  30
0.0
  40
 3.00000
  50
 270.000
  51
 0.151988E-10
   0
ARC
   8
LEVEL003
   6
CONTINUOUS
  62
7
  10
 401.000
  20
 334.200
  30
0.0
  40
 2.00000
  50
 90.0000
  51
 180.000
   0
LINE
   8
LEVEL003
   6
CONTINUOUS
  62
7
  10
 399.000
  20
 324.000
  30
0.0
  11
 399.000
  21
 334.200
  31
0.0
   0
LINE
   8
LEVEL003
   6
CONTINUOUS
  62
7
  10
 371.000
  20
 324.000
  30
0.0
  11
 371.000
  21
 334.200
  31
0.0
   0
CIRCLE
   8
0
   6
CONTINUOUS
  62
7
  10
 387.523
  20
 327.040
  30
0.0
  40
 3.33333
   0
LINE
   8
0
   6
CONTINUOUS
  62
7
  10
 380.980
  20
 323.706
  30
0.0
  11
 385.214
  21
 331.040
  31
0.0
   0
LINE
   8
0
   6
CONTINUOUS
  62
7
  10
 385.214
  20
 331.040
  30
0.0
  11
 393.682
  21
 331.040
  31
0.0
   0
LINE
   8
0
   6
CONTINUOUS
  62
7
  10
 393.682
  20
 331.040
  30
0.0
  11
 394.644
  21
 332.706
  31
0.0
   0
LINE
   8
0
   6
CONTINUOUS
  62
7
  10
 394.644
  20
 332.706
  30
0.0
  11
 379.510
  21
 332.706
  31
0.0
   0
LINE
   8
0
   6
CONTINUOUS
  62
7
  10
 379.510
  20
 332.706
  30
0.0
  11
 374.313
  21
 323.706
  31
0.0
   0
LINE
   8
0
   6
CONTINUOUS
  62
7
  10
 374.313
  20
 323.706
  30
0.0
  11
 380.980
  21
 323.706
  31
0.0
   0
LINE
   8
LEVEL003
   6
DASHDOT
  62
1
  10
 385.000
  20
 447.500
  30
0.0
  11
 385.000
  21
 272.185
  31
0.0
   0
LINE
   8
LEVEL003
   6
CONTINUOUS
  62
7
  10
 345.427
  20
 304.000
  30
0.0
  11
 270.000
  21
 304.000
  31
0.0
   0
LINE
   8
LEVEL003
   6
CONTINUOUS
  62
7
  10
 357.500
  20
 284.000
  30
0.0
  11
 270.000
  21
 284.000
  31
0.0
   0
LINE
   8
LEVEL003
   6
CONTINUOUS
  62
7
  10
 387.500
  20
 275.031
  30
0.0
  11
 387.500
  21
 271.000
  31
0.0
   0
ARC
   8
LEVEL001
   6
CONTINUOUS
  62
7
  10
 390.864
  20
 437.059
  30
0.0
  40
 6.51666
  50
 242.696
  51
 251.772
   0
LINE
   8
LEVEL001
   6
CONTINUOUS
  62
7
  10
 390.054
  20
 430.771
  30
0.0
  11
 390.750
  21
 431.467
  31
0.0
   0
LINE
   8
LEVEL001
   6
CONTINUOUS
  62
7
  10
 379.946
  20
 430.771
  30
0.0
  11
 379.250
  21
 431.467
  31
0.0
   0
ARC
   8
LEVEL001
   6
CONTINUOUS
  62
7
  10
 379.136
  20
 437.059
  30
0.0
  40
 6.51666
  50
 288.227
  51
 297.304
   0
ARC
   8
LEVEL001
   6
CONTINUOUS
  62
7
  10
 385.000
  20
 437.116
  30
0.0
  40
 6.51666
  50
 289.122
  51
 296.179
   0
ARC
   8
LEVEL001
   6
CONTINUOUS
  62
7
  10
 385.000
  20
 437.116
  30
0.0
  40
 6.51666
  50
 243.821
  51
 250.878
   0
ARC
   8
LEVEL003
   6
CONTINUOUS
  62
7
  10
 477.184
  20
 535.397
  30
0.0
  40
 130.000
  50
 199.969
  51
 236.220
   0
LINE
   8
LEVEL003
   6
CONTINUOUS
  62
7
  10
 373.454
  20
 430.000
  30
0.0
  11
 374.464
  21
 430.000
  31
0.0
   0
ARC
   8
LEVEL001
   6
CONTINUOUS
  62
7
  10
 385.000
  20
 375.000
  30
0.0
  40
 56.0000
  50
 356.195
  51
 183.805
   0
CIRCLE
   8
LEVEL001
   6
CONTINUOUS
  62
7
  10
 385.000
  20
 421.000
  30
0.0
  40
 8.50000
   0
LINE
   8
LEVEL001
   6
CONTINUOUS
  62
7
  10
 385.000
  20
 430.815
  30
0.0
  11
 376.500
  21
 425.907
  31
0.0
   0
LINE
   8
LEVEL001
   6
CONTINUOUS
  62
7
  10
 376.500
  20
 425.907
  30
0.0
  11
 376.500
  21
 416.093
  31
0.0
   0
LINE
   8
LEVEL001
   6
CONTINUOUS
  62
7
  10
 376.500
  20
 416.093
  30
0.0
  11
 385.000
  21
 411.185
  31
0.0
   0
LINE
   8
LEVEL001
   6
CONTINUOUS
  62
7
  10
 385.000
  20
 411.185
  30
0.0
  11
 393.500
  21
 416.093
  31
0.0
   0
LINE
   8
LEVEL001
   6
CONTINUOUS
  62
7
  10
 393.500
  20
 416.093
  30
0.0
  11
 393.500
  21
 425.907
  31
0.0
   0
LINE
   8
LEVEL001
   6
CONTINUOUS
  62
7
  10
 393.500
  20
 425.907
  30
0.0
  11
 385.000
  21
 430.815
  31
0.0
   0
CIRCLE
   8
LEVEL001
   6
CONTINUOUS
  62
7
  10
 345.163
  20
 398.000
  30
0.0
  40
 8.50000
   0
LINE
   8
LEVEL001
   6
CONTINUOUS
  62
7
  10
 336.663
  20
 402.907
  30
0.0
  11
 336.663
  21
 393.093
  31
0.0
   0
LINE
   8
LEVEL001
   6
CONTINUOUS
  62
7
  10
 336.663
  20
 393.093
  30
0.0
  11
 345.163
  21
 388.185
  31
0.0
   0
LINE
   8
LEVEL001
   6
CONTINUOUS
  62
7
  10
 345.163
  20
 388.185
  30
0.0
  11
 353.663
  21
 393.093
  31
0.0
   0
LINE
   8
LEVEL001
   6
CONTINUOUS
  62
7
  10
 353.663
  20
 393.093
  30
0.0
  11
 353.663
  21
 402.907
  31
0.0
   0
LINE
   8
LEVEL001
   6
CONTINUOUS
  62
7
  10
 353.663
  20
 402.907
  30
0.0
  11
 345.163
  21
 407.815
  31
0.0
   0
LINE
   8
LEVEL001
   6
CONTINUOUS
  62
7
  10
 345.163
  20
 407.815
  30
0.0
  11
 336.663
  21
 402.907
  31
0.0
   0
CIRCLE
   8
LEVEL001
   6
CONTINUOUS
  62
7
  10
 424.837
  20
 398.000
  30
0.0
  40
 8.50000
   0
LINE
   8
LEVEL001
   6
CONTINUOUS
  62
7
  10
 433.337
  20
 402.907
  30
0.0
  11
 424.837
  21
 407.815
  31
0.0
   0
LINE
   8
LEVEL001
   6
CONTINUOUS
  62
7
  10
 424.837
  20
 407.815
  30
0.0
  11
 416.337
  21
 402.907
  31
0.0
   0
LINE
   8
LEVEL001
   6
CONTINUOUS
  62
7
  10
 416.337
  20
 402.907
  30
0.0
  11
 416.337
  21
 393.093
  31
0.0
   0
LINE
   8
LEVEL001
   6
CONTINUOUS
  62
7
  10
 416.337
  20
 393.093
  30
0.0
  11
 424.837
  21
 388.185
  31
0.0
   0
LINE
   8
LEVEL001
   6
CONTINUOUS
  62
7
  10
 424.837
  20
 388.185
  30
0.0
  11
 433.337
  21
 393.093
  31
0.0
   0
LINE
   8
LEVEL001
   6
CONTINUOUS
  62
7
  10
 433.337
  20
 393.093
  30
0.0
  11
 433.337
  21
 402.907
  31
0.0
   0
CIRCLE
   8
LEVEL001
   6
DASHDOT
  62
1
  10
 385.000
  20
 375.000
  30
0.0
  40
 46.0000
   0
LINE
   8
LEVEL001
   6
DASHDOT
  62
1
  10
 332.413
  20
 405.361
  30
0.0
  11
 357.913
  21
 390.639
  31
0.0
   0
LINE
   8
LEVEL001
   6
DASHDOT
  62
1
  10
 437.587
  20
 405.361
  30
0.0
  11
 412.087
  21
 390.639
  31
0.0
   0
ARC
   8
LEVEL003
   6
CONTINUOUS
  62
7
  10
 611.880
  20
 429.500
  30
0.0
  40
 8.87961
  50
 180.000
  51
 203.865
   0
ARC
   8
LEVEL003
   6
CONTINUOUS
  62
7
  10
 611.880
  20
 412.500
  30
0.0
  40
 8.87961
  50
 156.135
  51
 180.000
   0
ARC
   8
LEVEL003
   6
CONTINUOUS
  62
7
  10
 619.241
  20
 421.000
  30
0.0
  40
 16.2408
  50
 162.412
  51
 197.588
   0
LINE
   8
LEVEL003
   6
CONTINUOUS
  62
7
  10
 612.500
  20
 421.000
  30
0.0
  11
 610.000
  21
 418.500
  31
0.0
   0
LINE
   8
LEVEL003
   6
CONTINUOUS
  62
7
  10
 610.000
  20
 416.093
  30
0.0
  11
 603.759
  21
 416.093
  31
0.0
   0
LINE
   8
LEVEL003
   6
CONTINUOUS
  62
7
  10
 610.000
  20
 421.000
  30
0.0
  11
 612.500
  21
 423.500
  31
0.0
   0
LINE
   8
LEVEL003
   6
CONTINUOUS
  62
7
  10
 610.000
  20
 425.907
  30
0.0
  11
 603.759
  21
 425.907
  31
0.0
   0
LINE
   8
LEVEL003
   6
CONTINUOUS
  62
7
  10
 612.500
  20
 430.200
  30
0.0
  11
 610.000
  21
 430.200
  31
0.0
   0
LINE
   8
LEVEL003
   6
CONTINUOUS
  62
7
  10
 610.000
  20
 430.200
  30
0.0
  11
 610.000
  21
 411.800
  31
0.0
   0
LINE
   8
LEVEL003
   6
CONTINUOUS
  62
7
  10
 610.000
  20
 411.800
  30
0.0
  11
 612.500
  21
 411.800
  31
0.0
   0
LINE
   8
LEVEL003
   6
CONTINUOUS
  62
7
  10
 612.500
  20
 411.800
  30
0.0
  11
 612.500
  21
 430.200
  31
0.0
   0
LINE
   8
LEVEL003
   6
CONTINUOUS
  62
7
  10
 610.000
  20
 411.185
  30
0.0
  11
 610.000
  21
 430.815
  31
0.0
   0
LINE
   8
LEVEL003
   6
CONTINUOUS
  62
7
  10
 610.000
  20
 430.815
  30
0.0
  11
 603.759
  21
 430.815
  31
0.0
   0
LINE
   8
LEVEL003
   6
CONTINUOUS
  62
7
  10
 603.759
  20
 430.815
  30
0.0
  11
 603.000
  21
 429.500
  31
0.0
   0
LINE
   8
LEVEL003
   6
CONTINUOUS
  62
7
  10
 603.000
  20
 429.500
  30
0.0
  11
 603.000
  21
 412.500
  31
0.0
   0
LINE
   8
LEVEL003
   6
CONTINUOUS
  62
7
  10
 603.000
  20
 412.500
  30
0.0
  11
 603.759
  21
 411.185
  31
0.0
   0
LINE
   8
LEVEL003
   6
CONTINUOUS
  62
7
  10
 603.759
  20
 411.185
  30
0.0
  11
 610.000
  21
 411.185
  31
0.0
   0
ARC
   8
LEVEL003
   6
CONTINUOUS
  62
7
  10
 611.880
  20
 337.500
  30
0.0
  40
 8.87961
  50
 180.000
  51
 203.865
   0
LINE
   8
LEVEL003
   6
CONTINUOUS
  62
7
  10
 612.500
  20
 329.000
  30
0.0
  11
 610.000
  21
 331.500
  31
0.0
   0
LINE
   8
LEVEL003
   6
CONTINUOUS
  62
7
  10
 610.000
  20
 333.907
  30
0.0
  11
 603.759
  21
 333.907
  31
0.0
   0
ARC
   8
LEVEL003
   6
CONTINUOUS
  62
7
  10
 611.880
  20
 320.500
  30
0.0
  40
 8.87961
  50
 156.135
  51
 180.000
   0
ARC
   8
LEVEL003
   6
CONTINUOUS
  62
7
  10
 619.241
  20
 329.000
  30
0.0
  40
 16.2408
  50
 162.412
  51
 197.588
   0
LINE
   8
LEVEL003
   6
CONTINUOUS
  62
7
  10
 610.000
  20
 329.000
  30
0.0
  11
 612.500
  21
 326.500
  31
0.0
   0
LINE
   8
LEVEL003
   6
CONTINUOUS
  62
7
  10
 610.000
  20
 324.093
  30
0.0
  11
 603.759
  21
 324.093
  31
0.0
   0
LINE
   8
LEVEL003
   6
CONTINUOUS
  62
7
  10
 612.500
  20
 319.800
  30
0.0
  11
 610.000
  21
 319.800
  31
0.0
   0
LINE
   8
LEVEL003
   6
CONTINUOUS
  62
7
  10
 610.000
  20
 319.800
  30
0.0
  11
 610.000
  21
 338.200
  31
0.0
   0
LINE
   8
LEVEL003
   6
CONTINUOUS
  62
7
  10
 610.000
  20
 338.200
  30
0.0
  11
 612.500
  21
 338.200
  31
0.0
   0
LINE
   8
LEVEL003
   6
CONTINUOUS
  62
7
  10
 612.500
  20
 338.200
  30
0.0
  11
 612.500
  21
 319.800
  31
0.0
   0
LINE
   8
LEVEL003
   6
CONTINUOUS
  62
7
  10
 610.000
  20
 338.815
  30
0.0
  11
 610.000
  21
 319.185
  31
0.0
   0
LINE
   8
LEVEL003
   6
CONTINUOUS
  62
7
  10
 610.000
  20
 319.185
  30
0.0
  11
 603.759
  21
 319.185
  31
0.0
   0
LINE
   8
LEVEL003
   6
CONTINUOUS
  62
7
  10
 603.759
  20
 319.185
  30
0.0
  11
 603.000
  21
 320.500
  31
0.0
   0
LINE
   8
LEVEL003
   6
CONTINUOUS
  62
7
  10
 603.000
  20
 320.500
  30
0.0
  11
 603.000
  21
 337.500
  31
0.0
   0
LINE
   8
LEVEL003
   6
CONTINUOUS
  62
7
  10
 603.000
  20
 337.500
  30
0.0
  11
 603.759
  21
 338.815
  31
0.0
   0
LINE
   8
LEVEL003
   6
CONTINUOUS
  62
7
  10
 603.759
  20
 338.815
  30
0.0
  11
 610.000
  21
 338.815
  31
0.0
   0
ARC
   8
LEVEL003
   6
CONTINUOUS
  62
7
  10
 858.120
  20
 429.500
  30
0.0
  40
 8.87961
  50
 336.135
  51
 0.880279E-11
   0
ARC
   8
LEVEL003
   6
CONTINUOUS
  62
7
  10
 858.120
  20
 412.500
  30
0.0
  40
 8.87961
  50
 0.208775E-4
  51
 23.8649
   0
ARC
   8
LEVEL003
   6
CONTINUOUS
  62
7
  10
 850.759
  20
 421.000
  30
0.0
  40
 16.2408
  50
 342.412
  51
 17.5880
   0
LINE
   8
LEVEL003
   6
CONTINUOUS
  62
7
  10
 857.500
  20
 421.000
  30
0.0
  11
 860.000
  21
 418.500
  31
0.0
   0
LINE
   8
LEVEL003
   6
CONTINUOUS
  62
7
  10
 860.000
  20
 416.093
  30
0.0
  11
 866.241
  21
 416.093
  31
0.0
   0
LINE
   8
LEVEL003
   6
CONTINUOUS
  62
7
  10
 860.000
  20
 421.000
  30
0.0
  11
 857.500
  21
 423.500
  31
0.0
   0
LINE
   8
LEVEL003
   6
CONTINUOUS
  62
7
  10
 860.000
  20
 425.907
  30
0.0
  11
 866.241
  21
 425.907
  31
0.0
   0
LINE
   8
LEVEL003
   6
CONTINUOUS
  62
7
  10
 857.500
  20
 430.200
  30
0.0
  11
 860.000
  21
 430.200
  31
0.0
   0
LINE
   8
LEVEL003
   6
CONTINUOUS
  62
7
  10
 860.000
  20
 430.200
  30
0.0
  11
 860.000
  21
 411.800
  31
0.0
   0
LINE
   8
LEVEL003
   6
CONTINUOUS
  62
7
  10
 860.000
  20
 411.800
  30
0.0
  11
 857.500
  21
 411.800
  31
0.0
   0
LINE
   8
LEVEL003
   6
CONTINUOUS
  62
7
  10
 857.500
  20
 411.800
  30
0.0
  11
 857.500
  21
 430.200
  31
0.0
   0
LINE
   8
LEVEL003
   6
CONTINUOUS
  62
7
  10
 860.000
  20
 411.185
  30
0.0
  11
 860.000
  21
 430.815
  31
0.0
   0
LINE
   8
LEVEL003
   6
CONTINUOUS
  62
7
  10
 860.000
  20
 430.815
  30
0.0
  11
 866.241
  21
 430.815
  31
0.0
   0
LINE
   8
LEVEL003
   6
CONTINUOUS
  62
7
  10
 866.241
  20
 430.815
  30
0.0
  11
 867.000
  21
 429.500
  31
0.0
   0
LINE
   8
LEVEL003
   6
CONTINUOUS
  62
7
  10
 867.000
  20
 429.500
  30
0.0
  11
 867.000
  21
 412.500
  31
0.0
   0
LINE
   8
LEVEL003
   6
CONTINUOUS
  62
7
  10
 867.000
  20
 412.500
  30
0.0
  11
 866.241
  21
 411.185
  31
0.0
   0
LINE
   8
LEVEL003
   6
CONTINUOUS
  62
7
  10
 866.241
  20
 411.185
  30
0.0
  11
 860.000
  21
 411.185
  31
0.0
   0
ARC
   8
LEVEL003
   6
CONTINUOUS
  62
7
  10
 858.120
  20
 337.500
  30
0.0
  40
 8.87961
  50
 336.135
  51
 0.770244E-11
   0
LINE
   8
LEVEL003
   6
CONTINUOUS
  62
7
  10
 857.500
  20
 329.000
  30
0.0
  11
 860.000
  21
 331.500
  31
0.0
   0
LINE
   8
LEVEL003
   6
CONTINUOUS
  62
7
  10
 860.000
  20
 333.907
  30
0.0
  11
 866.241
  21
 333.907
  31
0.0
   0
ARC
   8
LEVEL003
   6
CONTINUOUS
  62
7
  10
 858.120
  20
 320.500
  30
0.0
  40
 8.87961
  50
 0.208775E-4
  51
 23.8649
   0
ARC
   8
LEVEL003
   6
CONTINUOUS
  62
7
  10
 850.759
  20
 329.000
  30
0.0
  40
 16.2408
  50
 342.412
  51
 17.5880
   0
LINE
   8
LEVEL003
   6
CONTINUOUS
  62
7
  10
 860.000
  20
 329.000
  30
0.0
  11
 857.500
  21
 326.500
  31
0.0
   0
LINE
   8
LEVEL003
   6
CONTINUOUS
  62
7
  10
 860.000
  20
 324.093
  30
0.0
  11
 866.241
  21
 324.093
  31
0.0
   0
LINE
   8
LEVEL003
   6
CONTINUOUS
  62
7
  10
 857.500
  20
 319.800
  30
0.0
  11
 860.000
  21
 319.800
  31
0.0
   0
LINE
   8
LEVEL003
   6
CONTINUOUS
  62
7
  10
 860.000
  20
 319.800
  30
0.0
  11
 860.000
  21
 338.200
  31
0.0
   0
LINE
   8
LEVEL003
   6
CONTINUOUS
  62
7
  10
 860.000
  20
 338.200
  30
0.0
  11
 857.500
  21
 338.200
  31
0.0
   0
LINE
   8
LEVEL003
   6
CONTINUOUS
  62
7
  10
 857.500
  20
 338.200
  30
0.0
  11
 857.500
  21
 319.800
  31
0.0
   0
LINE
   8
LEVEL003
   6
CONTINUOUS
  62
7
  10
 860.000
  20
 338.815
  30
0.0
  11
 860.000
  21
 319.185
  31
0.0
   0
LINE
   8
LEVEL003
   6
CONTINUOUS
  62
7
  10
 860.000
  20
 319.185
  30
0.0
  11
 866.241
  21
 319.185
  31
0.0
   0
LINE
   8
LEVEL003
   6
CONTINUOUS
  62
7
  10
 866.241
  20
 319.185
  30
0.0
  11
 867.000
  21
 320.500
  31
0.0
   0
LINE
   8
LEVEL003
   6
CONTINUOUS
  62
7
  10
 867.000
  20
 320.500
  30
0.0
  11
 867.000
  21
 337.500
  31
0.0
   0
LINE
   8
LEVEL003
   6
CONTINUOUS
  62
7
  10
 867.000
  20
 337.500
  30
0.0
  11
 866.241
  21
 338.815
  31
0.0
   0
LINE
   8
LEVEL003
   6
CONTINUOUS
  62
7
  10
 866.241
  20
 338.815
  30
0.0
  11
 860.000
  21
 338.815
  31
0.0
   0
ARC
   8
LEVEL001
   6
CONTINUOUS
  62
7
  10
 547.000
  20
 350.500
  30
0.0
  40
 1.00000
  50
 359.998
  51
 89.9991
   0
ARC
   8
LEVEL001
   6
CONTINUOUS
  62
7
  10
 547.000
  20
 277.000
  30
0.0
  40
 2.00000
  50
 180.001
  51
 270.000
   0
ARC
   8
LEVEL001
   6
CONTINUOUS
  62
7
  10
 546.000
  20
 284.000
  30
0.0
  40
 1.00000
  50
 90.0009
  51
 180.002
   0
ARC
   8
LEVEL001
   6
CONTINUOUS
  62
7
  10
 546.500
  20
 286.000
  30
0.0
  40
 1.00000
  50
 270.001
  51
 0.132230E-8
   0
LINE
   8
LEVEL001
   6
CONTINUOUS
  62
7
  10
 546.500
  20
 285.000
  30
0.0
  11
 546.000
  21
 285.000
  31
0.0
   0
LINE
   8
LEVEL001
   6
DASHDOT
  62
1
  10
 559.374
  20
 295.000
  30
0.0
  11
 514.374
  21
 295.000
  31
0.0
   0
ARC
   8
LEVEL001
   6
CONTINUOUS
  62
7
  10
 557.500
  20
 341.377
  30
0.0
  40
 10.0000
  50
 161.804
  51
 180.000
   0
LINE
   8
LEVEL001
   6
CONTINUOUS
  62
7
  10
 597.000
  20
 349.500
  30
0.0
  11
 597.000
  21
 344.500
  31
0.0
   0
ARC
   8
LEVEL001
   6
CONTINUOUS
  62
7
  10
 598.000
  20
 277.000
  30
0.0
  40
 2.00000
  50
 270.000
  51
0.0
   0
ARC
   8
LEVEL001
   6
CONTINUOUS
  62
7
  10
 598.500
  20
 286.000
  30
0.0
  40
 1.00000
  50
 180.001
  51
 269.999
   0
LINE
   8
LEVEL001
   6
CONTINUOUS
  62
7
  10
 598.500
  20
 285.000
  30
0.0
  11
 599.000
  21
 285.000
  31
0.0
   0
ARC
   8
LEVEL001
   6
CONTINUOUS
  62
7
  10
 587.500
  20
 341.377
  30
0.0
  40
 10.0000
  50
 0.846791E-11
  51
 18.1960
   0
ARC
   8
LEVEL001
   6
CONTINUOUS
  62
7
  10
 520.500
  20
 295.000
  30
0.0
  40
 3.00000
  50
 94.2234
  51
 265.776
   0
ARC
   8
LEVEL001
   6
CONTINUOUS
  62
7
  10
 547.000
  20
 399.500
  30
0.0
  40
 1.00000
  50
 270.001
  51
 0.846791E-9
   0
LINE
   8
LEVEL001
   6
CONTINUOUS
  62
7
  10
 596.250
  20
 408.900
  30
0.0
  11
 548.750
  21
 408.900
  31
0.0
   0
LINE
   8
LEVEL001
   6
CONTINUOUS
  62
7
  10
 597.000
  20
 400.500
  30
0.0
  11
 597.000
  21
 407.500
  31
0.0
   0
LINE
   8
LEVEL001
   6
DASHDOT
  62
1
  10
 572.500
  20
 407.000
  30
0.0
  11
 572.500
  21
 272.000
  31
0.0
   0
LINE
   8
LEVEL001
   6
CONTINUOUS
  62
7
  10
 597.500
  20
 341.377
  30
0.0
  11
 597.500
  21
 286.000
  31
0.0
   0
ARC
   8
LEVEL001
   6
CONTINUOUS
  62
7
  10
 599.000
  20
 284.000
  30
0.0
  40
 1.00000
  50
 359.998
  51
 89.9991
   0
LINE
   8
LEVEL001
   6
CONTINUOUS
  62
7
  10
 547.000
  20
 398.500
  30
0.0
  11
 547.000
  21
 375.000
  31
0.0
   0
LINE
   8
LEVEL001
   6
CONTINUOUS
  62
7
  10
 547.000
  20
 351.500
  30
0.0
  11
 547.000
  21
 375.000
  31
0.0
   0
LINE
   8
LEVEL001
   6
CONTINUOUS
  62
7
  10
 596.874
  20
 400.500
  30
0.0
  11
 596.874
  21
 375.000
  31
0.0
   0
LINE
   8
LEVEL001
   6
CONTINUOUS
  62
7
  10
 596.874
  20
 349.500
  30
0.0
  11
 596.874
  21
 375.000
  31
0.0
   0
LINE
   8
LEVEL001
   6
DASHDOT
  62
1
  10
 602.500
  20
 344.500
  30
0.0
  11
 542.500
  21
 344.500
  31
0.0
   0
LINE
   8
LEVEL001
   6
CONTINUOUS
  62
7
  10
 536.366
  20
 299.179
  30
0.0
  11
 520.279
  21
 297.992
  31
0.0
   0
ARC
   8
LEVEL001
   6
CONTINUOUS
  62
7
  10
 535.998
  20
 304.165
  30
0.0
  40
 5.00000
  50
 274.219
  51
 299.846
   0
LINE
   8
LEVEL001
   6
CONTINUOUS
  62
7
  10
 538.486
  20
 299.828
  30
0.0
  11
 544.988
  21
 303.559
  31
0.0
   0
ARC
   8
LEVEL001
   6
CONTINUOUS
  62
7
  10
 542.500
  20
 307.896
  30
0.0
  40
 5.00000
  50
 299.846
  51
 0.664405E-10
   0
ARC
   8
LEVEL001
   6
DOT
  62
3
  10
 558.500
  20
 320.750
  30
0.0
  40
 2.50000
  50
 90.0004
  51
 180.001
   0
LINE
   8
LEVEL001
   6
DOT
  62
3
  10
 558.500
  20
 323.250
  30
0.0
  11
 572.500
  21
 323.250
  31
0.0
   0
ARC
   8
LEVEL001
   6
DOT
  62
3
  10
 553.500
  20
 277.500
  30
0.0
  40
 2.50000
  50
 270.000
  51
 0.696680E-3
   0
LINE
   8
LEVEL001
   6
DOT
  62
3
  10
 556.000
  20
 277.500
  30
0.0
  11
 556.000
  21
 320.750
  31
0.0
   0
ARC
   8
LEVEL001
   6
DOT
  62
3
  10
 586.500
  20
 320.750
  30
0.0
  40
 2.50000
  50
 0.260551E-11
  51
 89.9996
   0
LINE
   8
LEVEL001
   6
DOT
  62
3
  10
 586.500
  20
 323.250
  30
0.0
  11
 572.500
  21
 323.250
  31
0.0
   0
ARC
   8
LEVEL001
   6
DOT
  62
3
  10
 591.500
  20
 277.500
  30
0.0
  40
 2.50000
  50
 179.999
  51
 270.000
   0
LINE
   8
LEVEL001
   6
DOT
  62
3
  10
 589.000
  20
 277.500
  30
0.0
  11
 589.000
  21
 320.750
  31
0.0
   0
ARC
   8
LEVEL001
   6
CONTINUOUS
  62
7
  10
 535.998
  20
 285.835
  30
0.0
  40
 5.00000
  50
 60.1541
  51
 85.7809
   0
LINE
   8
LEVEL001
   6
CONTINUOUS
  62
7
  10
 538.486
  20
 290.172
  30
0.0
  11
 542.488
  21
 287.875
  31
0.0
   0
ARC
   8
LEVEL001
   6
CONTINUOUS
  62
7
  10
 540.000
  20
 283.539
  30
0.0
  40
 5.00000
  50
 0.729543E-10
  51
 60.1541
   0
LINE
   8
LEVEL001
   6
CONTINUOUS
  62
7
  10
 545.000
  20
 283.539
  30
0.0
  11
 545.000
  21
 277.000
  31
0.0
   0
LINE
   8
LEVEL001
   6
CONTINUOUS
  62
7
  10
 537.500
  20
 298.386
  30
0.0
  11
 537.500
  21
 291.705
  31
0.0
   0
LINE
   8
LEVEL001
   6
CONTINUOUS
  62
7
  10
 536.366
  20
 290.821
  30
0.0
  11
 520.279
  21
 292.008
  31
0.0
   0
LINE
   8
LEVEL001
   6
CONTINUOUS
  62
7
  10
 547.500
  20
 341.377
  30
0.0
  11
 547.500
  21
 286.000
  31
0.0
   0
LINE
   8
LEVEL001
   6
CONTINUOUS
  62
7
  10
 597.000
  20
 407.500
  30
0.0
  11
 596.250
  21
 407.500
  31
0.0
   0
LINE
   8
LEVEL001
   6
CONTINUOUS
  62
7
  10
 548.750
  20
 407.500
  30
0.0
  11
 548.000
  21
 407.500
  31
0.0
   0
LINE
   8
LEVEL001
   6
CONTINUOUS
  62
7
  10
 548.750
  20
 371.043
  30
0.0
  11
 596.250
  21
 371.043
  31
0.0
   0
LINE
   8
LEVEL001
   6
CONTINUOUS
  62
7
  10
 548.750
  20
 369.649
  30
0.0
  11
 596.250
  21
 369.649
  31
0.0
   0
LINE
   8
LEVEL001
   6
CONTINUOUS
  62
7
  10
 596.250
  20
 408.900
  30
0.0
  11
 596.250
  21
 369.649
  31
0.0
   0
LINE
   8
LEVEL001
   6
CONTINUOUS
  62
7
  10
 548.750
  20
 408.900
  30
0.0
  11
 548.750
  21
 369.649
  31
0.0
   0
CIRCLE
   8
LEVEL001
   6
CONTINUOUS
  62
7
  10
 572.500
  20
 344.500
  30
0.0
  40
 17.2500
   0
ARC
   8
LEVEL001
   6
CONTINUOUS
  62
7
  10
 572.500
  20
 369.822
  30
0.0
  40
 5.40000
  50
 56.0515
  51
 89.9984
   0
ARC
   8
LEVEL001
   6
CONTINUOUS
  62
7
  10
 573.617
  20
 371.482
  30
0.0
  40
 3.40000
  50
 5.75276
  51
 56.0513
   0
ARC
   8
LEVEL001
   6
CONTINUOUS
  62
7
  10
 572.500
  20
 369.822
  30
0.0
  40
 5.40000
  50
 89.9971
  51
 123.945
   0
ARC
   8
LEVEL001
   6
CONTINUOUS
  62
7
  10
 571.383
  20
 371.482
  30
0.0
  40
 3.40000
  50
 123.945
  51
 174.243
   0
LINE
   8
LEVEL001
   6
CONTINUOUS
  62
7
  10
 568.000
  20
 371.823
  30
0.0
  11
 577.000
  21
 371.823
  31
0.0
   0
LINE
   8
LEVEL001
   6
CONTINUOUS
  62
7
  10
 548.000
  20
 407.500
  30
0.0
  11
 548.000
  21
 344.500
  31
0.0
   0
ARC
   8
LEVEL001
   6
CONTINUOUS
  62
7
  10
 572.500
  20
 224.322
  30
0.0
  40
 54.1227
  50
 69.4482
  51
 110.552
   0
LINE
   8
LEVEL001
   6
CONTINUOUS
  62
7
  10
 553.500
  20
 275.000
  30
0.0
  11
 547.000
  21
 275.000
  31
0.0
   0
LINE
   8
LEVEL001
   6
CONTINUOUS
  62
7
  10
 591.500
  20
 275.000
  30
0.0
  11
 598.000
  21
 275.000
  31
0.0
   0
ARC
   8
LEVEL001
   6
CONTINUOUS
  62
7
  10
 572.500
  20
 225.893
  30
0.0
  40
 54.1227
  50
 65.1388
  51
 114.861
   0
ARC
   8
LEVEL001
   6
CONTINUOUS
  62
7
  10
 567.000
  20
 291.746
  30
0.0
  40
 3.00000
  50
 273.452
  51
 0.586240E-10
   0
ARC
   8
LEVEL001
   6
CONTINUOUS
  62
7
  10
 578.000
  20
 291.746
  30
0.0
  40
 3.00000
  50
 180.000
  51
 266.548
   0
ARC
   8
LEVEL001
   6
CONTINUOUS
  62
7
  10
 572.500
  20
 200.559
  30
0.0
  40
 88.3529
  50
 72.8860
  51
 107.114
   0
LINE
   8
LEVEL001
   6
CONTINUOUS
  62
7
  10
 575.000
  20
 317.556
  30
0.0
  11
 575.000
  21
 291.746
  31
0.0
   0
ARC
   8
LEVEL001
   6
CONTINUOUS
  62
7
  10
 578.000
  20
 317.556
  30
0.0
  40
 3.00000
  50
 101.537
  51
 180.000
   0
LINE
   8
LEVEL001
   6
CONTINUOUS
  62
7
  10
 570.000
  20
 317.556
  30
0.0
  11
 570.000
  21
 291.746
  31
0.0
   0
ARC
   8
LEVEL001
   6
CONTINUOUS
  62
7
  10
 567.000
  20
 317.556
  30
0.0
  40
 3.00000
  50
 0.325689E-10
  51
 78.4630
   0
ARC
   8
LEVEL001
   6
CONTINUOUS
  62
7
  10
 572.500
  20
 344.500
  30
0.0
  40
 24.5000
  50
 180.000
  51
0.0
   0
LINE
   8
LEVEL001
   6
CONTINUOUS
  62
7
  10
 600.000
  20
 284.000
  30
0.0
  11
 600.000
  21
 277.000
  31
0.0
   0
LINE
   8
LEVEL003
   6
CONTINUOUS
  62
7
  10
 601.000
  20
 392.500
  30
0.0
  11
 596.874
  21
 392.500
  31
0.0
   0
LINE
   8
LEVEL003
   6
CONTINUOUS
  62
7
  10
 601.000
  20
 357.500
  30
0.0
  11
 596.874
  21
 357.500
  31
0.0
   0
CIRCLE
   8
LEVEL001
   6
CONTINUOUS
  62
7
  10
 385.000
  20
 295.000
  30
0.0
  40
 10.0000
   0
CIRCLE
   8
LEVEL003
   6
CONTINUOUS
  62
7
  10
 943.058
  20
 62.1871
  30
0.0
  40
 9.00000
   0
LINE
   8
LEVEL003
   6
CONTINUOUS
  62
7
  10
 960.722
  20
 71.1871
  30
0.0
  11
 949.292
  21
 51.3871
  31
0.0
   0
LINE
   8
LEVEL003
   6
CONTINUOUS
  62
7
  10
 949.292
  20
 51.3871
  30
0.0
  11
 926.429
  21
 51.3871
  31
0.0
   0
LINE
   8
LEVEL003
   6
CONTINUOUS
  62
7
  10
 923.831
  20
 46.8871
  30
0.0
  11
 964.694
  21
 46.8871
  31
0.0
   0
LINE
   8
LEVEL003
   6
CONTINUOUS
  62
7
  10
 964.694
  20
 46.8871
  30
0.0
  11
 978.722
  21
 71.1871
  31
0.0
   0
LINE
   8
LEVEL003
   6
CONTINUOUS
  62
7
  10
 978.722
  20
 71.1871
  30
0.0
  11
 960.722
  21
 71.1871
  31
0.0
   0
LINE
   8
LEVEL003
   6
CONTINUOUS
  62
7
  10
 926.429
  20
 51.3871
  30
0.0
  11
 923.831
  21
 46.8871
  31
0.0
   0
TEXT
   8
LEVEL003
  62
7
  10
 990.201
  20
 41.8286
  30
0.0
  40
 22.5000
   1
ＯＳＡＫＡ ＪＡＣＫ
   7
STANDARD
   0
TEXT
   8
LEVEL003
  62
7
  10
 990.609
  20
 86.4161
  30
0.0
  40
 15.0000
   1
Model : ＪＪ－１００１１
   7
STANDARD
   0
ENDSEC
   0
EOF
