   0
SECTION
   2
HEADER
   9
$LIMMIN
  10
0.0
  20
0.0
   9
$LIMMAX
  10
 840.000
  20
 594.000
   9
$EXTMIN
  10
0.0
  20
0.0
   9
$EXTMAX
  10
 840.000
  20
 594.000
   9
$LTSCALE
  40
 16.8000
   0
ENDSEC
   0
SECTION
   2
TABLES
  0
TABLE
  2
LTYPE
 70
    25
  0
LTYPE
  2
CONTINUOUS
 70
    64
  3
Solid line
 72
    65
 73
     0
 40
0.0
  0
LTYPE
  2
BORDER
 70
    64
  3
__ __ . __ __ . __ __ . __ __ . __ __ . __ __ .
 72
    65
 73
     6
 40
1.75
 49
0.5
 49
-0.25
 49
0.5
 49
-0.25
 49
0.0
 49
-0.25
  0
LTYPE
  2
BORDER2
 70
    64
  3
__.__.__.__.__.__.__.__.__.__.__.__.__.__.__.__
 72
    65
 73
     6
 40
0.875
 49
0.25
 49
-0.125
 49
0.25
 49
-0.125
 49
0.0
 49
-0.125
  0
LTYPE
  2
BORDERX2
 70
    64
  3
____  ____  .  ____  ____  .  ____  ____  .  __
 72
    65
 73
     6
 40
3.5
 49
1.0
 49
-0.5
 49
1.0
 49
-0.5
 49
0.0
 49
-0.5
  0
LTYPE
  2
CENTER
 70
    64
  3
____ _ ____ _ ____ _ ____ _ ____ _ ____ _ ____ 
 72
    65
 73
     4
 40
2.0
 49
1.25
 49
-0.25
 49
0.25
 49
-0.25
  0
LTYPE
  2
CENTER2
 70
    64
  3
___ _ ___ _ ___ _ ___ _ ___ _ ___ _ ___ _ ___ _
 72
    65
 73
     4
 40
1.125
 49
0.75
 49
-0.125
 49
0.125
 49
-0.125
  0
LTYPE
  2
CENTERX2
 70
    64
  3
________  __  ________  __  ________  __  _____
 72
    65
 73
     4
 40
4.0
 49
2.5
 49
-0.5
 49
0.5
 49
-0.5
  0
LTYPE
  2
DASHDOT
 70
    64
  3
__ . __ . __ . __ . __ . __ . __ . __ . __ . __
 72
    65
 73
     4
 40
1.0
 49
0.5
 49
-0.25
 49
0.0
 49
-0.25
  0
LTYPE
  2
DASHDOT2
 70
    64
  3
_._._._._._._._._._._._._._._._._._._._._._._._
 72
    65
 73
     4
 40
0.5
 49
0.25
 49
-0.125
 49
0.0
 49
-0.125
  0
LTYPE
  2
DASHDOTX2
 70
    64
  3
____  .  ____  .  ____  .  ____  .  ____  .  __
 72
    65
 73
     4
 40
2.0
 49
1.0
 49
-0.5
 49
0.0
 49
-0.5
  0
LTYPE
  2
DASHED
 70
    64
  3
__ __ __ __ __ __ __ __ __ __ __ __ __ __ __ __
 72
    65
 73
     2
 40
0.75
 49
0.5
 49
-0.25
  0
LTYPE
  2
DASHED2
 70
    64
  3
_ _ _ _ _ _ _ _ _ _ _ _ _ _ _ _ _ _ _ _ _ _ _ _
 72
    65
 73
     2
 40
0.375
 49
0.25
 49
-0.125
  0
LTYPE
  2
DASHEDX2
 70
    64
  3
____  ____  ____  ____  ____  ____  ____  ____ 
 72
    65
 73
     2
 40
1.5
 49
1.0
 49
-0.5
  0
LTYPE
  2
DIVIDE
 70
    64
  3
____ . . ____ . . ____ . . ____ . . ____ . . __
 72
    65
 73
     6
 40
1.25
 49
0.5
 49
-0.25
 49
0.0
 49
-0.25
 49
0.0
 49
-0.25
  0
LTYPE
  2
DIVIDE2
 70
    64
  3
__..__..__..__..__..__..__..__..__..__..__..__.
 72
    65
 73
     6
 40
0.625
 49
0.25
 49
-0.125
 49
0.0
 49
-0.125
 49
0.0
 49
-0.125
  0
LTYPE
  2
DIVIDEX2
 70
    64
  3
________  .  .  ________  .  .  ________  .  . 
 72
    65
 73
     6
 40
2.5
 49
1.0
 49
-0.5
 49
0.0
 49
-0.5
 49
0.0
 49
-0.5
  0
LTYPE
  2
DOT
 70
    64
  3
. . . . . . . . . . . . . . . . . . . . . . . .
 72
    65
 73
     2
 40
0.25
 49
0.0
 49
-0.25
  0
LTYPE
  2
DOT2
 70
    64
  3
...............................................
 72
    65
 73
     2
 40
0.125
 49
0.0
 49
-0.125
  0
LTYPE
  2
DOTX2
 70
    64
  3
.  .  .  .  .  .  .  .  .  .  .  .  .  .  .  . 
 72
    65
 73
     2
 40
0.5
 49
0.0
 49
-0.5
  0
LTYPE
  2
HIDDEN
 70
    64
  3
__ __ __ __ __ __ __ __ __ __ __ __ __ __ __ __
 72
    65
 73
     2
 40
0.375
 49
0.25
 49
-0.125
  0
LTYPE
  2
HIDDEN2
 70
    64
  3
_ _ _ _ _ _ _ _ _ _ _ _ _ _ _ _ _ _ _ _ _ _ _ _
 72
    65
 73
     2
 40
0.1875
 49
0.125
 49
-0.0625
  0
LTYPE
  2
HIDDENX2
 70
    64
  3
____ ____ ____ ____ ____ ____ ____ ____ ____ __
 72
    65
 73
     2
 40
0.75
 49
0.5
 49
-0.25
  0
LTYPE
  2
PHANTOM
 70
    64
  3
______  __  __  ______  __  __  ______  __  __ 
 72
    65
 73
     6
 40
2.5
 49
1.25
 49
-0.25
 49
0.25
 49
-0.25
 49
0.25
 49
-0.25
  0
LTYPE
  2
PHANTOM2
 70
    64
  3
___ _ _ ___ _ _ ___ _ _ ___ _ _ ___ _ _ ___ _ _
 72
    65
 73
     6
 40
1.25
 49
0.625
 49
-0.125
 49
0.125
 49
-0.125
 49
0.125
 49
-0.125
  0
LTYPE
  2
PHANTOMX2
 70
    64
  3
____________    ____    ____    ____________   
 72
    65
 73
     6
 40
5.0
 49
2.5
 49
-0.5
 49
0.5
 49
-0.5
 49
0.5
 49
-0.5
  0
ENDTAB
  0
TABLE
  2
STYLE
 70
     2
  0
STYLE
  2
STANDARD
 70
0
 40
0.0
 41
1.0
 50
0.0
 71
0
 42
0.2
  3
TXT
  4
BIGFONT
  0
STYLE
  2
STANDARD1
 70
     4
 40
0.0
 41
1.0
 50
0.0
 71
     0
 42
0.2
  3
TXT
  4
BIGFONT
  0
ENDTAB
   0
TABLE
   2
LAYER
  70
7
   0
LAYER
   2
0
  70
0
  62
7
   6
CONTINUOUS
   0
LAYER
   2
LEVEL001
  70
0
  62
7
   6
CONTINUOUS
   0
LAYER
   2
LEVEL003
  70
0
  62
7
   6
CONTINUOUS
   0
LAYER
   2
LEVEL020
  70
0
  62
7
   6
CONTINUOUS
   0
LAYER
   2
LEVEL050
  70
0
  62
7
   6
CONTINUOUS
   0
LAYER
   2
LEVEL100
  70
0
  62
-7
   6
CONTINUOUS
   0
LAYER
   2
LEVEL110
  70
0
  62
7
   6
CONTINUOUS
   0
ENDTAB
   0
ENDSEC
   0
SECTION
   2
ENTITIES
   0
LINE
   8
LEVEL100
   6
CONTINUOUS
  62
7
  10
 622.500
  20
 128.000
  30
0.0
  11
 622.500
  21
 114.000
  31
0.0
   0
LINE
   8
LEVEL100
   6
CONTINUOUS
  62
7
  10
 682.500
  20
 128.000
  30
0.0
  11
 682.500
  21
 82.0000
  31
0.0
   0
LINE
   8
LEVEL100
   6
CONTINUOUS
  62
7
  10
 722.500
  20
 128.000
  30
0.0
  11
 722.500
  21
 114.000
  31
0.0
   0
LINE
   8
LEVEL100
   6
CONTINUOUS
  62
7
  10
 738.500
  20
 128.000
  30
0.0
  11
 738.500
  21
 114.000
  31
0.0
   0
LINE
   8
LEVEL100
   6
CONTINUOUS
  62
7
  10
 761.500
  20
 128.000
  30
0.0
  11
 761.500
  21
 114.000
  31
0.0
   0
LINE
   8
LEVEL100
   6
CONTINUOUS
  62
7
  10
 663.500
  20
 114.000
  30
0.0
  11
 663.500
  21
 82.0000
  31
0.0
   0
LINE
   8
LEVEL100
   6
CONTINUOUS
  62
7
  10
 630.500
  20
 53.0000
  30
0.0
  11
 640.500
  21
 63.0000
  31
0.0
   0
CIRCLE
   8
LEVEL100
   6
CONTINUOUS
  62
7
  10
 616.500
  20
 23.0000
  30
0.0
  40
 0.800000
   0
CIRCLE
   8
LEVEL100
   6
CONTINUOUS
  62
7
  10
 630.500
  20
 23.0000
  30
0.0
  40
 0.800000
   0
CIRCLE
   8
LEVEL100
   6
CONTINUOUS
  62
7
  10
 616.500
  20
 23.0000
  30
0.0
  40
 0.500000
   0
CIRCLE
   8
LEVEL100
   6
CONTINUOUS
  62
7
  10
 630.500
  20
 23.0000
  30
0.0
  40
 0.500000
   0
LINE
   8
LEVEL100
   6
CONTINUOUS
  62
7
  10
 692.000
  20
 31.0000
  30
0.0
  11
 692.000
  21
 33.0000
  31
0.0
   0
LINE
   8
LEVEL100
   6
CONTINUOUS
  62
7
  10
 692.000
  20
 33.0000
  30
0.0
  11
 698.000
  21
 33.0000
  31
0.0
   0
LINE
   8
LEVEL100
   6
CONTINUOUS
  62
7
  10
 698.000
  20
 33.0000
  30
0.0
  11
 698.000
  21
 31.0000
  31
0.0
   0
LINE
   8
LEVEL100
   6
CONTINUOUS
  62
7
  10
 698.000
  20
 31.0000
  30
0.0
  11
 692.000
  21
 31.0000
  31
0.0
   0
LINE
   8
LEVEL100
   6
CONTINUOUS
  62
7
  10
 602.500
  20
 20.0000
  30
0.0
  11
 602.500
  21
 128.000
  31
0.0
   0
LINE
   8
LEVEL100
   6
CONTINUOUS
  62
7
  10
 644.500
  20
 114.000
  30
0.0
  11
 644.500
  21
 20.0000
  31
0.0
   0
LINE
   8
LEVEL100
   6
CONTINUOUS
  62
7
  10
 602.500
  20
 66.0000
  30
0.0
  11
 644.500
  21
 66.0000
  31
0.0
   0
TEXT
   8
LEVEL100
  62
7
  10
 651.500
  20
 27.0000
  30
0.0
  40
 10.0000
   1
ＯＪ
  41
 0.700000
   7
STANDARD
   0
LINE
   8
LEVEL100
   6
CONTINUOUS
  62
7
  10
 602.500
  20
 114.000
  30
0.0
  11
 816.300
  21
 114.000
  31
0.0
   0
LINE
   8
LEVEL100
   6
CONTINUOUS
  62
7
  10
 602.500
  20
 106.000
  30
0.0
  11
 816.300
  21
 106.000
  31
0.0
   0
LINE
   8
LEVEL100
   6
CONTINUOUS
  62
7
  10
 602.500
  20
 128.000
  30
0.0
  11
 816.300
  21
 128.000
  31
0.0
   0
LINE
   8
LEVEL100
   6
CONTINUOUS
  62
7
  10
 654.300
  20
 526.000
  30
0.0
  11
 654.300
  21
 576.000
  31
0.0
   0
LINE
   8
LEVEL100
   6
CONTINUOUS
  62
7
  10
 654.300
  20
 566.000
  30
0.0
  11
 816.300
  21
 566.000
  31
0.0
   0
LINE
   8
LEVEL100
   6
CONTINUOUS
  62
7
  10
 654.300
  20
 556.000
  30
0.0
  11
 816.300
  21
 556.000
  31
0.0
   0
LINE
   8
LEVEL100
   6
CONTINUOUS
  62
7
  10
 672.300
  20
 566.000
  30
0.0
  11
 672.300
  21
 556.000
  31
0.0
   0
LINE
   8
LEVEL100
   6
CONTINUOUS
  62
7
  10
 776.300
  20
 566.000
  30
0.0
  11
 776.300
  21
 556.000
  31
0.0
   0
LINE
   8
LEVEL100
   6
CONTINUOUS
  62
7
  10
 800.300
  20
 566.000
  30
0.0
  11
 800.300
  21
 556.000
  31
0.0
   0
LINE
   8
LEVEL100
   6
CONTINUOUS
  62
7
  10
 602.500
  20
 82.0000
  30
0.0
  11
 816.300
  21
 82.0000
  31
0.0
   0
LINE
   8
LEVEL100
   6
CONTINUOUS
  62
7
  10
 602.500
  20
 50.0000
  30
0.0
  11
 816.300
  21
 50.0000
  31
0.0
   0
LINE
   8
LEVEL100
   6
CONTINUOUS
  62
7
  10
 760.300
  20
 50.0000
  30
0.0
  11
 760.300
  21
 20.0000
  31
0.0
   0
LINE
   8
LEVEL100
   6
CONTINUOUS
  62
7
  10
 768.300
  20
 20.0000
  30
0.0
  11
 802.300
  21
 40.0000
  31
0.0
   0
LINE
   8
LEVEL100
   6
CONTINUOUS
  62
7
  10
 50.0000
  20
 576.000
  30
0.0
  11
 816.300
  21
 576.000
  31
0.0
   0
LINE
   8
LEVEL100
   6
CONTINUOUS
  62
7
  10
 816.300
  20
 576.000
  30
0.0
  11
 816.300
  21
 20.0000
  31
0.0
   0
LINE
   8
LEVEL100
   6
CONTINUOUS
  62
7
  10
 816.300
  20
 20.0000
  30
0.0
  11
 50.0000
  21
 20.0000
  31
0.0
   0
LINE
   8
LEVEL100
   6
CONTINUOUS
  62
7
  10
 50.0000
  20
 558.400
  30
0.0
  11
 150.300
  21
 558.400
  31
0.0
   0
LINE
   8
LEVEL100
   6
CONTINUOUS
  62
7
  10
 150.300
  20
 558.400
  30
0.0
  11
 150.300
  21
 576.000
  31
0.0
   0
TEXT
   8
LEVEL100
  62
7
  10
 148.300
  20
 572.200
  30
0.0
  40
 10.0000
   1
ＯＪ．
  50
 180.000
  41
 0.900000
   7
STANDARD
   0
LINE
   8
LEVEL100
   6
CONTINUOUS
  62
7
  10
 114.300
  20
 568.200
  30
0.0
  11
 108.300
  21
 568.200
  31
0.0
   0
LINE
   8
LEVEL100
   6
CONTINUOUS
  62
7
  10
 108.300
  20
 568.200
  30
0.0
  11
 108.300
  21
 566.200
  31
0.0
   0
LINE
   8
LEVEL100
   6
CONTINUOUS
  62
7
  10
 108.300
  20
 566.200
  30
0.0
  11
 114.300
  21
 566.200
  31
0.0
   0
LINE
   8
LEVEL100
   6
CONTINUOUS
  62
7
  10
 114.300
  20
 566.200
  30
0.0
  11
 114.300
  21
 568.200
  31
0.0
   0
TEXT
   8
LEVEL100
  62
7
  10
 624.500
  20
 116.000
  30
0.0
  40
 8.00000
   1
Ｓ．ＩＭＡＮＩＳＨＩ
  41
 0.625000
   7
STANDARD
   0
TEXT
   8
LEVEL020
  62
6
  10
 290.000
  20
 480.000
  30
0.0
  40
 10.0000
   1
ストローク
   7
STANDARD
   0
TEXT
   8
LEVEL020
  62
6
  10
 290.000
  20
 494.000
  30
0.0
  40
 10.0000
   1
揚　　　力
   7
STANDARD
   0
TEXT
   8
LEVEL020
  62
6
  10
 460.000
  20
 480.000
  30
0.0
  40
 10.0000
   1
ｍｍ
  41
 0.700000
   7
STANDARD
   0
LINE
   8
LEVEL020
   6
CONTINUOUS
  62
6
  10
 290.000
  20
 506.000
  30
0.0
  11
 490.000
  21
 506.000
  31
0.0
   0
LINE
   8
LEVEL020
   6
CONTINUOUS
  62
6
  10
 290.000
  20
 492.000
  30
0.0
  11
 490.000
  21
 492.000
  31
0.0
   0
LINE
   8
LEVEL020
   6
CONTINUOUS
  62
6
  10
 290.000
  20
 478.000
  30
0.0
  11
 490.000
  21
 478.000
  31
0.0
   0
TEXT
   8
LEVEL020
  62
6
  10
 290.000
  20
 508.000
  30
0.0
  40
 10.0000
   1
形　　　式
   7
STANDARD
   0
TEXT
   8
LEVEL020
  62
6
  10
 290.000
  20
 522.000
  30
0.0
  40
 10.0000
   1
仕　　　様
   7
STANDARD
   0
LINE
   8
LEVEL020
   6
CONTINUOUS
  62
6
  10
 290.000
  20
 520.000
  30
0.0
  11
 340.000
  21
 520.000
  31
0.0
   0
TEXT
   8
LEVEL020
  62
6
  10
 290.000
  20
 466.000
  30
0.0
  40
 10.0000
   1
最低高さ
   7
STANDARD
   0
TEXT
   8
LEVEL020
  62
6
  10
 460.000
  20
 466.000
  30
0.0
  40
 10.0000
   1
ｍｍ
  41
 0.700000
   7
STANDARD
   0
LINE
   8
LEVEL020
   6
CONTINUOUS
  62
6
  10
 290.000
  20
 464.000
  30
0.0
  11
 490.000
  21
 464.000
  31
0.0
   0
LINE
   8
LEVEL020
   6
CONTINUOUS
  62
6
  10
 290.000
  20
 450.000
  30
0.0
  11
 490.000
  21
 450.000
  31
0.0
   0
LINE
   8
LEVEL020
   6
CONTINUOUS
  62
6
  10
 290.000
  20
 436.000
  30
0.0
  11
 490.000
  21
 436.000
  31
0.0
   0
TEXT
   8
LEVEL020
  62
6
  10
 290.000
  20
 438.000
  30
0.0
  40
 10.0000
   1
付　属　品
   7
STANDARD
   0
TEXT
   8
LEVEL020
  62
6
  10
 404.000
  20
 438.000
  30
0.0
  40
 10.0000
   1
　　　　　　１
  41
 0.700000
   7
STANDARD
   0
TEXT
   8
LEVEL020
  62
6
  10
 460.000
  20
 438.000
  30
0.0
  40
 10.0000
   1
本
  41
 0.500000
   7
STANDARD
   0
TEXT
   8
LEVEL020
  62
6
  10
 404.000
  20
 452.000
  30
0.0
  40
 10.0000
   1
　　　約　１２
  41
 0.700000
   7
STANDARD
   0
TEXT
   8
LEVEL020
  62
6
  10
 404.000
  20
 508.000
  30
0.0
  40
 10.0000
   1
　　　ＪＪ－１０１５
  41
 0.700000
   7
STANDARD
   0
TEXT
   8
LEVEL020
  62
6
  10
 404.000
  20
 480.000
  30
0.0
  40
 10.0000
   1
　　　　１５０
  41
 0.700000
   7
STANDARD
   0
TEXT
   8
LEVEL020
  62
6
  10
 404.000
  20
 466.000
  30
0.0
  40
 10.0000
   1
　　　　２８０
  41
 0.700000
   7
STANDARD
   0
TEXT
   8
LEVEL020
  62
6
  10
 460.000
  20
 452.000
  30
0.0
  40
 10.0000
   1
ｋｇ
  41
 0.500000
   7
STANDARD
   0
TEXT
   8
LEVEL020
  62
6
  10
 347.000
  20
 438.000
  30
0.0
  40
 10.0000
   1
ハンドル棒（%%c２５×６００Ｌ）
  41
 0.600000
   7
STANDARD
   0
TEXT
   8
LEVEL020
  62
6
  10
 404.000
  20
 494.000
  30
0.0
  40
 10.0000
   1
　　　　１００
  41
 0.700000
   7
STANDARD
   0
TEXT
   8
LEVEL020
  62
6
  10
 460.000
  20
 494.000
  30
0.0
  40
 10.0000
   1
ｋＮ
  41
 0.700000
   7
STANDARD
   0
TEXT
   8
LEVEL020
  62
6
  10
 290.000
  20
 452.000
  30
0.0
  40
 10.0000
   1
質　　　量
   7
STANDARD
   0
CIRCLE
   8
LEVEL001
   6
CONTINUOUS
  62
7
  10
 470.000
  20
 182.000
  30
0.0
  40
 17.5000
   0
CIRCLE
   8
LEVEL001
   6
CONTINUOUS
  62
7
  10
 470.000
  20
 182.000
  30
0.0
  40
 8.50000
   0
CIRCLE
   8
LEVEL001
   6
CONTINUOUS
  62
7
  10
 473.000
  20
 192.100
  30
0.0
  40
 0.850006
   0
CIRCLE
   8
LEVEL001
   6
CONTINUOUS
  62
7
  10
 467.000
  20
 192.100
  30
0.0
  40
 0.850006
   0
LINE
   8
LEVEL001
   6
CONTINUOUS
  62
7
  10
 469.000
  20
 193.800
  30
0.0
  11
 469.000
  21
 190.441
  31
0.0
   0
LINE
   8
LEVEL001
   6
CONTINUOUS
  62
7
  10
 471.000
  20
 193.800
  30
0.0
  11
 471.000
  21
 190.441
  31
0.0
   0
ARC
   8
LEVEL001
   6
CONTINUOUS
  62
7
  10
 466.000
  20
 192.800
  30
0.0
  40
 1.00000
  50
 90.0000
  51
 180.000
   0
LINE
   8
LEVEL001
   6
CONTINUOUS
  62
7
  10
 466.000
  20
 193.800
  30
0.0
  11
 469.000
  21
 193.800
  31
0.0
   0
ARC
   8
LEVEL001
   6
CONTINUOUS
  62
7
  10
 474.000
  20
 192.800
  30
0.0
  40
 1.00000
  50
0.0
  51
 90.0000
   0
LINE
   8
LEVEL001
   6
CONTINUOUS
  62
7
  10
 471.000
  20
 193.800
  30
0.0
  11
 474.000
  21
 193.800
  31
0.0
   0
ARC
   8
LEVEL001
   6
CONTINUOUS
  62
7
  10
 476.000
  20
 190.480
  30
0.0
  40
 1.00000
  50
 180.000
  51
 236.252
   0
LINE
   8
LEVEL001
   6
CONTINUOUS
  62
7
  10
 475.000
  20
 192.800
  30
0.0
  11
 475.000
  21
 190.480
  31
0.0
   0
ARC
   8
LEVEL001
   6
CONTINUOUS
  62
7
  10
 464.000
  20
 190.480
  30
0.0
  40
 1.00000
  50
 303.748
  51
0.0
   0
LINE
   8
LEVEL001
   6
CONTINUOUS
  62
7
  10
 465.000
  20
 192.800
  30
0.0
  11
 465.000
  21
 190.480
  31
0.0
   0
ARC
   8
LEVEL001
   6
CONTINUOUS
  62
7
  10
 470.000
  20
 181.500
  30
0.0
  40
 9.80000
  50
 123.749
  51
 56.2509
   0
LINE
   8
LEVEL001
   6
DASHDOT
  62
1
  10
 430.000
  20
 182.000
  30
0.0
  11
 510.000
  21
 182.000
  31
0.0
   0
ARC
   8
LEVEL001
   6
CONTINUOUS
  62
7
  10
 128.000
  20
 108.300
  30
0.0
  40
 2.00000
  50
 180.000
  51
 270.000
   0
LINE
   8
LEVEL001
   6
CONTINUOUS
  62
7
  10
 126.000
  20
 114.300
  30
0.0
  11
 126.000
  21
 108.300
  31
0.0
   0
LINE
   8
LEVEL001
   6
DASHDOT
  62
1
  10
 167.000
  20
 110.050
  30
0.0
  11
 167.000
  21
 105.550
  31
0.0
   0
LINE
   8
LEVEL001
   6
DASHDOT
  62
1
  10
 154.000
  20
 110.050
  30
0.0
  11
 154.000
  21
 105.550
  31
0.0
   0
LINE
   8
LEVEL001
   6
DASHDOT
  62
1
  10
 141.000
  20
 110.050
  30
0.0
  11
 141.000
  21
 105.550
  31
0.0
   0
LINE
   8
LEVEL001
   6
DASHDOT
  62
1
  10
 180.000
  20
 182.000
  30
0.0
  11
 320.000
  21
 182.000
  31
0.0
   0
LINE
   8
LEVEL001
   6
DASHDOT
  62
1
  10
 180.000
  20
 390.000
  30
0.0
  11
 180.000
  21
 100.000
  31
0.0
   0
ARC
   8
LEVEL001
   6
CONTINUOUS
  62
7
  10
 150.500
  20
 383.300
  30
0.0
  40
 3.00000
  50
 90.0000
  51
 180.000
   0
LINE
   8
LEVEL001
   6
CONTINUOUS
  62
7
  10
 147.500
  20
 383.300
  30
0.0
  11
 147.500
  21
 371.300
  31
0.0
   0
LINE
   8
LEVEL001
   6
CONTINUOUS
  62
7
  10
 150.500
  20
 386.300
  30
0.0
  11
 180.000
  21
 386.300
  31
0.0
   0
LINE
   8
LEVEL001
   6
DASHDOT
  62
1
  10
 169.000
  20
 390.000
  30
0.0
  11
 169.000
  21
 380.000
  31
0.0
   0
LINE
   8
LEVEL001
   6
DASHDOT
  62
1
  10
 158.000
  20
 390.000
  30
0.0
  11
 158.000
  21
 380.000
  31
0.0
   0
LINE
   8
LEVEL001
   6
CONTINUOUS
  62
7
  10
 120.000
  20
 114.300
  30
0.0
  11
 120.000
  21
 125.300
  31
0.0
   0
LINE
   8
LEVEL001
   6
CONTINUOUS
  62
7
  10
 125.000
  20
 135.300
  30
0.0
  11
 125.000
  21
 125.300
  31
0.0
   0
LINE
   8
LEVEL001
   6
CONTINUOUS
  62
7
  10
 128.000
  20
 106.300
  30
0.0
  11
 180.000
  21
 106.300
  31
0.0
   0
ARC
   8
LEVEL001
   6
CONTINUOUS
  62
7
  10
 232.000
  20
 108.300
  30
0.0
  40
 2.00000
  50
 270.000
  51
0.0
   0
LINE
   8
LEVEL001
   6
CONTINUOUS
  62
7
  10
 234.000
  20
 114.300
  30
0.0
  11
 234.000
  21
 108.300
  31
0.0
   0
LINE
   8
LEVEL001
   6
DASHDOT
  62
1
  10
 193.000
  20
 110.050
  30
0.0
  11
 193.000
  21
 105.550
  31
0.0
   0
LINE
   8
LEVEL001
   6
DASHDOT
  62
1
  10
 206.000
  20
 110.050
  30
0.0
  11
 206.000
  21
 105.550
  31
0.0
   0
LINE
   8
LEVEL001
   6
DASHDOT
  62
1
  10
 219.000
  20
 110.050
  30
0.0
  11
 219.000
  21
 105.550
  31
0.0
   0
LINE
   8
LEVEL001
   6
CONTINUOUS
  62
7
  10
 240.000
  20
 114.300
  30
0.0
  11
 240.000
  21
 125.300
  31
0.0
   0
LINE
   8
LEVEL001
   6
CONTINUOUS
  62
7
  10
 235.000
  20
 135.300
  30
0.0
  11
 235.000
  21
 125.300
  31
0.0
   0
LINE
   8
LEVEL001
   6
CONTINUOUS
  62
7
  10
 232.000
  20
 106.300
  30
0.0
  11
 180.000
  21
 106.300
  31
0.0
   0
ARC
   8
LEVEL001
   6
CONTINUOUS
  62
7
  10
 209.500
  20
 383.300
  30
0.0
  40
 3.00000
  50
0.0
  51
 90.0000
   0
LINE
   8
LEVEL001
   6
CONTINUOUS
  62
7
  10
 212.500
  20
 383.300
  30
0.0
  11
 212.500
  21
 371.300
  31
0.0
   0
LINE
   8
LEVEL001
   6
CONTINUOUS
  62
7
  10
 209.500
  20
 386.300
  30
0.0
  11
 180.000
  21
 386.300
  31
0.0
   0
LINE
   8
LEVEL001
   6
DASHDOT
  62
1
  10
 191.000
  20
 390.000
  30
0.0
  11
 191.000
  21
 380.000
  31
0.0
   0
LINE
   8
LEVEL001
   6
DASHDOT
  62
1
  10
 202.000
  20
 390.000
  30
0.0
  11
 202.000
  21
 380.000
  31
0.0
   0
LINE
   8
LEVEL001
   6
CONTINUOUS
  62
7
  10
 266.005
  20
 159.858
  30
0.0
  11
 268.000
  21
 162.000
  31
0.0
   0
ARC
   8
LEVEL001
   6
CONTINUOUS
  62
7
  10
 243.000
  20
 148.189
  30
0.0
  40
 10.0000
  50
 94.0856
  51
 180.000
   0
LINE
   8
LEVEL001
   6
CONTINUOUS
  62
7
  10
 242.288
  20
 158.163
  30
0.0
  11
 266.005
  21
 159.858
  31
0.0
   0
LINE
   8
LEVEL001
   6
CONTINUOUS
  62
7
  10
 233.000
  20
 148.189
  30
0.0
  11
 233.000
  21
 135.300
  31
0.0
   0
LINE
   8
LEVEL001
   6
CONTINUOUS
  62
7
  10
 233.000
  20
 139.300
  30
0.0
  11
 266.005
  21
 159.858
  31
0.0
   0
LINE
   8
LEVEL001
   6
CONTINUOUS
  62
7
  10
 266.005
  20
 204.142
  30
0.0
  11
 268.000
  21
 202.000
  31
0.0
   0
ARC
   8
LEVEL001
   6
CONTINUOUS
  62
7
  10
 243.626
  20
 215.766
  30
0.0
  40
 10.0000
  50
 197.595
  51
 265.915
   0
LINE
   8
LEVEL001
   6
CONTINUOUS
  62
7
  10
 242.913
  20
 205.792
  30
0.0
  11
 266.005
  21
 204.142
  31
0.0
   0
ARC
   8
LEVEL001
   6
CONTINUOUS
  62
7
  10
 102.689
  20
 216.984
  30
0.0
  40
 34.0000
  50
 329.038
  51
 355.405
   0
ARC
   8
LEVEL001
   6
CONTINUOUS
  62
7
  10
 147.000
  20
 369.300
  30
0.0
  40
 2.00000
  50
 90.0000
  51
 180.000
   0
LINE
   8
LEVEL001
   6
CONTINUOUS
  62
7
  10
 145.000
  20
 369.300
  30
0.0
  11
 145.000
  21
 356.300
  31
0.0
   0
ARC
   8
LEVEL001
   6
CONTINUOUS
  62
7
  10
 145.829
  20
 354.300
  30
0.0
  40
 2.00000
  50
 355.404
  51
 90.0002
   0
LINE
   8
LEVEL001
   6
CONTINUOUS
  62
7
  10
 147.823
  20
 354.140
  30
0.0
  11
 136.580
  21
 214.260
  31
0.0
   0
LINE
   8
LEVEL001
   6
CONTINUOUS
  62
7
  10
 145.000
  20
 356.300
  30
0.0
  11
 145.829
  21
 356.300
  31
0.0
   0
ARC
   8
LEVEL001
   6
CONTINUOUS
  62
7
  10
 213.000
  20
 369.300
  30
0.0
  40
 2.00000
  50
0.0
  51
 90.0000
   0
ARC
   8
LEVEL001
   6
CONTINUOUS
  62
7
  10
 216.000
  20
 332.300
  30
0.0
  40
 1.00000
  50
 270.000
  51
0.0
   0
ARC
   8
LEVEL001
   6
CONTINUOUS
  62
7
  10
 216.180
  20
 329.305
  30
0.0
  40
 2.00000
  50
 93.4334
  51
 184.595
   0
LINE
   8
LEVEL001
   6
CONTINUOUS
  62
7
  10
 215.000
  20
 369.300
  30
0.0
  11
 217.000
  21
 369.300
  31
0.0
   0
LINE
   8
LEVEL001
   6
CONTINUOUS
  62
7
  10
 217.000
  20
 369.300
  30
0.0
  11
 217.000
  21
 332.300
  31
0.0
   0
LINE
   8
LEVEL001
   6
CONTINUOUS
  62
7
  10
 222.700
  20
 364.300
  30
0.0
  11
 222.700
  21
 354.300
  31
0.0
   0
LINE
   8
LEVEL001
   6
CONTINUOUS
  62
7
  10
 217.000
  20
 354.300
  30
0.0
  11
 222.700
  21
 354.300
  31
0.0
   0
LINE
   8
LEVEL001
   6
CONTINUOUS
  62
7
  10
 222.700
  20
 354.300
  30
0.0
  11
 223.000
  21
 354.820
  31
0.0
   0
LINE
   8
LEVEL001
   6
CONTINUOUS
  62
7
  10
 223.000
  20
 354.820
  30
0.0
  11
 223.000
  21
 363.780
  31
0.0
   0
LINE
   8
LEVEL001
   6
CONTINUOUS
  62
7
  10
 223.000
  20
 363.780
  30
0.0
  11
 222.700
  21
 364.300
  31
0.0
   0
LINE
   8
LEVEL001
   6
CONTINUOUS
  62
7
  10
 222.700
  20
 364.300
  30
0.0
  11
 217.000
  21
 364.300
  31
0.0
   0
LINE
   8
LEVEL001
   6
DASHDOT
  62
1
  10
 226.000
  20
 359.300
  30
0.0
  11
 203.000
  21
 359.300
  31
0.0
   0
LINE
   8
LEVEL001
   6
CONTINUOUS
  62
7
  10
 222.700
  20
 348.300
  30
0.0
  11
 222.700
  21
 338.300
  31
0.0
   0
LINE
   8
LEVEL001
   6
CONTINUOUS
  62
7
  10
 217.000
  20
 338.300
  30
0.0
  11
 222.700
  21
 338.300
  31
0.0
   0
LINE
   8
LEVEL001
   6
CONTINUOUS
  62
7
  10
 222.700
  20
 338.300
  30
0.0
  11
 223.000
  21
 338.820
  31
0.0
   0
LINE
   8
LEVEL001
   6
CONTINUOUS
  62
7
  10
 223.000
  20
 338.820
  30
0.0
  11
 223.000
  21
 347.780
  31
0.0
   0
LINE
   8
LEVEL001
   6
CONTINUOUS
  62
7
  10
 223.000
  20
 347.780
  30
0.0
  11
 222.700
  21
 348.300
  31
0.0
   0
LINE
   8
LEVEL001
   6
CONTINUOUS
  62
7
  10
 222.700
  20
 348.300
  30
0.0
  11
 217.000
  21
 348.300
  31
0.0
   0
LINE
   8
LEVEL001
   6
DASHDOT
  62
1
  10
 226.000
  20
 343.300
  30
0.0
  11
 203.000
  21
 343.300
  31
0.0
   0
ARC
   8
LEVEL001
   6
CONTINUOUS
  62
7
  10
 234.016
  20
 232.215
  30
0.0
  40
 12.0000
  50
 184.595
  51
 234.429
   0
ARC
   8
LEVEL001
   6
CONTINUOUS
  62
7
  10
 215.983
  20
 207.000
  30
0.0
  40
 19.0000
  50
 17.5953
  51
 54.4291
   0
LINE
   8
LEVEL001
   6
CONTINUOUS
  62
7
  10
 216.060
  20
 331.302
  30
0.0
  11
 239.634
  21
 240.062
  31
0.0
   0
ARC
   8
LEVEL001
   6
CONTINUOUS
  62
7
  10
 297.727
  20
 255.071
  30
0.0
  40
 60.0000
  50
 194.487
  51
 238.083
   0
LINE
   8
LEVEL001
   6
CONTINUOUS
  62
7
  10
 145.000
  20
 356.300
  30
0.0
  11
 131.557
  21
 251.300
  31
0.0
   0
LINE
   8
LEVEL001
   6
DASHDOT
  62
1
  10
 243.500
  20
 119.800
  30
0.0
  11
 223.500
  21
 119.800
  31
0.0
   0
LINE
   8
LEVEL001
   6
DASHDOT
  62
1
  10
 470.000
  20
 390.000
  30
0.0
  11
 470.000
  21
 100.000
  31
0.0
   0
LINE
   8
LEVEL001
   6
DASHDOT
  62
1
  10
 459.000
  20
 390.000
  30
0.0
  11
 459.000
  21
 380.000
  31
0.0
   0
LINE
   8
LEVEL001
   6
DASHDOT
  62
1
  10
 448.000
  20
 390.000
  30
0.0
  11
 448.000
  21
 380.000
  31
0.0
   0
LINE
   8
LEVEL001
   6
DASHDOT
  62
1
  10
 481.000
  20
 390.000
  30
0.0
  11
 481.000
  21
 380.000
  31
0.0
   0
LINE
   8
LEVEL001
   6
DASHDOT
  62
1
  10
 492.000
  20
 390.000
  30
0.0
  11
 492.000
  21
 380.000
  31
0.0
   0
ARC
   8
LEVEL001
   6
CONTINUOUS
  62
7
  10
 499.500
  20
 383.300
  30
0.0
  40
 3.00000
  50
0.0
  51
 90.0000
   0
LINE
   8
LEVEL001
   6
CONTINUOUS
  62
7
  10
 502.500
  20
 383.300
  30
0.0
  11
 502.500
  21
 371.300
  31
0.0
   0
LINE
   8
LEVEL001
   6
CONTINUOUS
  62
7
  10
 499.500
  20
 386.300
  30
0.0
  11
 470.000
  21
 386.300
  31
0.0
   0
ARC
   8
LEVEL001
   6
CONTINUOUS
  62
7
  10
 440.500
  20
 383.300
  30
0.0
  40
 3.00000
  50
 90.0000
  51
 180.000
   0
LINE
   8
LEVEL001
   6
CONTINUOUS
  62
7
  10
 437.500
  20
 383.300
  30
0.0
  11
 437.500
  21
 371.300
  31
0.0
   0
LINE
   8
LEVEL001
   6
CONTINUOUS
  62
7
  10
 440.500
  20
 386.300
  30
0.0
  11
 470.000
  21
 386.300
  31
0.0
   0
LINE
   8
LEVEL001
   6
CONTINUOUS
  62
7
  10
 435.000
  20
 369.300
  30
0.0
  11
 435.000
  21
 356.300
  31
0.0
   0
ARC
   8
LEVEL001
   6
CONTINUOUS
  62
7
  10
 435.829
  20
 354.300
  30
0.0
  40
 2.00000
  50
 355.404
  51
 90.0006
   0
LINE
   8
LEVEL001
   6
CONTINUOUS
  62
7
  10
 437.823
  20
 354.140
  30
0.0
  11
 426.580
  21
 214.260
  31
0.0
   0
ARC
   8
LEVEL001
   6
CONTINUOUS
  62
7
  10
 437.000
  20
 369.300
  30
0.0
  40
 2.00000
  50
 90.0000
  51
 180.000
   0
ARC
   8
LEVEL001
   6
CONTINUOUS
  62
7
  10
 392.689
  20
 216.984
  30
0.0
  40
 34.0000
  50
 329.038
  51
 355.405
   0
ARC
   8
LEVEL001
   6
CONTINUOUS
  62
7
  10
 451.000
  20
 182.000
  30
0.0
  40
 34.0000
  50
 149.038
  51
 180.000
   0
LINE
   8
LEVEL001
   6
CONTINUOUS
  62
7
  10
 410.000
  20
 114.300
  30
0.0
  11
 410.000
  21
 125.300
  31
0.0
   0
LINE
   8
LEVEL001
   6
CONTINUOUS
  62
7
  10
 415.000
  20
 135.300
  30
0.0
  11
 415.000
  21
 125.300
  31
0.0
   0
LINE
   8
LEVEL001
   6
CONTINUOUS
  62
7
  10
 417.000
  20
 182.000
  30
0.0
  11
 417.000
  21
 135.300
  31
0.0
   0
ARC
   8
LEVEL001
   6
CONTINUOUS
  62
7
  10
 418.000
  20
 108.300
  30
0.0
  40
 2.00000
  50
 180.000
  51
 270.000
   0
LINE
   8
LEVEL001
   6
CONTINUOUS
  62
7
  10
 416.000
  20
 114.300
  30
0.0
  11
 416.000
  21
 108.300
  31
0.0
   0
LINE
   8
LEVEL001
   6
CONTINUOUS
  62
7
  10
 418.000
  20
 106.300
  30
0.0
  11
 470.000
  21
 106.300
  31
0.0
   0
LINE
   8
LEVEL001
   6
DASHDOT
  62
1
  10
 431.000
  20
 110.050
  30
0.0
  11
 431.000
  21
 105.550
  31
0.0
   0
LINE
   8
LEVEL001
   6
DASHDOT
  62
1
  10
 444.000
  20
 110.050
  30
0.0
  11
 444.000
  21
 105.550
  31
0.0
   0
LINE
   8
LEVEL001
   6
DASHDOT
  62
1
  10
 457.000
  20
 110.050
  30
0.0
  11
 457.000
  21
 105.550
  31
0.0
   0
LINE
   8
LEVEL001
   6
CONTINUOUS
  62
7
  10
 453.000
  20
 114.300
  30
0.0
  11
 410.000
  21
 114.300
  31
0.0
   0
LINE
   8
LEVEL001
   6
CONTINUOUS
  62
7
  10
 420.379
  20
 127.300
  30
0.0
  11
 420.379
  21
 114.300
  31
0.0
   0
LINE
   8
LEVEL001
   6
CONTINUOUS
  62
7
  10
 530.000
  20
 114.300
  30
0.0
  11
 530.000
  21
 125.300
  31
0.0
   0
LINE
   8
LEVEL001
   6
CONTINUOUS
  62
7
  10
 525.000
  20
 135.300
  30
0.0
  11
 525.000
  21
 125.300
  31
0.0
   0
ARC
   8
LEVEL001
   6
CONTINUOUS
  62
7
  10
 522.000
  20
 108.300
  30
0.0
  40
 2.00000
  50
 270.000
  51
0.0
   0
LINE
   8
LEVEL001
   6
CONTINUOUS
  62
7
  10
 524.000
  20
 114.300
  30
0.0
  11
 524.000
  21
 108.300
  31
0.0
   0
LINE
   8
LEVEL001
   6
CONTINUOUS
  62
7
  10
 522.000
  20
 106.300
  30
0.0
  11
 470.000
  21
 106.300
  31
0.0
   0
LINE
   8
LEVEL001
   6
CONTINUOUS
  62
7
  10
 519.621
  20
 127.300
  30
0.0
  11
 519.621
  21
 114.300
  31
0.0
   0
LINE
   8
LEVEL001
   6
DASHDOT
  62
1
  10
 509.000
  20
 110.050
  30
0.0
  11
 509.000
  21
 105.550
  31
0.0
   0
LINE
   8
LEVEL001
   6
DASHDOT
  62
1
  10
 496.000
  20
 110.050
  30
0.0
  11
 496.000
  21
 105.550
  31
0.0
   0
LINE
   8
LEVEL001
   6
DASHDOT
  62
1
  10
 483.000
  20
 110.050
  30
0.0
  11
 483.000
  21
 105.550
  31
0.0
   0
ARC
   8
LEVEL001
   6
CONTINUOUS
  62
7
  10
 489.000
  20
 182.000
  30
0.0
  40
 34.0000
  50
 0.509810E-4
  51
 30.9619
   0
LINE
   8
LEVEL001
   6
CONTINUOUS
  62
7
  10
 518.443
  20
 251.300
  30
0.0
  11
 522.924
  21
 184.268
  31
0.0
   0
LINE
   8
LEVEL001
   6
CONTINUOUS
  62
7
  10
 505.000
  20
 356.300
  30
0.0
  11
 518.443
  21
 251.300
  31
0.0
   0
ARC
   8
LEVEL001
   6
CONTINUOUS
  62
7
  10
 547.311
  20
 216.984
  30
0.0
  40
 34.0000
  50
 184.595
  51
 210.962
   0
LINE
   8
LEVEL001
   6
CONTINUOUS
  62
7
  10
 505.000
  20
 369.300
  30
0.0
  11
 505.000
  21
 356.300
  31
0.0
   0
ARC
   8
LEVEL001
   6
CONTINUOUS
  62
7
  10
 504.171
  20
 354.300
  30
0.0
  40
 2.00000
  50
 89.9994
  51
 184.596
   0
ARC
   8
LEVEL001
   6
CONTINUOUS
  62
7
  10
 503.000
  20
 369.300
  30
0.0
  40
 2.00000
  50
0.0
  51
 90.0000
   0
LINE
   8
LEVEL001
   6
CONTINUOUS
  62
7
  10
 495.000
  20
 114.300
  30
0.0
  11
 530.000
  21
 114.300
  31
0.0
   0
LINE
   8
LEVEL001
   6
CONTINUOUS
  62
7
  10
 523.000
  20
 182.000
  30
0.0
  11
 523.000
  21
 171.750
  31
0.0
   0
LINE
   8
LEVEL001
   6
CONTINUOUS
  62
7
  10
 523.000
  20
 147.250
  30
0.0
  11
 523.000
  21
 135.300
  31
0.0
   0
LINE
   8
LEVEL001
   6
CONTINUOUS
  62
7
  10
 470.000
  20
 371.300
  30
0.0
  11
 503.000
  21
 371.300
  31
0.0
   0
LINE
   8
LEVEL001
   6
CONTINUOUS
  62
7
  10
 470.000
  20
 371.300
  30
0.0
  11
 437.000
  21
 371.300
  31
0.0
   0
LINE
   8
LEVEL001
   6
CONTINUOUS
  62
7
  10
 470.000
  20
 362.187
  30
0.0
  11
 472.500
  21
 360.743
  31
0.0
   0
LINE
   8
LEVEL001
   6
CONTINUOUS
  62
7
  10
 472.500
  20
 360.743
  30
0.0
  11
 472.500
  21
 357.857
  31
0.0
   0
LINE
   8
LEVEL001
   6
CONTINUOUS
  62
7
  10
 472.500
  20
 357.857
  30
0.0
  11
 470.000
  21
 356.413
  31
0.0
   0
LINE
   8
LEVEL001
   6
CONTINUOUS
  62
7
  10
 470.000
  20
 356.413
  30
0.0
  11
 467.500
  21
 357.857
  31
0.0
   0
LINE
   8
LEVEL001
   6
CONTINUOUS
  62
7
  10
 467.500
  20
 357.857
  30
0.0
  11
 467.500
  21
 360.743
  31
0.0
   0
LINE
   8
LEVEL001
   6
CONTINUOUS
  62
7
  10
 467.500
  20
 360.743
  30
0.0
  11
 470.000
  21
 362.187
  31
0.0
   0
CIRCLE
   8
LEVEL001
   6
CONTINUOUS
  62
7
  10
 470.000
  20
 359.300
  30
0.0
  40
 5.00000
   0
CIRCLE
   8
LEVEL001
   6
CONTINUOUS
  62
7
  10
 470.000
  20
 359.300
  30
0.0
  40
 4.48038
   0
LINE
   8
LEVEL001
   6
DASHDOT
  62
1
  10
 478.000
  20
 359.300
  30
0.0
  11
 462.000
  21
 359.300
  31
0.0
   0
LINE
   8
LEVEL001
   6
CONTINUOUS
  62
7
  10
 470.000
  20
 346.187
  30
0.0
  11
 472.500
  21
 344.743
  31
0.0
   0
LINE
   8
LEVEL001
   6
CONTINUOUS
  62
7
  10
 472.500
  20
 344.743
  30
0.0
  11
 472.500
  21
 341.857
  31
0.0
   0
LINE
   8
LEVEL001
   6
CONTINUOUS
  62
7
  10
 472.500
  20
 341.857
  30
0.0
  11
 470.000
  21
 340.413
  31
0.0
   0
LINE
   8
LEVEL001
   6
CONTINUOUS
  62
7
  10
 470.000
  20
 340.413
  30
0.0
  11
 467.500
  21
 341.857
  31
0.0
   0
LINE
   8
LEVEL001
   6
CONTINUOUS
  62
7
  10
 467.500
  20
 341.857
  30
0.0
  11
 467.500
  21
 344.743
  31
0.0
   0
LINE
   8
LEVEL001
   6
CONTINUOUS
  62
7
  10
 467.500
  20
 344.743
  30
0.0
  11
 470.000
  21
 346.187
  31
0.0
   0
CIRCLE
   8
LEVEL001
   6
CONTINUOUS
  62
7
  10
 470.000
  20
 343.300
  30
0.0
  40
 5.00000
   0
CIRCLE
   8
LEVEL001
   6
CONTINUOUS
  62
7
  10
 470.000
  20
 343.300
  30
0.0
  40
 4.48038
   0
LINE
   8
LEVEL001
   6
DASHDOT
  62
1
  10
 478.000
  20
 343.300
  30
0.0
  11
 462.000
  21
 343.300
  31
0.0
   0
LINE
   8
LEVEL001
   6
CONTINUOUS
  62
7
  10
 460.000
  20
 369.300
  30
0.0
  11
 470.000
  21
 369.300
  31
0.0
   0
ARC
   8
LEVEL001
   6
CONTINUOUS
  62
7
  10
 462.000
  20
 333.300
  30
0.0
  40
 2.00000
  50
 180.000
  51
 270.000
   0
LINE
   8
LEVEL001
   6
CONTINUOUS
  62
7
  10
 460.000
  20
 369.300
  30
0.0
  11
 460.000
  21
 333.300
  31
0.0
   0
LINE
   8
LEVEL001
   6
CONTINUOUS
  62
7
  10
 462.000
  20
 331.300
  30
0.0
  11
 470.000
  21
 331.300
  31
0.0
   0
ARC
   8
LEVEL001
   6
CONTINUOUS
  62
7
  10
 458.000
  20
 354.300
  30
0.0
  40
 2.00000
  50
0.0
  51
 90.0000
   0
LINE
   8
LEVEL001
   6
CONTINUOUS
  62
7
  10
 435.000
  20
 356.300
  30
0.0
  11
 458.000
  21
 356.300
  31
0.0
   0
ARC
   8
LEVEL001
   6
CONTINUOUS
  62
7
  10
 478.000
  20
 333.300
  30
0.0
  40
 2.00000
  50
 270.000
  51
0.0
   0
LINE
   8
LEVEL001
   6
CONTINUOUS
  62
7
  10
 480.000
  20
 369.300
  30
0.0
  11
 480.000
  21
 333.300
  31
0.0
   0
LINE
   8
LEVEL001
   6
CONTINUOUS
  62
7
  10
 478.000
  20
 331.300
  30
0.0
  11
 470.000
  21
 331.300
  31
0.0
   0
LINE
   8
LEVEL001
   6
CONTINUOUS
  62
7
  10
 480.000
  20
 369.300
  30
0.0
  11
 470.000
  21
 369.300
  31
0.0
   0
ARC
   8
LEVEL001
   6
CONTINUOUS
  62
7
  10
 482.000
  20
 354.300
  30
0.0
  40
 2.00000
  50
 90.0000
  51
 180.000
   0
LINE
   8
LEVEL001
   6
CONTINUOUS
  62
7
  10
 505.000
  20
 356.300
  30
0.0
  11
 482.000
  21
 356.300
  31
0.0
   0
ARC
   8
LEVEL001
   6
CONTINUOUS
  62
7
  10
 465.500
  20
 329.300
  30
0.0
  40
 2.00000
  50
0.0
  51
 90.0000
   0
ARC
   8
LEVEL001
   6
CONTINUOUS
  62
7
  10
 465.500
  20
 217.527
  30
0.0
  40
 2.00000
  50
 277.219
  51
 0.391421E-3
   0
ARC
   8
LEVEL001
   6
CONTINUOUS
  62
7
  10
 470.000
  20
 182.000
  30
0.0
  40
 33.8112
  50
 97.2188
  51
 183.106
   0
LINE
   8
LEVEL001
   6
CONTINUOUS
  62
7
  10
 467.500
  20
 329.300
  30
0.0
  11
 467.500
  21
 208.281
  31
0.0
   0
ARC
   8
LEVEL001
   6
CONTINUOUS
  62
7
  10
 474.500
  20
 217.527
  30
0.0
  40
 2.00000
  50
 180.000
  51
 262.781
   0
ARC
   8
LEVEL001
   6
CONTINUOUS
  62
7
  10
 470.000
  20
 182.000
  30
0.0
  40
 33.8112
  50
 356.894
  51
 82.7812
   0
LINE
   8
LEVEL001
   6
CONTINUOUS
  62
7
  10
 472.500
  20
 329.300
  30
0.0
  11
 472.500
  21
 208.281
  31
0.0
   0
ARC
   8
LEVEL001
   6
CONTINUOUS
  62
7
  10
 474.500
  20
 329.300
  30
0.0
  40
 2.00000
  50
 90.0000
  51
 180.000
   0
ARC
   8
LEVEL001
   6
CONTINUOUS
  62
7
  10
 414.348
  20
 249.300
  30
0.0
  40
 15.0000
  50
 355.405
  51
 150.928
   0
ARC
   8
LEVEL001
   6
CONTINUOUS
  62
7
  10
 402.054
  20
 184.300
  30
0.0
  40
 15.0000
  50
 187.651
  51
 357.309
   0
ARC
   8
LEVEL001
   6
CONTINUOUS
  62
7
  10
 403.308
  20
 184.354
  30
0.0
  40
 13.7500
  50
 187.713
  51
 357.175
   0
ARC
   8
LEVEL001
   6
CONTINUOUS
  62
7
  10
 506.119
  20
 198.280
  30
0.0
  40
 120.000
  50
 150.928
  51
 187.651
   0
ARC
   8
LEVEL001
   6
CONTINUOUS
  62
7
  10
 415.572
  20
 248.929
  30
0.0
  40
 13.7500
  50
 355.404
  51
 150.779
   0
ARC
   8
LEVEL001
   6
CONTINUOUS
  62
7
  10
 506.119
  20
 198.280
  30
0.0
  40
 117.500
  50
 150.779
  51
 187.714
   0
ARC
   8
LEVEL001
   6
CONTINUOUS
  62
7
  10
 506.119
  20
 198.280
  30
0.0
  40
 134.000
  50
 150.928
  51
 187.651
   0
ARC
   8
LEVEL001
   6
CONTINUOUS
  62
7
  10
 506.119
  20
 198.280
  30
0.0
  40
 125.000
  50
 150.928
  51
 187.651
   0
ARC
   8
LEVEL001
   6
CONTINUOUS
  62
7
  10
 417.950
  20
 286.124
  30
0.0
  40
 8.00000
  50
 264.413
  51
 352.704
   0
LINE
   8
LEVEL001
   6
CONTINUOUS
  62
7
  10
 435.000
  20
 356.300
  30
0.0
  11
 425.885
  21
 285.108
  31
0.0
   0
ARC
   8
LEVEL001
   6
CONTINUOUS
  62
7
  10
 414.348
  20
 249.300
  30
0.0
  40
 29.0000
  50
 84.4129
  51
 150.928
   0
ARC
   8
LEVEL001
   6
CONTINUOUS
  62
7
  10
 426.152
  20
 271.338
  30
0.0
  40
 5.00000
  50
 241.827
  51
 355.405
   0
ARC
   8
LEVEL001
   6
CONTINUOUS
  62
7
  10
 409.000
  20
 147.958
  30
0.0
  40
 8.00000
  50
0.0
  51
 100.820
   0
ARC
   8
LEVEL001
   6
CONTINUOUS
  62
7
  10
 412.000
  20
 161.364
  30
0.0
  40
 5.00000
  50
 0.119739E-3
  51
 113.443
   0
ARC
   8
LEVEL001
   6
CONTINUOUS
  62
7
  10
 402.054
  20
 184.300
  30
0.0
  40
 20.0000
  50
 187.651
  51
 293.443
   0
ARC
   8
LEVEL001
   6
CONTINUOUS
  62
7
  10
 402.054
  20
 184.300
  30
0.0
  40
 29.0000
  50
 187.651
  51
 280.820
   0
ARC
   8
LEVEL001
   6
CONTINUOUS
  62
7
  10
 414.348
  20
 249.300
  30
0.0
  40
 20.0000
  50
 61.8266
  51
 150.928
   0
LINE
   8
LEVEL003
   6
CONTINUOUS
  62
3
  10
 126.000
  20
 106.300
  30
0.0
  11
 126.000
  21
 76.0000
  31
0.0
   0
LINE
   8
LEVEL003
   6
CONTINUOUS
  62
3
  10
 234.000
  20
 106.300
  30
0.0
  11
 234.000
  21
 76.0000
  31
0.0
   0
LINE
   8
LEVEL003
   6
CONTINUOUS
  62
3
  10
 126.000
  20
 80.0000
  30
0.0
  11
 234.000
  21
 80.0000
  31
0.0
   0
LINE
   8
LEVEL003
   6
CONTINUOUS
  62
3
  10
 132.000
  20
 79.0000
  30
0.0
  11
 126.000
  21
 80.0000
  31
0.0
   0
LINE
   8
LEVEL003
   6
CONTINUOUS
  62
3
  10
 126.000
  20
 80.0000
  30
0.0
  11
 132.000
  21
 81.0000
  31
0.0
   0
LINE
   8
LEVEL003
   6
CONTINUOUS
  62
3
  10
 126.000
  20
 80.0000
  30
0.0
  11
 132.000
  21
 80.0000
  31
0.0
   0
LINE
   8
LEVEL003
   6
CONTINUOUS
  62
3
  10
 228.000
  20
 81.0000
  30
0.0
  11
 234.000
  21
 80.0000
  31
0.0
   0
LINE
   8
LEVEL003
   6
CONTINUOUS
  62
3
  10
 234.000
  20
 80.0000
  30
0.0
  11
 228.000
  21
 79.0000
  31
0.0
   0
LINE
   8
LEVEL003
   6
CONTINUOUS
  62
3
  10
 234.000
  20
 80.0000
  30
0.0
  11
 228.000
  21
 80.0000
  31
0.0
   0
TEXT
   8
LEVEL003
  62
3
  10
 170.000
  20
 76.2667
  30
0.0
  40
 8.00000
   1
%%c108
   7
STANDARD
  72
1
  11
 180.000
  21
 81.6000
  31
0.0
  73
2
   0
LINE
   8
LEVEL003
   6
CONTINUOUS
  62
3
  10
 147.500
  20
 385.300
  30
0.0
  11
 147.500
  21
 414.000
  31
0.0
   0
LINE
   8
LEVEL003
   6
CONTINUOUS
  62
3
  10
 212.500
  20
 385.300
  30
0.0
  11
 212.500
  21
 414.000
  31
0.0
   0
LINE
   8
LEVEL003
   6
CONTINUOUS
  62
3
  10
 147.500
  20
 410.000
  30
0.0
  11
 212.500
  21
 410.000
  31
0.0
   0
LINE
   8
LEVEL003
   6
CONTINUOUS
  62
3
  10
 153.500
  20
 409.000
  30
0.0
  11
 147.500
  21
 410.000
  31
0.0
   0
LINE
   8
LEVEL003
   6
CONTINUOUS
  62
3
  10
 147.500
  20
 410.000
  30
0.0
  11
 153.500
  21
 411.000
  31
0.0
   0
LINE
   8
LEVEL003
   6
CONTINUOUS
  62
3
  10
 147.500
  20
 410.000
  30
0.0
  11
 153.500
  21
 410.000
  31
0.0
   0
LINE
   8
LEVEL003
   6
CONTINUOUS
  62
3
  10
 206.500
  20
 411.000
  30
0.0
  11
 212.500
  21
 410.000
  31
0.0
   0
LINE
   8
LEVEL003
   6
CONTINUOUS
  62
3
  10
 212.500
  20
 410.000
  30
0.0
  11
 206.500
  21
 409.000
  31
0.0
   0
LINE
   8
LEVEL003
   6
CONTINUOUS
  62
3
  10
 212.500
  20
 410.000
  30
0.0
  11
 206.500
  21
 410.000
  31
0.0
   0
TEXT
   8
LEVEL003
  62
3
  10
 172.000
  20
 406.267
  30
0.0
  40
 8.00000
   1
%%c65
   7
STANDARD
  72
1
  11
 180.000
  21
 411.600
  31
0.0
  73
2
   0
ARC
   8
LEVEL003
   6
CONTINUOUS
  62
7
  10
 502.708
  20
 186.381
  30
0.0
  40
 8.00000
  50
 187.629
  51
 266.264
   0
ARC
   8
LEVEL003
   6
CONTINUOUS
  62
7
  10
 437.292
  20
 186.381
  30
0.0
  40
 8.00000
  50
 273.736
  51
 352.371
   0
ARC
   8
LEVEL003
   6
CONTINUOUS
  62
7
  10
 470.000
  20
 182.000
  30
0.0
  40
 25.0000
  50
 7.62900
  51
 172.371
   0
ARC
   8
LEVEL003
   6
CONTINUOUS
  62
7
  10
 432.437
  20
 137.300
  30
0.0
  40
 5.00000
  50
 19.0523
  51
 90.0000
   0
LINE
   8
LEVEL003
   6
CONTINUOUS
  62
7
  10
 437.163
  20
 138.932
  30
0.0
  11
 441.548
  21
 126.236
  31
0.0
   0
ARC
   8
LEVEL003
   6
CONTINUOUS
  62
7
  10
 496.000
  20
 139.300
  30
0.0
  40
 3.00000
  50
 90.0000
  51
 180.000
   0
ARC
   8
LEVEL003
   6
CONTINUOUS
  62
7
  10
 422.000
  20
 143.300
  30
0.0
  40
 1.00000
  50
 180.000
  51
 270.000
   0
LINE
   8
LEVEL003
   6
CONTINUOUS
  62
7
  10
 421.000
  20
 176.363
  30
0.0
  11
 421.000
  21
 143.300
  31
0.0
   0
ARC
   8
LEVEL003
   6
CONTINUOUS
  62
7
  10
 422.000
  20
 176.363
  30
0.0
  40
 1.00000
  50
 93.7365
  51
 180.000
   0
ARC
   8
LEVEL003
   6
CONTINUOUS
  62
7
  10
 518.000
  20
 176.363
  30
0.0
  40
 1.00000
  50
 0.814222E-10
  51
 86.2635
   0
LINE
   8
LEVEL003
   6
CONTINUOUS
  62
7
  10
 519.000
  20
 176.363
  30
0.0
  11
 519.000
  21
 143.300
  31
0.0
   0
ARC
   8
LEVEL003
   6
CONTINUOUS
  62
7
  10
 518.000
  20
 143.300
  30
0.0
  40
 1.00000
  50
 270.000
  51
 0.716515E-9
   0
LINE
   8
LEVEL003
   6
CONTINUOUS
  62
7
  10
 496.000
  20
 142.300
  30
0.0
  11
 518.000
  21
 142.300
  31
0.0
   0
ARC
   8
LEVEL003
   6
CONTINUOUS
  62
7
  10
 448.000
  20
 114.803
  30
0.0
  40
 5.00000
  50
0.0
  51
 78.4630
   0
ARC
   8
LEVEL003
   6
CONTINUOUS
  62
7
  10
 451.000
  20
 129.500
  30
0.0
  40
 10.0000
  50
 199.052
  51
 258.463
   0
LINE
   8
LEVEL003
   6
CONTINUOUS
  62
7
  10
 453.000
  20
 112.603
  30
0.0
  11
 453.000
  21
 114.803
  31
0.0
   0
ARC
   8
LEVEL003
   6
CONTINUOUS
  62
7
  10
 455.000
  20
 112.603
  30
0.0
  40
 2.00000
  50
 180.000
  51
 257.803
   0
ARC
   8
LEVEL003
   6
CONTINUOUS
  62
7
  10
 493.000
  20
 114.829
  30
0.0
  40
 2.00000
  50
 288.902
  51
 0.484462E-10
   0
ARC
   8
LEVEL003
   6
CONTINUOUS
  62
7
  10
 470.000
  20
 182.000
  30
0.0
  40
 73.0000
  50
 257.803
  51
 288.902
   0
LINE
   8
LEVEL003
   6
DASHDOT
  62
1
  10
 474.000
  20
 149.500
  30
0.0
  11
 474.000
  21
 104.500
  31
0.0
   0
LINE
   8
LEVEL003
   6
CONTINUOUS
  62
7
  10
 495.000
  20
 118.918
  30
0.0
  11
 495.000
  21
 114.829
  31
0.0
   0
LINE
   8
LEVEL003
   6
CONTINUOUS
  62
7
  10
 493.000
  20
 122.382
  30
0.0
  11
 493.000
  21
 139.300
  31
0.0
   0
ARC
   8
LEVEL003
   6
CONTINUOUS
  62
7
  10
 495.000
  20
 122.382
  30
0.0
  40
 2.00000
  50
 180.000
  51
 240.000
   0
ARC
   8
LEVEL003
   6
CONTINUOUS
  62
7
  10
 493.000
  20
 118.918
  30
0.0
  40
 2.00000
  50
0.0
  51
 60.0000
   0
ARC
   8
LEVEL003
   6
CONTINUOUS
  62
7
  10
 523.899
  20
 112.867
  30
0.0
  40
 30.0000
  50
 101.334
  51
 166.424
   0
LINE
   8
LEVEL003
   6
CONTINUOUS
  62
7
  10
 502.187
  20
 178.398
  30
0.0
  11
 518.065
  21
 177.361
  31
0.0
   0
LINE
   8
LEVEL003
   6
CONTINUOUS
  62
7
  10
 421.935
  20
 177.361
  30
0.0
  11
 437.813
  21
 178.398
  31
0.0
   0
CIRCLE
   8
LEVEL003
   6
CONTINUOUS
  62
7
  10
 474.000
  20
 127.000
  30
0.0
  40
 5.00000
   0
LINE
   8
LEVEL003
   6
DASHDOT
  62
1
  10
 463.000
  20
 127.000
  30
0.0
  11
 485.000
  21
 127.000
  31
0.0
   0
CIRCLE
   8
LEVEL003
   6
CONTINUOUS
  62
7
  10
 474.000
  20
 127.000
  30
0.0
  40
 5.70146
   0
ARC
   8
LEVEL003
   6
CONTINUOUS
  62
7
  10
 462.000
  20
 127.060
  30
0.0
  40
 2.00000
  50
 359.714
  51
 123.763
   0
ARC
   8
LEVEL003
   6
CONTINUOUS
  62
7
  10
 474.000
  20
 127.000
  30
0.0
  40
 10.0000
  50
 179.714
  51
 0.285782
   0
ARC
   8
LEVEL003
   6
CONTINUOUS
  62
7
  10
 486.000
  20
 127.060
  30
0.0
  40
 2.00000
  50
 56.2369
  51
 180.286
   0
ARC
   8
LEVEL003
   6
CONTINUOUS
  62
7
  10
 474.000
  20
 109.110
  30
0.0
  40
 23.5918
  50
 56.2369
  51
 123.763
   0
CIRCLE
   8
LEVEL003
   6
CONTINUOUS
  62
7
  10
 470.000
  20
 182.000
  30
0.0
  40
 8.50000
   0
CIRCLE
   8
LEVEL003
   6
CONTINUOUS
  62
7
  10
 470.000
  20
 182.000
  30
0.0
  40
 17.5000
   0
ARC
   8
LEVEL003
   6
CONTINUOUS
  62
7
  10
 463.000
  20
 139.500
  30
0.0
  40
 3.00000
  50
 180.000
  51
 270.000
   0
LINE
   8
LEVEL003
   6
CONTINUOUS
  62
7
  10
 463.000
  20
 136.500
  30
0.0
  11
 485.000
  21
 136.500
  31
0.0
   0
ARC
   8
LEVEL003
   6
CONTINUOUS
  62
7
  10
 485.000
  20
 139.500
  30
0.0
  40
 3.00000
  50
 270.000
  51
 0.347401E-10
   0
ARC
   8
LEVEL003
   6
CONTINUOUS
  62
7
  10
 490.000
  20
 149.700
  30
0.0
  40
 2.00000
  50
 90.0000
  51
 180.000
   0
LINE
   8
LEVEL003
   6
CONTINUOUS
  62
7
  10
 488.000
  20
 139.500
  30
0.0
  11
 488.000
  21
 149.700
  31
0.0
   0
LINE
   8
LEVEL003
   6
CONTINUOUS
  62
7
  10
 489.353
  20
 149.156
  30
0.0
  11
 493.000
  21
 142.300
  31
0.0
   0
CIRCLE
   8
0
   6
CONTINUOUS
  62
7
  10
 476.523
  20
 142.540
  30
0.0
  40
 3.33333
   0
LINE
   8
0
   6
CONTINUOUS
  62
7
  10
 469.980
  20
 139.206
  30
0.0
  11
 474.214
  21
 146.540
  31
0.0
   0
LINE
   8
0
   6
CONTINUOUS
  62
7
  10
 474.214
  20
 146.540
  30
0.0
  11
 482.682
  21
 146.540
  31
0.0
   0
LINE
   8
0
   6
CONTINUOUS
  62
7
  10
 482.682
  20
 146.540
  30
0.0
  11
 483.644
  21
 148.206
  31
0.0
   0
LINE
   8
0
   6
CONTINUOUS
  62
7
  10
 483.644
  20
 148.206
  30
0.0
  11
 468.510
  21
 148.206
  31
0.0
   0
LINE
   8
0
   6
CONTINUOUS
  62
7
  10
 468.510
  20
 148.206
  30
0.0
  11
 463.314
  21
 139.206
  31
0.0
   0
LINE
   8
0
   6
CONTINUOUS
  62
7
  10
 463.314
  20
 139.206
  30
0.0
  11
 469.980
  21
 139.206
  31
0.0
   0
ARC
   8
LEVEL003
   6
CONTINUOUS
  62
7
  10
 470.000
  20
 182.000
  30
0.0
  40
 66.0000
  50
 255.803
  51
 290.091
   0
LINE
   8
LEVEL003
   6
CONTINUOUS
  62
7
  10
 475.000
  20
 159.500
  30
0.0
  11
 477.000
  21
 161.500
  31
0.0
   0
LINE
   8
LEVEL003
   6
CONTINUOUS
  62
7
  10
 477.000
  20
 161.500
  30
0.0
  11
 477.000
  21
 160.500
  31
0.0
   0
LINE
   8
LEVEL003
   6
CONTINUOUS
  62
7
  10
 477.000
  20
 160.500
  30
0.0
  11
 484.000
  21
 160.500
  31
0.0
   0
LINE
   8
LEVEL003
   6
CONTINUOUS
  62
7
  10
 484.000
  20
 160.500
  30
0.0
  11
 484.000
  21
 158.500
  31
0.0
   0
LINE
   8
LEVEL003
   6
CONTINUOUS
  62
7
  10
 484.000
  20
 158.500
  30
0.0
  11
 477.000
  21
 158.500
  31
0.0
   0
LINE
   8
LEVEL003
   6
CONTINUOUS
  62
7
  10
 477.000
  20
 158.500
  30
0.0
  11
 477.000
  21
 157.500
  31
0.0
   0
LINE
   8
LEVEL003
   6
CONTINUOUS
  62
7
  10
 477.000
  20
 157.500
  30
0.0
  11
 475.000
  21
 159.500
  31
0.0
   0
LINE
   8
LEVEL003
   6
CONTINUOUS
  62
7
  10
 453.000
  20
 159.500
  30
0.0
  11
 451.000
  21
 161.500
  31
0.0
   0
LINE
   8
LEVEL003
   6
CONTINUOUS
  62
7
  10
 451.000
  20
 161.500
  30
0.0
  11
 451.000
  21
 160.500
  31
0.0
   0
LINE
   8
LEVEL003
   6
CONTINUOUS
  62
7
  10
 451.000
  20
 160.500
  30
0.0
  11
 444.000
  21
 160.500
  31
0.0
   0
LINE
   8
LEVEL003
   6
CONTINUOUS
  62
7
  10
 444.000
  20
 160.500
  30
0.0
  11
 444.000
  21
 158.500
  31
0.0
   0
LINE
   8
LEVEL003
   6
CONTINUOUS
  62
7
  10
 444.000
  20
 158.500
  30
0.0
  11
 451.000
  21
 158.500
  31
0.0
   0
LINE
   8
LEVEL003
   6
CONTINUOUS
  62
7
  10
 451.000
  20
 158.500
  30
0.0
  11
 451.000
  21
 157.500
  31
0.0
   0
LINE
   8
LEVEL003
   6
CONTINUOUS
  62
7
  10
 451.000
  20
 157.500
  30
0.0
  11
 453.000
  21
 159.500
  31
0.0
   0
LINE
   8
LEVEL003
   6
CONTINUOUS
  62
7
  10
 536.500
  20
 157.500
  30
0.0
  11
 535.500
  21
 157.500
  31
0.0
   0
LINE
   8
LEVEL003
   6
CONTINUOUS
  62
7
  10
 536.500
  20
 157.500
  30
0.0
  11
 536.500
  21
 149.500
  31
0.0
   0
LINE
   8
LEVEL003
   6
CONTINUOUS
  62
7
  10
 535.500
  20
 149.500
  30
0.0
  11
 536.500
  21
 149.500
  31
0.0
   0
LINE
   8
LEVEL003
   6
DASHDOT
  62
1
  10
 530.693
  20
 153.500
  30
0.0
  11
 539.074
  21
 153.500
  31
0.0
   0
LINE
   8
LEVEL003
   6
CONTINUOUS
  62
7
  10
 420.500
  20
 157.500
  30
0.0
  11
 420.500
  21
 149.500
  31
0.0
   0
LINE
   8
LEVEL003
   6
DASHDOT
  62
1
  10
 426.307
  20
 153.500
  30
0.0
  11
 417.926
  21
 153.500
  31
0.0
   0
LINE
   8
LEVEL003
   6
CONTINUOUS
  62
7
  10
 420.500
  20
 157.500
  30
0.0
  11
 421.000
  21
 157.500
  31
0.0
   0
LINE
   8
LEVEL003
   6
CONTINUOUS
  62
7
  10
 421.000
  20
 149.500
  30
0.0
  11
 420.500
  21
 149.500
  31
0.0
   0
LINE
   8
LEVEL003
   6
CONTINUOUS
  62
7
  10
 519.000
  20
 171.750
  30
0.0
  11
 535.500
  21
 171.750
  31
0.0
   0
LINE
   8
LEVEL003
   6
CONTINUOUS
  62
7
  10
 519.000
  20
 147.250
  30
0.0
  11
 535.500
  21
 147.250
  31
0.0
   0
LINE
   8
LEVEL003
   6
CONTINUOUS
  62
7
  10
 535.500
  20
 171.750
  30
0.0
  11
 535.500
  21
 147.250
  31
0.0
   0
LINE
   8
LEVEL003
   6
DASHDOT
  62
1
  10
 415.386
  20
 159.500
  30
0.0
  11
 538.210
  21
 159.500
  31
0.0
   0
LINE
   8
LEVEL003
   6
CONTINUOUS
  62
7
  10
 422.591
  20
 177.404
  30
0.0
  11
 422.500
  21
 178.801
  31
0.0
   0
LINE
   8
LEVEL003
   6
CONTINUOUS
  62
7
  10
 517.409
  20
 177.404
  30
0.0
  11
 517.500
  21
 178.801
  31
0.0
   0
LINE
   8
LEVEL003
   6
CONTINUOUS
  62
7
  10
 502.278
  20
 179.795
  30
0.0
  11
 517.500
  21
 178.801
  31
0.0
   0
ARC
   8
LEVEL003
   6
CONTINUOUS
  62
7
  10
 502.708
  20
 186.381
  30
0.0
  40
 6.60000
  50
 187.629
  51
 266.264
   0
LINE
   8
LEVEL003
   6
CONTINUOUS
  62
7
  10
 422.500
  20
 178.801
  30
0.0
  11
 437.722
  21
 179.795
  31
0.0
   0
ARC
   8
LEVEL003
   6
CONTINUOUS
  62
7
  10
 437.292
  20
 186.381
  30
0.0
  40
 6.60000
  50
 273.736
  51
 352.371
   0
ARC
   8
LEVEL003
   6
CONTINUOUS
  62
7
  10
 470.000
  20
 182.000
  30
0.0
  40
 26.4000
  50
 7.62900
  51
 172.371
   0
LINE
   8
LEVEL003
   6
DASHDOT
  62
1
  10
 429.220
  20
 183.538
  30
0.0
  11
 429.894
  21
 173.225
  31
0.0
   0
LINE
   8
LEVEL003
   6
DASHDOT
  62
1
  10
 510.780
  20
 183.538
  30
0.0
  11
 510.106
  21
 173.225
  31
0.0
   0
ARC
   8
LEVEL003
   6
CONTINUOUS
  62
7
  10
 428.011
  20
 179.034
  30
0.0
  40
 3.00000
  50
 132.419
  51
 181.320
   0
ARC
   8
LEVEL003
   6
CONTINUOUS
  62
7
  10
 429.630
  20
 177.262
  30
0.0
  40
 5.40000
  50
 55.0543
  51
 132.419
   0
ARC
   8
LEVEL003
   6
CONTINUOUS
  62
7
  10
 431.005
  20
 179.230
  30
0.0
  40
 3.00000
  50
 6.15316
  51
 55.0543
   0
ARC
   8
LEVEL003
   6
CONTINUOUS
  62
7
  10
 510.370
  20
 177.262
  30
0.0
  40
 5.40000
  50
 47.5814
  51
 124.946
   0
ARC
   8
LEVEL003
   6
CONTINUOUS
  62
7
  10
 508.995
  20
 179.230
  30
0.0
  40
 3.00000
  50
 124.946
  51
 173.847
   0
ARC
   8
LEVEL003
   6
CONTINUOUS
  62
7
  10
 511.989
  20
 179.034
  30
0.0
  40
 3.00000
  50
 358.680
  51
 47.5814
   0
TEXT
   8
LEVEL003
  62
7
  10
 515.368
  20
 163.702
  30
0.0
  40
 8.00000
   1
ＤＯＷＮ
  50
 180.000
  41
 0.875000
   7
STANDARD
   0
TEXT
   8
LEVEL003
  62
7
  10
 440.342
  20
 163.702
  30
0.0
  40
 8.00000
   1
ＵＰ
  50
 180.000
  41
 0.875000
   7
STANDARD
   0
LINE
   8
LEVEL001
   6
CONTINUOUS
  62
7
  10
 525.000
  20
 135.300
  30
0.0
  11
 503.981
  21
 135.300
  31
0.0
   0
LINE
   8
LEVEL001
   6
CONTINUOUS
  62
7
  10
 519.621
  20
 127.300
  30
0.0
  11
 497.600
  21
 127.300
  31
0.0
   0
LINE
   8
LEVEL001
   6
CONTINUOUS
  62
7
  10
 450.000
  20
 119.386
  30
0.0
  11
 450.000
  21
 114.300
  31
0.0
   0
LINE
   8
LEVEL001
   6
CONTINUOUS
  62
7
  10
 420.379
  20
 127.300
  30
0.0
  11
 441.180
  21
 127.300
  31
0.0
   0
LINE
   8
LEVEL001
   6
CONTINUOUS
  62
7
  10
 415.000
  20
 135.300
  30
0.0
  11
 438.417
  21
 135.300
  31
0.0
   0
ARC
   8
LEVEL003
   6
CONTINUOUS
  62
7
  10
 458.000
  20
 149.700
  30
0.0
  40
 2.00000
  50
 0.814222E-11
  51
 90.0000
   0
LINE
   8
LEVEL003
   6
CONTINUOUS
  62
7
  10
 460.000
  20
 139.500
  30
0.0
  11
 460.000
  21
 149.700
  31
0.0
   0
ARC
   8
LEVEL003
   6
CONTINUOUS
  62
7
  10
 125.000
  20
 146.300
  30
0.0
  40
 2.00000
  50
 300.000
  51
 0.895644E-11
   0
LINE
   8
LEVEL001
   6
CONTINUOUS
  62
7
  10
 127.000
  20
 137.937
  30
0.0
  11
 127.000
  21
 135.300
  31
0.0
   0
ARC
   8
LEVEL003
   6
CONTINUOUS
  62
7
  10
 122.000
  20
 137.937
  30
0.0
  40
 5.00000
  50
0.0
  51
 44.4153
   0
ARC
   8
LEVEL003
   6
CONTINUOUS
  62
7
  10
 127.000
  20
 142.836
  30
0.0
  40
 2.00000
  50
 120.000
  51
 224.415
   0
ARC
   8
LEVEL003
   6
CONTINUOUS
  62
7
  10
 125.000
  20
 180.300
  30
0.0
  40
 2.00000
  50
 0.130276E-10
  51
 60.0000
   0
LINE
   8
LEVEL001
   6
CONTINUOUS
  62
7
  10
 127.000
  20
 180.300
  30
0.0
  11
 127.000
  21
 146.300
  31
0.0
   0
ARC
   8
LEVEL001
   6
CONTINUOUS
  62
7
  10
 161.000
  20
 182.000
  30
0.0
  40
 34.0000
  50
 149.038
  51
 169.248
   0
ARC
   8
LEVEL001
   6
CONTINUOUS
  62
7
  10
 122.685
  20
 189.276
  30
0.0
  40
 5.00000
  50
 308.059
  51
 349.248
   0
ARC
   8
LEVEL003
   6
CONTINUOUS
  62
7
  10
 127.000
  20
 183.764
  30
0.0
  40
 2.00000
  50
 128.059
  51
 240.000
   0
LINE
   8
LEVEL001
   6
CONTINUOUS
  62
7
  10
 131.557
  20
 251.300
  30
0.0
  11
 127.279
  21
 187.302
  31
0.0
   0
ARC
   8
LEVEL003
   6
CONTINUOUS
  62
7
  10
 506.464
  20
 324.300
  30
0.0
  40
 2.00000
  50
 3.25284
  51
 90.0000
   0
LINE
   8
LEVEL003
   6
CONTINUOUS
  62
7
  10
 508.461
  20
 324.413
  30
0.0
  11
 512.326
  21
 256.413
  31
0.0
   0
ARC
   8
LEVEL003
   6
CONTINUOUS
  62
7
  10
 510.329
  20
 256.300
  30
0.0
  40
 2.00000
  50
 270.000
  51
 3.25284
   0
ARC
   8
LEVEL003
   6
CONTINUOUS
  62
7
  10
 482.718
  20
 256.300
  30
0.0
  40
 2.00000
  50
 183.253
  51
 270.000
   0
LINE
   8
LEVEL003
   6
CONTINUOUS
  62
7
  10
 476.856
  20
 324.187
  30
0.0
  11
 480.721
  21
 256.187
  31
0.0
   0
ARC
   8
LEVEL003
   6
CONTINUOUS
  62
7
  10
 478.853
  20
 324.300
  30
0.0
  40
 2.00000
  50
 90.0000
  51
 183.253
   0
ARC
   8
LEVEL003
   6
CONTINUOUS
  62
7
  10
 481.898
  20
 251.300
  30
0.0
  40
 3.00000
  50
 90.0000
  51
 183.657
   0
LINE
   8
LEVEL003
   6
CONTINUOUS
  62
7
  10
 481.898
  20
 254.300
  30
0.0
  11
 510.329
  21
 254.300
  31
0.0
   0
ARC
   8
LEVEL003
   6
CONTINUOUS
  62
7
  10
 476.913
  20
 329.300
  30
0.0
  40
 3.00000
  50
 183.657
  51
 270.000
   0
LINE
   8
LEVEL003
   6
CONTINUOUS
  62
7
  10
 476.913
  20
 326.300
  30
0.0
  11
 506.464
  21
 326.300
  31
0.0
   0
LINE
   8
LEVEL001
   6
CONTINUOUS
  62
7
  10
 510.202
  20
 254.300
  30
0.0
  11
 513.420
  21
 214.260
  31
0.0
   0
LINE
   8
LEVEL003
   6
CONTINUOUS
  62
7
  10
 474.244
  20
 324.020
  30
0.0
  11
 478.589
  21
 256.050
  31
0.0
   0
ARC
   8
LEVEL003
   6
CONTINUOUS
  62
7
  10
 506.464
  20
 329.300
  30
0.0
  40
 3.00000
  50
 183.657
  51
 270.000
   0
LINE
   8
LEVEL001
   6
CONTINUOUS
  62
7
  10
 502.177
  20
 354.140
  30
0.0
  11
 504.344
  21
 327.178
  31
0.0
   0
ARC
   8
LEVEL003
   6
CONTINUOUS
  62
7
  10
 510.202
  20
 251.300
  30
0.0
  40
 3.00000
  50
 90.0000
  51
 183.657
   0
LINE
   8
LEVEL001
   6
CONTINUOUS
  62
7
  10
 213.000
  20
 371.300
  30
0.0
  11
 147.000
  21
 371.300
  31
0.0
   0
LINE
   8
LEVEL001
   6
CONTINUOUS
  62
7
  10
 268.000
  20
 202.000
  30
0.0
  11
 268.000
  21
 162.000
  31
0.0
   0
ARC
   8
LEVEL001
   6
CONTINUOUS
  62
7
  10
 299.000
  20
 111.000
  30
0.0
  40
 2.00000
  50
 270.000
  51
 0.814222E-12
   0
LINE
   8
LEVEL001
   6
CONTINUOUS
  62
7
  10
 301.000
  20
 111.000
  30
0.0
  11
 301.000
  21
 114.610
  31
0.0
   0
LINE
   8
LEVEL001
   6
CONTINUOUS
  62
7
  10
 299.000
  20
 109.000
  30
0.0
  11
 296.868
  21
 109.000
  31
0.0
   0
LINE
   8
LEVEL001
   6
CONTINUOUS
  62
7
  10
 263.132
  20
 109.000
  30
0.0
  11
 261.000
  21
 109.000
  31
0.0
   0
ARC
   8
LEVEL001
   6
CONTINUOUS
  62
7
  10
 305.999
  20
 114.739
  30
0.0
  40
 5.00000
  50
 114.928
  51
 181.058
   0
LINE
   8
LEVEL001
   6
CONTINUOUS
  62
7
  10
 319.174
  20
 122.003
  30
0.0
  11
 310.013
  21
 121.683
  31
0.0
   0
ARC
   8
LEVEL001
   6
CONTINUOUS
  62
7
  10
 310.188
  20
 116.686
  30
0.0
  40
 5.00000
  50
 92.0000
  51
 114.928
   0
LINE
   8
LEVEL001
   6
CONTINUOUS
  62
7
  10
 303.891
  20
 119.273
  30
0.0
  11
 308.080
  21
 121.220
  31
0.0
   0
ARC
   8
LEVEL001
   6
CONTINUOUS
  62
7
  10
 319.000
  20
 127.000
  30
0.0
  40
 5.00000
  50
 272.000
  51
 88.0000
   0
ARC
   8
LEVEL001
   6
CONTINUOUS
  62
7
  10
 280.000
  20
-61.2687
  30
0.0
  40
 171.102
  50
 84.3422
  51
 95.6578
   0
ARC
   8
LEVEL001
   6
CONTINUOUS
  62
7
  10
 261.000
  20
 111.000
  30
0.0
  40
 2.00000
  50
 180.000
  51
 270.000
   0
LINE
   8
LEVEL001
   6
CONTINUOUS
  62
7
  10
 259.000
  20
 111.000
  30
0.0
  11
 259.000
  21
 114.610
  31
0.0
   0
ARC
   8
LEVEL001
   6
CONTINUOUS
  62
7
  10
 259.000
  20
 118.074
  30
0.0
  40
 2.00000
  50
 300.000
  51
 0.244267E-10
   0
ARC
   8
LEVEL001
   6
CONTINUOUS
  62
7
  10
 261.000
  20
 114.610
  30
0.0
  40
 2.00000
  50
 120.000
  51
 180.000
   0
LINE
   8
LEVEL001
   6
CONTINUOUS
  62
7
  10
 261.000
  20
 118.074
  30
0.0
  11
 261.000
  21
 144.500
  31
0.0
   0
ARC
   8
LEVEL001
   6
CONTINUOUS
  62
7
  10
 301.000
  20
 134.633
  30
0.0
  40
 2.00000
  50
 180.000
  51
 268.000
   0
LINE
   8
LEVEL001
   6
CONTINUOUS
  62
7
  10
 319.174
  20
 131.997
  30
0.0
  11
 300.930
  21
 132.634
  31
0.0
   0
ARC
   8
LEVEL001
   6
CONTINUOUS
  62
7
  10
 301.000
  20
 134.627
  30
0.0
  40
 2.00000
  50
 104.478
  51
 180.000
   0
ARC
   8
LEVEL001
   6
CONTINUOUS
  62
7
  10
 300.000
  20
 138.500
  30
0.0
  40
 2.00000
  50
 284.478
  51
0.0
   0
LINE
   8
LEVEL001
   6
CONTINUOUS
  62
7
  10
 302.000
  20
 151.700
  30
0.0
  11
 302.000
  21
 138.500
  31
0.0
   0
ARC
   8
LEVEL001
   6
CONTINUOUS
  62
7
  10
 276.000
  20
 144.500
  30
0.0
  40
 15.0000
  50
 126.836
  51
 180.000
   0
LINE
   8
LEVEL001
   6
DASHDOT
  62
1
  10
 280.000
  20
 154.500
  30
0.0
  11
 280.000
  21
 104.500
  31
0.0
   0
LINE
   8
LEVEL001
   6
DASHDOT
  62
1
  10
 326.000
  20
 127.000
  30
0.0
  11
 291.000
  21
 127.000
  31
0.0
   0
LINE
   8
LEVEL001
   6
DOT
  62
3
  10
 267.000
  20
 111.182
  30
0.0
  11
 267.000
  21
 141.200
  31
0.0
   0
ARC
   8
LEVEL001
   6
DOT
  62
3
  10
 265.000
  20
 111.182
  30
0.0
  40
 2.00000
  50
 274.971
  51
0.0
   0
LINE
   8
LEVEL001
   6
DOT
  62
3
  10
 293.000
  20
 141.200
  30
0.0
  11
 293.000
  21
 111.182
  31
0.0
   0
ARC
   8
LEVEL001
   6
DOT
  62
3
  10
 295.000
  20
 111.182
  30
0.0
  40
 2.00000
  50
 180.000
  51
 265.029
   0
ARC
   8
LEVEL001
   6
DOT
  62
3
  10
 269.000
  20
 141.200
  30
0.0
  40
 2.00000
  50
 90.0000
  51
 180.000
   0
ARC
   8
LEVEL001
   6
DOT
  62
3
  10
 291.000
  20
 141.200
  30
0.0
  40
 2.00000
  50
0.0
  51
 90.0000
   0
LINE
   8
LEVEL001
   6
DOT
  62
3
  10
 291.000
  20
 143.200
  30
0.0
  11
 269.000
  21
 143.200
  31
0.0
   0
ARC
   8
LEVEL003
   6
CONTINUOUS
  62
7
  10
 280.000
  20
-61.2687
  30
0.0
  40
 179.102
  50
 83.9525
  51
 96.0475
   0
ARC
   8
LEVEL003
   6
CONTINUOUS
  62
7
  10
 280.000
  20
-61.2687
  30
0.0
  40
 172.102
  50
 83.1781
  51
 96.8219
   0
ARC
   8
LEVEL003
   6
CONTINUOUS
  62
7
  10
 301.000
  20
 118.074
  30
0.0
  40
 2.00000
  50
 180.000
  51
 240.000
   0
LINE
   8
LEVEL003
   6
CONTINUOUS
  62
7
  10
 299.000
  20
 118.074
  30
0.0
  11
 299.000
  21
 141.048
  31
0.0
   0
LINE
   8
LEVEL003
   6
CONTINUOUS
  62
7
  10
 309.000
  20
 130.519
  30
0.0
  11
 309.000
  21
 122.753
  31
0.0
   0
ARC
   8
LEVEL003
   6
CONTINUOUS
  62
7
  10
 299.000
  20
 114.610
  30
0.0
  40
 2.00000
  50
 0.260551E-10
  51
 60.0000
   0
LINE
   8
LEVEL001
   6
DASHDOT
  62
1
  10
 286.000
  20
 140.000
  30
0.0
  11
 286.000
  21
 186.785
  31
0.0
   0
CIRCLE
   8
LEVEL001
   6
CONTINUOUS
  62
7
  10
 286.000
  20
 153.500
  30
0.0
  40
 4.00000
   0
CIRCLE
   8
LEVEL001
   6
CONTINUOUS
  62
7
  10
 286.000
  20
 159.500
  30
0.0
  40
 12.2500
   0
ARC
   8
LEVEL001
   6
CONTINUOUS
  62
7
  10
 286.000
  20
 159.500
  30
0.0
  40
 17.8000
  50
 181.635
  51
 14.9187
   0
ARC
   8
LEVEL001
   6
CONTINUOUS
  62
7
  10
 286.000
  20
 159.500
  30
0.0
  40
 17.8000
  50
 165.081
  51
 181.635
   0
LINE
   8
LEVEL001
   6
DASHDOT
  62
1
  10
 307.300
  20
 159.500
  30
0.0
  11
 265.834
  21
 159.500
  31
0.0
   0
ARC
   8
LEVEL001
   6
CONTINUOUS
  62
7
  10
 265.208
  20
 158.906
  30
0.0
  40
 3.00000
  50
 306.836
  51
 1.63549
   0
LINE
   8
LEVEL003
   6
DASHDOT
  62
1
  10
 292.600
  20
 153.500
  30
0.0
  11
 279.331
  21
 153.500
  31
0.0
   0
CIRCLE
   8
LEVEL003
   6
CONTINUOUS
  62
7
  10
 286.000
  20
 153.500
  30
0.0
  40
 1.75000
   0
ARC
   8
LEVEL001
   6
CONTINUOUS
  62
7
  10
 310.500
  20
 189.500
  30
0.0
  40
 1.00000
  50
0.0
  51
 90.0000
   0
LINE
   8
LEVEL001
   6
CONTINUOUS
  62
7
  10
 308.900
  20
 190.500
  30
0.0
  11
 310.500
  21
 190.500
  31
0.0
   0
LINE
   8
LEVEL001
   6
CONTINUOUS
  62
7
  10
 311.500
  20
 189.500
  30
0.0
  11
 311.500
  21
 174.500
  31
0.0
   0
LINE
   8
LEVEL001
   6
CONTINUOUS
  62
7
  10
 308.900
  20
 193.800
  30
0.0
  11
 308.900
  21
 171.700
  31
0.0
   0
LINE
   8
LEVEL001
   6
CONTINUOUS
  62
7
  10
 307.750
  20
 193.800
  30
0.0
  11
 307.750
  21
 171.700
  31
0.0
   0
ARC
   8
LEVEL001
   6
CONTINUOUS
  62
7
  10
 310.500
  20
 174.500
  30
0.0
  40
 1.00000
  50
 270.000
  51
0.0
   0
LINE
   8
LEVEL001
   6
CONTINUOUS
  62
7
  10
 308.900
  20
 173.500
  30
0.0
  11
 310.500
  21
 173.500
  31
0.0
   0
LINE
   8
LEVEL001
   6
CONTINUOUS
  62
7
  10
 304.450
  20
 199.500
  30
0.0
  11
 304.550
  21
 199.500
  31
0.0
   0
LINE
   8
LEVEL001
   6
CONTINUOUS
  62
7
  10
 304.450
  20
 164.500
  30
0.0
  11
 304.550
  21
 164.500
  31
0.0
   0
LINE
   8
LEVEL001
   6
CONTINUOUS
  62
7
  10
 304.550
  20
 199.500
  30
0.0
  11
 306.550
  21
 199.500
  31
0.0
   0
LINE
   8
LEVEL001
   6
CONTINUOUS
  62
7
  10
 304.550
  20
 164.500
  30
0.0
  11
 306.550
  21
 164.500
  31
0.0
   0
LINE
   8
LEVEL001
   6
CONTINUOUS
  62
7
  10
 307.750
  20
 171.700
  30
0.0
  11
 308.900
  21
 171.700
  31
0.0
   0
LINE
   8
LEVEL001
   6
CONTINUOUS
  62
7
  10
 307.750
  20
 193.800
  30
0.0
  11
 308.900
  21
 193.800
  31
0.0
   0
LINE
   8
LEVEL001
   6
CONTINUOUS
  62
7
  10
 269.250
  20
 208.400
  30
0.0
  11
 302.750
  21
 208.400
  31
0.0
   0
ARC
   8
LEVEL001
   6
CONTINUOUS
  62
7
  10
 304.700
  20
 201.000
  30
0.0
  40
 1.50000
  50
 180.000
  51
 270.000
   0
ARC
   8
LEVEL001
   6
CONTINUOUS
  62
7
  10
 304.616
  20
 163.300
  30
0.0
  40
 1.20000
  50
 90.0000
  51
 191.537
   0
LINE
   8
LEVEL001
   6
CONTINUOUS
  62
7
  10
 268.000
  20
 194.500
  30
0.0
  11
 268.800
  21
 194.500
  31
0.0
   0
LINE
   8
LEVEL001
   6
CONTINUOUS
  62
7
  10
 304.550
  20
 190.600
  30
0.0
  11
 304.800
  21
 190.600
  31
0.0
   0
LINE
   8
LEVEL001
   6
CONTINUOUS
  62
7
  10
 306.550
  20
 190.500
  30
0.0
  11
 307.750
  21
 190.500
  31
0.0
   0
LINE
   8
LEVEL001
   6
CONTINUOUS
  62
7
  10
 304.800
  20
 173.400
  30
0.0
  11
 304.550
  21
 173.400
  31
0.0
   0
LINE
   8
LEVEL001
   6
CONTINUOUS
  62
7
  10
 306.550
  20
 173.500
  30
0.0
  11
 307.750
  21
 173.500
  31
0.0
   0
LINE
   8
LEVEL001
   6
CONTINUOUS
  62
7
  10
 268.000
  20
 169.500
  30
0.0
  11
 268.800
  21
 169.500
  31
0.0
   0
LINE
   8
LEVEL001
   6
CONTINUOUS
  62
7
  10
 269.250
  20
 208.400
  30
0.0
  11
 269.250
  21
 177.457
  31
0.0
   0
LINE
   8
LEVEL001
   6
CONTINUOUS
  62
7
  10
 302.750
  20
 208.400
  30
0.0
  11
 302.750
  21
 177.457
  31
0.0
   0
LINE
   8
LEVEL001
   6
CONTINUOUS
  62
7
  10
 302.750
  20
 178.850
  30
0.0
  11
 269.250
  21
 178.850
  31
0.0
   0
LINE
   8
LEVEL001
   6
CONTINUOUS
  62
7
  10
 302.750
  20
 177.457
  30
0.0
  11
 269.250
  21
 177.457
  31
0.0
   0
ARC
   8
LEVEL001
   6
CONTINUOUS
  62
7
  10
 269.800
  20
 206.000
  30
0.0
  40
 1.00000
  50
 123.367
  51
 180.000
   0
ARC
   8
LEVEL001
   6
CONTINUOUS
  62
7
  10
 302.200
  20
 206.000
  30
0.0
  40
 1.00000
  50
0.0
  51
 56.6330
   0
LINE
   8
LEVEL001
   6
CONTINUOUS
  62
7
  10
 304.800
  20
 199.500
  30
0.0
  11
 304.800
  21
 164.500
  31
0.0
   0
LINE
   8
LEVEL001
   6
CONTINUOUS
  62
7
  10
 304.550
  20
 199.500
  30
0.0
  11
 304.550
  21
 164.500
  31
0.0
   0
LINE
   8
LEVEL001
   6
CONTINUOUS
  62
7
  10
 268.800
  20
 164.083
  30
0.0
  11
 268.800
  21
 206.000
  31
0.0
   0
LINE
   8
LEVEL001
   6
CONTINUOUS
  62
7
  10
 306.550
  20
 199.500
  30
0.0
  11
 306.550
  21
 164.500
  31
0.0
   0
ARC
   8
LEVEL001
   6
CONTINUOUS
  62
7
  10
 286.000
  20
 178.850
  30
0.0
  40
 3.50000
  50
0.0
  51
 180.000
   0
LINE
   8
LEVEL001
   6
CONTINUOUS
  62
7
  10
 303.200
  20
 206.000
  30
0.0
  11
 303.200
  21
 164.083
  31
0.0
   0
ARC
   8
LEVEL001
   6
CONTINUOUS
  62
7
  10
 180.000
  20
 275.800
  30
0.0
  40
 2.50000
  50
0.0
  51
 180.000
   0
ARC
   8
LEVEL001
   6
CONTINUOUS
  62
7
  10
 172.500
  20
 274.937
  30
0.0
  40
 5.00000
  50
 270.000
  51
0.0
   0
ARC
   8
LEVEL001
   6
CONTINUOUS
  62
7
  10
 172.500
  20
 267.937
  30
0.0
  40
 2.00000
  50
 90.0000
  51
 180.000
   0
ARC
   8
LEVEL001
   6
CONTINUOUS
  62
7
  10
 165.137
  20
 267.937
  30
0.0
  40
 5.36307
  50
0.0
  51
 90.0000
   0
ARC
   8
LEVEL001
   6
CONTINUOUS
  62
7
  10
 187.500
  20
 274.937
  30
0.0
  40
 5.00000
  50
 180.000
  51
 270.000
   0
ARC
   8
LEVEL001
   6
CONTINUOUS
  62
7
  10
 187.500
  20
 267.937
  30
0.0
  40
 2.00000
  50
0.0
  51
 90.0000
   0
ARC
   8
LEVEL001
   6
CONTINUOUS
  62
7
  10
 194.863
  20
 267.937
  30
0.0
  40
 5.36307
  50
 90.0000
  51
 180.000
   0
LINE
   8
LEVEL001
   6
CONTINUOUS
  62
7
  10
 170.500
  20
 165.663
  30
0.0
  11
 170.500
  21
 267.937
  31
0.0
   0
LINE
   8
LEVEL001
   6
CONTINUOUS
  62
7
  10
 189.500
  20
 165.663
  30
0.0
  11
 189.500
  21
 267.937
  31
0.0
   0
ARC
   8
LEVEL001
   6
CONTINUOUS
  62
7
  10
 180.000
  20
 157.800
  30
0.0
  40
 2.50000
  50
 180.000
  51
0.0
   0
ARC
   8
LEVEL001
   6
CONTINUOUS
  62
7
  10
 187.500
  20
 158.663
  30
0.0
  40
 5.00000
  50
 90.0000
  51
 180.000
   0
LINE
   8
LEVEL001
   6
CONTINUOUS
  62
7
  10
 182.500
  20
 158.663
  30
0.0
  11
 182.500
  21
 157.800
  31
0.0
   0
ARC
   8
LEVEL001
   6
CONTINUOUS
  62
7
  10
 187.500
  20
 165.663
  30
0.0
  40
 2.00000
  50
 270.000
  51
 0.293120E-10
   0
ARC
   8
LEVEL001
   6
CONTINUOUS
  62
7
  10
 172.500
  20
 158.663
  30
0.0
  40
 5.00000
  50
0.0
  51
 90.0000
   0
LINE
   8
LEVEL001
   6
CONTINUOUS
  62
7
  10
 177.500
  20
 157.800
  30
0.0
  11
 177.500
  21
 158.663
  31
0.0
   0
ARC
   8
LEVEL001
   6
CONTINUOUS
  62
7
  10
 172.500
  20
 165.663
  30
0.0
  40
 2.00000
  50
 180.000
  51
 270.000
   0
ARC
   8
LEVEL001
   6
CONTINUOUS
  62
7
  10
 185.000
  20
 150.458
  30
0.0
  40
 2.50000
  50
 180.000
  51
 270.000
   0
ARC
   8
LEVEL001
   6
CONTINUOUS
  62
7
  10
 175.000
  20
 150.458
  30
0.0
  40
 2.50000
  50
 270.000
  51
 0.651378E-11
   0
ARC
   8
LEVEL001
   6
CONTINUOUS
  62
7
  10
 165.137
  20
 166.727
  30
0.0
  40
 5.36307
  50
 270.000
  51
0.0
   0
ARC
   8
LEVEL001
   6
CONTINUOUS
  62
7
  10
 194.863
  20
 166.727
  30
0.0
  40
 5.36307
  50
 180.000
  51
 270.000
   0
LINE
   8
LEVEL001
   6
CONTINUOUS
  62
7
  10
 266.006
  20
 184.500
  30
0.0
  11
 236.000
  21
 184.500
  31
0.0
   0
LINE
   8
LEVEL001
   6
CONTINUOUS
  62
7
  10
 266.006
  20
 159.844
  30
0.0
  11
 266.006
  21
 204.156
  31
0.0
   0
LINE
   8
LEVEL001
   6
CONTINUOUS
  62
7
  10
 266.006
  20
 179.500
  30
0.0
  11
 236.000
  21
 179.500
  31
0.0
   0
LINE
   8
LEVEL003
   6
CONTINUOUS
  62
7
  10
 213.541
  20
 357.714
  30
0.0
  11
 213.541
  21
 369.300
  31
0.0
   0
LINE
   8
LEVEL003
   6
CONTINUOUS
  62
7
  10
 212.496
  20
 349.300
  30
0.0
  11
 212.496
  21
 354.140
  31
0.0
   0
LINE
   8
LEVEL003
   6
CONTINUOUS
  62
7
  10
 147.823
  20
 356.300
  30
0.0
  11
 213.000
  21
 356.300
  31
0.0
   0
LINE
   8
LEVEL001
   6
CONTINUOUS
  62
7
  10
 212.566
  20
 349.306
  30
0.0
  11
 222.054
  21
 231.254
  31
0.0
   0
LINE
   8
LEVEL001
   6
CONTINUOUS
  62
7
  10
 182.500
  20
 354.140
  30
0.0
  11
 182.500
  21
 150.458
  31
0.0
   0
LINE
   8
LEVEL001
   6
CONTINUOUS
  62
7
  10
 177.500
  20
 354.140
  30
0.0
  11
 177.500
  21
 150.458
  31
0.0
   0
POLYLINE
   8
LEVEL001
   6
CONTINUOUS
  62
7
  66
1
  10
0.0
  20
0.0
  30
0.0
  70
0
   0
VERTEX
   8
LEVEL001
   6
CONTINUOUS
  62
7
  10
 125.993
  20
 144.691
  30
0.0
   0
VERTEX
   8
LEVEL001
   6
CONTINUOUS
  62
7
  10
 127.072
  20
 145.100
  30
0.0
   0
VERTEX
   8
LEVEL001
   6
CONTINUOUS
  62
7
  10
 128.118
  20
 145.794
  30
0.0
   0
VERTEX
   8
LEVEL001
   6
CONTINUOUS
  62
7
  10
 129.116
  20
 146.761
  30
0.0
   0
VERTEX
   8
LEVEL001
   6
CONTINUOUS
  62
7
  10
 130.049
  20
 147.986
  30
0.0
   0
VERTEX
   8
LEVEL001
   6
CONTINUOUS
  62
7
  10
 130.904
  20
 149.450
  30
0.0
   0
VERTEX
   8
LEVEL001
   6
CONTINUOUS
  62
7
  10
 131.666
  20
 151.130
  30
0.0
   0
VERTEX
   8
LEVEL001
   6
CONTINUOUS
  62
7
  10
 132.325
  20
 153.000
  30
0.0
   0
VERTEX
   8
LEVEL001
   6
CONTINUOUS
  62
7
  10
 132.869
  20
 155.031
  30
0.0
   0
VERTEX
   8
LEVEL001
   6
CONTINUOUS
  62
7
  10
 133.290
  20
 157.190
  30
0.0
   0
VERTEX
   8
LEVEL001
   6
CONTINUOUS
  62
7
  10
 133.582
  20
 159.446
  30
0.0
   0
VERTEX
   8
LEVEL001
   6
CONTINUOUS
  62
7
  10
 133.740
  20
 161.761
  30
0.0
   0
VERTEX
   8
LEVEL001
   6
CONTINUOUS
  62
7
  10
 133.762
  20
 164.100
  30
0.0
   0
VERTEX
   8
LEVEL001
   6
CONTINUOUS
  62
7
  10
 133.647
  20
 166.427
  30
0.0
   0
VERTEX
   8
LEVEL001
   6
CONTINUOUS
  62
7
  10
 133.397
  20
 168.705
  30
0.0
   0
VERTEX
   8
LEVEL001
   6
CONTINUOUS
  62
7
  10
 133.016
  20
 170.898
  30
0.0
   0
VERTEX
   8
LEVEL001
   6
CONTINUOUS
  62
7
  10
 132.510
  20
 172.974
  30
0.0
   0
VERTEX
   8
LEVEL001
   6
CONTINUOUS
  62
7
  10
 131.886
  20
 174.898
  30
0.0
   0
VERTEX
   8
LEVEL001
   6
CONTINUOUS
  62
7
  10
 131.156
  20
 176.641
  30
0.0
   0
VERTEX
   8
LEVEL001
   6
CONTINUOUS
  62
7
  10
 130.329
  20
 178.176
  30
0.0
   0
VERTEX
   8
LEVEL001
   6
CONTINUOUS
  62
7
  10
 129.419
  20
 179.479
  30
0.0
   0
VERTEX
   8
LEVEL001
   6
CONTINUOUS
  62
7
  10
 128.440
  20
 180.529
  30
0.0
   0
VERTEX
   8
LEVEL001
   6
CONTINUOUS
  62
7
  10
 127.407
  20
 181.311
  30
0.0
   0
VERTEX
   8
LEVEL001
   6
CONTINUOUS
  62
7
  10
 126.337
  20
 181.811
  30
0.0
   0
VERTEX
   8
LEVEL001
   6
CONTINUOUS
  62
7
  10
 126.294
  20
 181.825
  30
0.0
   0
SEQEND
   0
POLYLINE
   8
LEVEL001
   6
CONTINUOUS
  62
7
  66
1
  10
0.0
  20
0.0
  30
0.0
  70
0
   0
VERTEX
   8
LEVEL001
   6
CONTINUOUS
  62
7
  10
 128.552
  20
 141.389
  30
0.0
   0
VERTEX
   8
LEVEL001
   6
CONTINUOUS
  62
7
  10
 130.055
  20
 142.350
  30
0.0
   0
VERTEX
   8
LEVEL001
   6
CONTINUOUS
  62
7
  10
 131.479
  20
 143.638
  30
0.0
   0
VERTEX
   8
LEVEL001
   6
CONTINUOUS
  62
7
  10
 132.801
  20
 145.233
  30
0.0
   0
VERTEX
   8
LEVEL001
   6
CONTINUOUS
  62
7
  10
 134.003
  20
 147.110
  30
0.0
   0
VERTEX
   8
LEVEL001
   6
CONTINUOUS
  62
7
  10
 135.063
  20
 149.240
  30
0.0
   0
VERTEX
   8
LEVEL001
   6
CONTINUOUS
  62
7
  10
 135.967
  20
 151.589
  30
0.0
   0
VERTEX
   8
LEVEL001
   6
CONTINUOUS
  62
7
  10
 136.699
  20
 154.120
  30
0.0
   0
VERTEX
   8
LEVEL001
   6
CONTINUOUS
  62
7
  10
 137.249
  20
 156.795
  30
0.0
   0
VERTEX
   8
LEVEL001
   6
CONTINUOUS
  62
7
  10
 137.608
  20
 159.572
  30
0.0
   0
VERTEX
   8
LEVEL001
   6
CONTINUOUS
  62
7
  10
 137.770
  20
 162.406
  30
0.0
   0
VERTEX
   8
LEVEL001
   6
CONTINUOUS
  62
7
  10
 137.733
  20
 165.255
  30
0.0
   0
VERTEX
   8
LEVEL001
   6
CONTINUOUS
  62
7
  10
 137.497
  20
 168.073
  30
0.0
   0
VERTEX
   8
LEVEL001
   6
CONTINUOUS
  62
7
  10
 137.066
  20
 170.817
  30
0.0
   0
VERTEX
   8
LEVEL001
   6
CONTINUOUS
  62
7
  10
 136.447
  20
 173.443
  30
0.0
   0
VERTEX
   8
LEVEL001
   6
CONTINUOUS
  62
7
  10
 135.649
  20
 175.911
  30
0.0
   0
VERTEX
   8
LEVEL001
   6
CONTINUOUS
  62
7
  10
 134.685
  20
 178.182
  30
0.0
   0
VERTEX
   8
LEVEL001
   6
CONTINUOUS
  62
7
  10
 133.570
  20
 180.221
  30
0.0
   0
VERTEX
   8
LEVEL001
   6
CONTINUOUS
  62
7
  10
 132.321
  20
 181.996
  30
0.0
   0
VERTEX
   8
LEVEL001
   6
CONTINUOUS
  62
7
  10
 130.958
  20
 183.480
  30
0.0
   0
VERTEX
   8
LEVEL001
   6
CONTINUOUS
  62
7
  10
 129.502
  20
 184.648
  30
0.0
   0
VERTEX
   8
LEVEL001
   6
CONTINUOUS
  62
7
  10
 128.575
  20
 185.199
  30
0.0
   0
SEQEND
   0
LINE
   8
LEVEL001
   6
CONTINUOUS
  62
7
  10
 410.000
  20
 125.300
  30
0.0
  11
 420.379
  21
 125.300
  31
0.0
   0
LINE
   8
LEVEL001
   6
CONTINUOUS
  62
7
  10
 530.000
  20
 125.300
  30
0.0
  11
 519.621
  21
 125.300
  31
0.0
   0
LINE
   8
LEVEL001
   6
CONTINUOUS
  62
7
  10
 130.379
  20
 127.300
  30
0.0
  11
 130.379
  21
 114.300
  31
0.0
   0
LINE
   8
LEVEL001
   6
CONTINUOUS
  62
7
  10
 229.621
  20
 127.300
  30
0.0
  11
 229.621
  21
 114.300
  31
0.0
   0
LINE
   8
LEVEL001
   6
CONTINUOUS
  62
7
  10
 240.000
  20
 114.300
  30
0.0
  11
 120.000
  21
 114.300
  31
0.0
   0
LINE
   8
LEVEL001
   6
CONTINUOUS
  62
7
  10
 229.621
  20
 127.300
  30
0.0
  11
 200.000
  21
 127.300
  31
0.0
   0
LINE
   8
LEVEL001
   6
CONTINUOUS
  62
7
  10
 200.000
  20
 127.300
  30
0.0
  11
 200.000
  21
 114.300
  31
0.0
   0
LINE
   8
LEVEL001
   6
CONTINUOUS
  62
7
  10
 240.000
  20
 125.300
  30
0.0
  11
 229.621
  21
 125.300
  31
0.0
   0
LINE
   8
LEVEL001
   6
CONTINUOUS
  62
7
  10
 120.000
  20
 125.300
  30
0.0
  11
 130.379
  21
 125.300
  31
0.0
   0
LINE
   8
LEVEL001
   6
CONTINUOUS
  62
7
  10
 160.000
  20
 125.300
  30
0.0
  11
 200.000
  21
 125.300
  31
0.0
   0
LINE
   8
LEVEL001
   6
CONTINUOUS
  62
7
  10
 160.000
  20
 127.300
  30
0.0
  11
 160.000
  21
 114.300
  31
0.0
   0
LINE
   8
LEVEL001
   6
CONTINUOUS
  62
7
  10
 130.379
  20
 127.300
  30
0.0
  11
 160.000
  21
 127.300
  31
0.0
   0
LINE
   8
LEVEL003
   6
CONTINUOUS
  62
3
  10
 126.000
  20
 106.300
  30
0.0
  11
 86.0000
  21
 106.300
  31
0.0
   0
LINE
   8
LEVEL003
   6
CONTINUOUS
  62
3
  10
 148.500
  20
 386.300
  30
0.0
  11
 86.0000
  21
 386.300
  31
0.0
   0
LINE
   8
LEVEL003
   6
CONTINUOUS
  62
3
  10
 90.0000
  20
 106.300
  30
0.0
  11
 90.0000
  21
 386.300
  31
0.0
   0
LINE
   8
LEVEL003
   6
CONTINUOUS
  62
3
  10
 91.0000
  20
 112.300
  30
0.0
  11
 90.0000
  21
 106.300
  31
0.0
   0
LINE
   8
LEVEL003
   6
CONTINUOUS
  62
3
  10
 90.0000
  20
 106.300
  30
0.0
  11
 89.0000
  21
 112.300
  31
0.0
   0
LINE
   8
LEVEL003
   6
CONTINUOUS
  62
3
  10
 90.0000
  20
 106.300
  30
0.0
  11
 90.0000
  21
 112.300
  31
0.0
   0
LINE
   8
LEVEL003
   6
CONTINUOUS
  62
3
  10
 89.0000
  20
 380.300
  30
0.0
  11
 90.0000
  21
 386.300
  31
0.0
   0
LINE
   8
LEVEL003
   6
CONTINUOUS
  62
3
  10
 90.0000
  20
 386.300
  30
0.0
  11
 91.0000
  21
 380.300
  31
0.0
   0
LINE
   8
LEVEL003
   6
CONTINUOUS
  62
3
  10
 90.0000
  20
 386.300
  30
0.0
  11
 90.0000
  21
 380.300
  31
0.0
   0
TEXT
   8
LEVEL003
  62
3
  10
 93.7333
  20
 240.300
  30
0.0
  40
 8.00000
   1
280
  50
 90.0000
  41
 0.500000
   7
STANDARD
  72
1
  11
 88.4000
  21
 246.300
  31
0.0
  73
2
   0
LINE
   8
LEVEL003
   6
CONTINUOUS
  62
3
  10
 145.000
  20
 371.300
  30
0.0
  11
 106.000
  21
 371.300
  31
0.0
   0
LINE
   8
LEVEL003
   6
CONTINUOUS
  62
3
  10
 148.500
  20
 386.300
  30
0.0
  11
 106.000
  21
 386.300
  31
0.0
   0
LINE
   8
LEVEL003
   6
CONTINUOUS
  62
3
  10
 110.000
  20
 371.300
  30
0.0
  11
 110.000
  21
 386.300
  31
0.0
   0
LINE
   8
LEVEL003
   6
CONTINUOUS
  62
3
  10
 111.000
  20
 377.300
  30
0.0
  11
 110.000
  21
 371.300
  31
0.0
   0
LINE
   8
LEVEL003
   6
CONTINUOUS
  62
3
  10
 110.000
  20
 371.300
  30
0.0
  11
 109.000
  21
 377.300
  31
0.0
   0
LINE
   8
LEVEL003
   6
CONTINUOUS
  62
3
  10
 110.000
  20
 371.300
  30
0.0
  11
 110.000
  21
 377.300
  31
0.0
   0
LINE
   8
LEVEL003
   6
CONTINUOUS
  62
3
  10
 109.000
  20
 380.300
  30
0.0
  11
 110.000
  21
 386.300
  31
0.0
   0
LINE
   8
LEVEL003
   6
CONTINUOUS
  62
3
  10
 110.000
  20
 386.300
  30
0.0
  11
 111.000
  21
 380.300
  31
0.0
   0
LINE
   8
LEVEL003
   6
CONTINUOUS
  62
3
  10
 110.000
  20
 386.300
  30
0.0
  11
 110.000
  21
 380.300
  31
0.0
   0
TEXT
   8
LEVEL003
  62
3
  10
 113.733
  20
 374.800
  30
0.0
  40
 8.00000
   1
15
  50
 90.0000
  41
 0.500000
   7
STANDARD
  72
1
  11
 108.400
  21
 378.800
  31
0.0
  73
2
   0
LINE
   8
LEVEL001
   6
CONTINUOUS
  62
7
  10
 125.000
  20
 135.300
  30
0.0
  11
 180.000
  21
 135.300
  31
0.0
   0
LINE
   8
LEVEL001
   6
CONTINUOUS
  62
7
  10
 235.000
  20
 135.300
  30
0.0
  11
 180.000
  21
 135.300
  31
0.0
   0
LINE
   8
LEVEL003
   6
CONTINUOUS
  62
7
  10
 455.000
  20
 122.382
  30
0.0
  11
 455.000
  21
 139.300
  31
0.0
   0
ARC
   8
LEVEL003
   6
CONTINUOUS
  62
7
  10
 452.000
  20
 139.300
  30
0.0
  40
 3.00000
  50
0.0
  51
 90.0000
   0
LINE
   8
LEVEL003
   6
CONTINUOUS
  62
7
  10
 422.000
  20
 142.300
  30
0.0
  11
 452.000
  21
 142.300
  31
0.0
   0
LINE
   8
LEVEL003
   6
CONTINUOUS
  62
7
  10
 458.640
  20
 149.156
  30
0.0
  11
 454.993
  21
 142.300
  31
0.0
   0
CIRCLE
   8
LEVEL003
   6
CONTINUOUS
  62
7
  10
 615.432
  20
 47.9935
  30
0.0
  40
 6.48000
   0
LINE
   8
LEVEL003
   6
CONTINUOUS
  62
7
  10
 628.150
  20
 54.4735
  30
0.0
  11
 619.921
  21
 40.2175
  31
0.0
   0
LINE
   8
LEVEL003
   6
CONTINUOUS
  62
7
  10
 619.921
  20
 40.2175
  30
0.0
  11
 603.459
  21
 40.2175
  31
0.0
   0
LINE
   8
LEVEL003
   6
CONTINUOUS
  62
7
  10
 601.589
  20
 36.9775
  30
0.0
  11
 631.010
  21
 36.9775
  31
0.0
   0
LINE
   8
LEVEL003
   6
CONTINUOUS
  62
7
  10
 631.010
  20
 36.9775
  30
0.0
  11
 641.110
  21
 54.4735
  31
0.0
   0
LINE
   8
LEVEL003
   6
CONTINUOUS
  62
7
  10
 641.110
  20
 54.4735
  30
0.0
  11
 628.150
  21
 54.4735
  31
0.0
   0
LINE
   8
LEVEL003
   6
CONTINUOUS
  62
7
  10
 603.459
  20
 40.2175
  30
0.0
  11
 601.589
  21
 36.9775
  31
0.0
   0
TEXT
   8
LEVEL003
  62
7
  10
 649.375
  20
 33.3353
  30
0.0
  40
 16.2000
   1
ＯＳＡＫＡ ＪＡＣＫ
   7
STANDARD
   0
TEXT
   8
LEVEL003
  62
7
  10
 649.669
  20
 65.4384
  30
0.0
  40
 10.8000
   1
Model : ＪＪ－１０１５
   7
STANDARD
   0
ENDSEC
   0
EOF
