   0
SECTION
   2
HEADER
   9
$LIMMIN
  10
0.0
  20
0.0
   9
$LIMMAX
  10
 840.000
  20
 594.000
   9
$EXTMIN
  10
0.0
  20
0.0
   9
$EXTMAX
  10
 840.000
  20
 594.000
   9
$LTSCALE
  40
 16.8000
   0
ENDSEC
   0
SECTION
   2
TABLES
  0
TABLE
  2
LTYPE
 70
    25
  0
LTYPE
  2
CONTINUOUS
 70
    64
  3
Solid line
 72
    65
 73
     0
 40
0.0
  0
LTYPE
  2
BORDER
 70
    64
  3
__ __ . __ __ . __ __ . __ __ . __ __ . __ __ .
 72
    65
 73
     6
 40
1.75
 49
0.5
 49
-0.25
 49
0.5
 49
-0.25
 49
0.0
 49
-0.25
  0
LTYPE
  2
BORDER2
 70
    64
  3
__.__.__.__.__.__.__.__.__.__.__.__.__.__.__.__
 72
    65
 73
     6
 40
0.875
 49
0.25
 49
-0.125
 49
0.25
 49
-0.125
 49
0.0
 49
-0.125
  0
LTYPE
  2
BORDERX2
 70
    64
  3
____  ____  .  ____  ____  .  ____  ____  .  __
 72
    65
 73
     6
 40
3.5
 49
1.0
 49
-0.5
 49
1.0
 49
-0.5
 49
0.0
 49
-0.5
  0
LTYPE
  2
CENTER
 70
    64
  3
____ _ ____ _ ____ _ ____ _ ____ _ ____ _ ____ 
 72
    65
 73
     4
 40
2.0
 49
1.25
 49
-0.25
 49
0.25
 49
-0.25
  0
LTYPE
  2
CENTER2
 70
    64
  3
___ _ ___ _ ___ _ ___ _ ___ _ ___ _ ___ _ ___ _
 72
    65
 73
     4
 40
1.125
 49
0.75
 49
-0.125
 49
0.125
 49
-0.125
  0
LTYPE
  2
CENTERX2
 70
    64
  3
________  __  ________  __  ________  __  _____
 72
    65
 73
     4
 40
4.0
 49
2.5
 49
-0.5
 49
0.5
 49
-0.5
  0
LTYPE
  2
DASHDOT
 70
    64
  3
__ . __ . __ . __ . __ . __ . __ . __ . __ . __
 72
    65
 73
     4
 40
1.0
 49
0.5
 49
-0.25
 49
0.0
 49
-0.25
  0
LTYPE
  2
DASHDOT2
 70
    64
  3
_._._._._._._._._._._._._._._._._._._._._._._._
 72
    65
 73
     4
 40
0.5
 49
0.25
 49
-0.125
 49
0.0
 49
-0.125
  0
LTYPE
  2
DASHDOTX2
 70
    64
  3
____  .  ____  .  ____  .  ____  .  ____  .  __
 72
    65
 73
     4
 40
2.0
 49
1.0
 49
-0.5
 49
0.0
 49
-0.5
  0
LTYPE
  2
DASHED
 70
    64
  3
__ __ __ __ __ __ __ __ __ __ __ __ __ __ __ __
 72
    65
 73
     2
 40
0.75
 49
0.5
 49
-0.25
  0
LTYPE
  2
DASHED2
 70
    64
  3
_ _ _ _ _ _ _ _ _ _ _ _ _ _ _ _ _ _ _ _ _ _ _ _
 72
    65
 73
     2
 40
0.375
 49
0.25
 49
-0.125
  0
LTYPE
  2
DASHEDX2
 70
    64
  3
____  ____  ____  ____  ____  ____  ____  ____ 
 72
    65
 73
     2
 40
1.5
 49
1.0
 49
-0.5
  0
LTYPE
  2
DIVIDE
 70
    64
  3
____ . . ____ . . ____ . . ____ . . ____ . . __
 72
    65
 73
     6
 40
1.25
 49
0.5
 49
-0.25
 49
0.0
 49
-0.25
 49
0.0
 49
-0.25
  0
LTYPE
  2
DIVIDE2
 70
    64
  3
__..__..__..__..__..__..__..__..__..__..__..__.
 72
    65
 73
     6
 40
0.625
 49
0.25
 49
-0.125
 49
0.0
 49
-0.125
 49
0.0
 49
-0.125
  0
LTYPE
  2
DIVIDEX2
 70
    64
  3
________  .  .  ________  .  .  ________  .  . 
 72
    65
 73
     6
 40
2.5
 49
1.0
 49
-0.5
 49
0.0
 49
-0.5
 49
0.0
 49
-0.5
  0
LTYPE
  2
DOT
 70
    64
  3
. . . . . . . . . . . . . . . . . . . . . . . .
 72
    65
 73
     2
 40
0.25
 49
0.0
 49
-0.25
  0
LTYPE
  2
DOT2
 70
    64
  3
...............................................
 72
    65
 73
     2
 40
0.125
 49
0.0
 49
-0.125
  0
LTYPE
  2
DOTX2
 70
    64
  3
.  .  .  .  .  .  .  .  .  .  .  .  .  .  .  . 
 72
    65
 73
     2
 40
0.5
 49
0.0
 49
-0.5
  0
LTYPE
  2
HIDDEN
 70
    64
  3
__ __ __ __ __ __ __ __ __ __ __ __ __ __ __ __
 72
    65
 73
     2
 40
0.375
 49
0.25
 49
-0.125
  0
LTYPE
  2
HIDDEN2
 70
    64
  3
_ _ _ _ _ _ _ _ _ _ _ _ _ _ _ _ _ _ _ _ _ _ _ _
 72
    65
 73
     2
 40
0.1875
 49
0.125
 49
-0.0625
  0
LTYPE
  2
HIDDENX2
 70
    64
  3
____ ____ ____ ____ ____ ____ ____ ____ ____ __
 72
    65
 73
     2
 40
0.75
 49
0.5
 49
-0.25
  0
LTYPE
  2
PHANTOM
 70
    64
  3
______  __  __  ______  __  __  ______  __  __ 
 72
    65
 73
     6
 40
2.5
 49
1.25
 49
-0.25
 49
0.25
 49
-0.25
 49
0.25
 49
-0.25
  0
LTYPE
  2
PHANTOM2
 70
    64
  3
___ _ _ ___ _ _ ___ _ _ ___ _ _ ___ _ _ ___ _ _
 72
    65
 73
     6
 40
1.25
 49
0.625
 49
-0.125
 49
0.125
 49
-0.125
 49
0.125
 49
-0.125
  0
LTYPE
  2
PHANTOMX2
 70
    64
  3
____________    ____    ____    ____________   
 72
    65
 73
     6
 40
5.0
 49
2.5
 49
-0.5
 49
0.5
 49
-0.5
 49
0.5
 49
-0.5
  0
ENDTAB
  0
TABLE
  2
STYLE
 70
     2
  0
STYLE
  2
STANDARD
 70
0
 40
0.0
 41
1.0
 50
0.0
 71
0
 42
0.2
  3
TXT
  4
BIGFONT
  0
STYLE
  2
STANDARD1
 70
     4
 40
0.0
 41
1.0
 50
0.0
 71
     0
 42
0.2
  3
TXT
  4
BIGFONT
  0
ENDTAB
   0
TABLE
   2
LAYER
  70
7
   0
LAYER
   2
0
  70
0
  62
7
   6
CONTINUOUS
   0
LAYER
   2
LEVEL001
  70
0
  62
7
   6
CONTINUOUS
   0
LAYER
   2
LEVEL003
  70
0
  62
7
   6
CONTINUOUS
   0
LAYER
   2
LEVEL020
  70
0
  62
7
   6
CONTINUOUS
   0
LAYER
   2
LEVEL050
  70
0
  62
7
   6
CONTINUOUS
   0
LAYER
   2
LEVEL100
  70
0
  62
-7
   6
CONTINUOUS
   0
LAYER
   2
LEVEL110
  70
0
  62
7
   6
CONTINUOUS
   0
ENDTAB
   0
ENDSEC
   0
SECTION
   2
ENTITIES
   0
LINE
   8
LEVEL100
   6
CONTINUOUS
  62
7
  10
 622.500
  20
 128.000
  30
0.0
  11
 622.500
  21
 114.000
  31
0.0
   0
LINE
   8
LEVEL100
   6
CONTINUOUS
  62
7
  10
 682.500
  20
 128.000
  30
0.0
  11
 682.500
  21
 82.0000
  31
0.0
   0
LINE
   8
LEVEL100
   6
CONTINUOUS
  62
7
  10
 722.500
  20
 128.000
  30
0.0
  11
 722.500
  21
 114.000
  31
0.0
   0
LINE
   8
LEVEL100
   6
CONTINUOUS
  62
7
  10
 738.500
  20
 128.000
  30
0.0
  11
 738.500
  21
 114.000
  31
0.0
   0
LINE
   8
LEVEL100
   6
CONTINUOUS
  62
7
  10
 761.500
  20
 128.000
  30
0.0
  11
 761.500
  21
 114.000
  31
0.0
   0
LINE
   8
LEVEL100
   6
CONTINUOUS
  62
7
  10
 663.500
  20
 114.000
  30
0.0
  11
 663.500
  21
 82.0000
  31
0.0
   0
LINE
   8
LEVEL100
   6
CONTINUOUS
  62
7
  10
 630.500
  20
 53.0000
  30
0.0
  11
 640.500
  21
 63.0000
  31
0.0
   0
CIRCLE
   8
LEVEL100
   6
CONTINUOUS
  62
7
  10
 616.500
  20
 23.0000
  30
0.0
  40
 0.800000
   0
CIRCLE
   8
LEVEL100
   6
CONTINUOUS
  62
7
  10
 630.500
  20
 23.0000
  30
0.0
  40
 0.800000
   0
CIRCLE
   8
LEVEL100
   6
CONTINUOUS
  62
7
  10
 616.500
  20
 23.0000
  30
0.0
  40
 0.500000
   0
CIRCLE
   8
LEVEL100
   6
CONTINUOUS
  62
7
  10
 630.500
  20
 23.0000
  30
0.0
  40
 0.500000
   0
LINE
   8
LEVEL100
   6
CONTINUOUS
  62
7
  10
 692.000
  20
 31.0000
  30
0.0
  11
 692.000
  21
 33.0000
  31
0.0
   0
LINE
   8
LEVEL100
   6
CONTINUOUS
  62
7
  10
 692.000
  20
 33.0000
  30
0.0
  11
 698.000
  21
 33.0000
  31
0.0
   0
LINE
   8
LEVEL100
   6
CONTINUOUS
  62
7
  10
 698.000
  20
 33.0000
  30
0.0
  11
 698.000
  21
 31.0000
  31
0.0
   0
LINE
   8
LEVEL100
   6
CONTINUOUS
  62
7
  10
 698.000
  20
 31.0000
  30
0.0
  11
 692.000
  21
 31.0000
  31
0.0
   0
LINE
   8
LEVEL100
   6
CONTINUOUS
  62
7
  10
 602.500
  20
 20.0000
  30
0.0
  11
 602.500
  21
 128.000
  31
0.0
   0
LINE
   8
LEVEL100
   6
CONTINUOUS
  62
7
  10
 644.500
  20
 114.000
  30
0.0
  11
 644.500
  21
 20.0000
  31
0.0
   0
LINE
   8
LEVEL100
   6
CONTINUOUS
  62
7
  10
 602.500
  20
 66.0000
  30
0.0
  11
 644.500
  21
 66.0000
  31
0.0
   0
TEXT
   8
LEVEL100
  62
7
  10
 651.500
  20
 27.0000
  30
0.0
  40
 10.0000
   1
ＯＪ
  41
 0.700000
   7
STANDARD
   0
LINE
   8
LEVEL100
   6
CONTINUOUS
  62
7
  10
 602.500
  20
 114.000
  30
0.0
  11
 816.300
  21
 114.000
  31
0.0
   0
LINE
   8
LEVEL100
   6
CONTINUOUS
  62
7
  10
 602.500
  20
 106.000
  30
0.0
  11
 816.300
  21
 106.000
  31
0.0
   0
LINE
   8
LEVEL100
   6
CONTINUOUS
  62
7
  10
 602.500
  20
 128.000
  30
0.0
  11
 816.300
  21
 128.000
  31
0.0
   0
LINE
   8
LEVEL100
   6
CONTINUOUS
  62
7
  10
 654.300
  20
 526.000
  30
0.0
  11
 654.300
  21
 576.000
  31
0.0
   0
LINE
   8
LEVEL100
   6
CONTINUOUS
  62
7
  10
 654.300
  20
 566.000
  30
0.0
  11
 816.300
  21
 566.000
  31
0.0
   0
LINE
   8
LEVEL100
   6
CONTINUOUS
  62
7
  10
 654.300
  20
 556.000
  30
0.0
  11
 816.300
  21
 556.000
  31
0.0
   0
LINE
   8
LEVEL100
   6
CONTINUOUS
  62
7
  10
 672.300
  20
 566.000
  30
0.0
  11
 672.300
  21
 556.000
  31
0.0
   0
LINE
   8
LEVEL100
   6
CONTINUOUS
  62
7
  10
 776.300
  20
 566.000
  30
0.0
  11
 776.300
  21
 556.000
  31
0.0
   0
LINE
   8
LEVEL100
   6
CONTINUOUS
  62
7
  10
 800.300
  20
 566.000
  30
0.0
  11
 800.300
  21
 556.000
  31
0.0
   0
LINE
   8
LEVEL100
   6
CONTINUOUS
  62
7
  10
 602.500
  20
 82.0000
  30
0.0
  11
 816.300
  21
 82.0000
  31
0.0
   0
LINE
   8
LEVEL100
   6
CONTINUOUS
  62
7
  10
 602.500
  20
 50.0000
  30
0.0
  11
 816.300
  21
 50.0000
  31
0.0
   0
LINE
   8
LEVEL100
   6
CONTINUOUS
  62
7
  10
 760.300
  20
 50.0000
  30
0.0
  11
 760.300
  21
 20.0000
  31
0.0
   0
LINE
   8
LEVEL100
   6
CONTINUOUS
  62
7
  10
 768.300
  20
 20.0000
  30
0.0
  11
 802.300
  21
 40.0000
  31
0.0
   0
LINE
   8
LEVEL100
   6
CONTINUOUS
  62
7
  10
 50.0000
  20
 576.000
  30
0.0
  11
 816.300
  21
 576.000
  31
0.0
   0
LINE
   8
LEVEL100
   6
CONTINUOUS
  62
7
  10
 816.300
  20
 576.000
  30
0.0
  11
 816.300
  21
 20.0000
  31
0.0
   0
LINE
   8
LEVEL100
   6
CONTINUOUS
  62
7
  10
 816.300
  20
 20.0000
  30
0.0
  11
 50.0000
  21
 20.0000
  31
0.0
   0
LINE
   8
LEVEL100
   6
CONTINUOUS
  62
7
  10
 50.0000
  20
 558.400
  30
0.0
  11
 150.300
  21
 558.400
  31
0.0
   0
LINE
   8
LEVEL100
   6
CONTINUOUS
  62
7
  10
 150.300
  20
 558.400
  30
0.0
  11
 150.300
  21
 576.000
  31
0.0
   0
TEXT
   8
LEVEL100
  62
7
  10
 148.300
  20
 572.200
  30
0.0
  40
 10.0000
   1
ＯＪ．
  50
 180.000
  41
 0.900000
   7
STANDARD
   0
LINE
   8
LEVEL100
   6
CONTINUOUS
  62
7
  10
 114.300
  20
 568.200
  30
0.0
  11
 108.300
  21
 568.200
  31
0.0
   0
LINE
   8
LEVEL100
   6
CONTINUOUS
  62
7
  10
 108.300
  20
 568.200
  30
0.0
  11
 108.300
  21
 566.200
  31
0.0
   0
LINE
   8
LEVEL100
   6
CONTINUOUS
  62
7
  10
 108.300
  20
 566.200
  30
0.0
  11
 114.300
  21
 566.200
  31
0.0
   0
LINE
   8
LEVEL100
   6
CONTINUOUS
  62
7
  10
 114.300
  20
 566.200
  30
0.0
  11
 114.300
  21
 568.200
  31
0.0
   0
TEXT
   8
LEVEL100
  62
7
  10
 624.500
  20
 116.000
  30
0.0
  40
 8.00000
   1
Ｓ．ＩＭＡＮＩＳＨＩ
  41
 0.625000
   7
STANDARD
   0
LINE
   8
LEVEL001
   6
DASHDOT
  62
1
  10
 157.500
  20
 380.750
  30
0.0
  11
 157.500
  21
 376.250
  31
0.0
   0
LINE
   8
LEVEL001
   6
DASHDOT
  62
1
  10
 166.000
  20
 380.750
  30
0.0
  11
 166.000
  21
 376.250
  31
0.0
   0
LINE
   8
LEVEL001
   6
DASHDOT
  62
1
  10
 202.500
  20
 380.750
  30
0.0
  11
 202.500
  21
 376.250
  31
0.0
   0
LINE
   8
LEVEL001
   6
DASHDOT
  62
1
  10
 194.000
  20
 380.750
  30
0.0
  11
 194.000
  21
 376.250
  31
0.0
   0
ARC
   8
LEVEL001
   6
CONTINUOUS
  62
7
  10
 150.500
  20
 378.000
  30
0.0
  40
 2.00000
  50
 90.0000
  51
 180.000
   0
LINE
   8
LEVEL001
   6
CONTINUOUS
  62
7
  10
 148.500
  20
 378.000
  30
0.0
  11
 148.500
  21
 365.000
  31
0.0
   0
ARC
   8
LEVEL001
   6
CONTINUOUS
  62
7
  10
 209.500
  20
 378.000
  30
0.0
  40
 2.00000
  50
0.0
  51
 90.0000
   0
LINE
   8
LEVEL001
   6
CONTINUOUS
  62
7
  10
 150.500
  20
 380.000
  30
0.0
  11
 209.500
  21
 380.000
  31
0.0
   0
LINE
   8
LEVEL001
   6
CONTINUOUS
  62
7
  10
 211.500
  20
 378.000
  30
0.0
  11
 211.500
  21
 365.000
  31
0.0
   0
LINE
   8
LEVEL001
   6
DASHDOT
  62
1
  10
 180.000
  20
 378.900
  30
0.0
  11
 180.000
  21
 352.900
  31
0.0
   0
LINE
   8
LEVEL001
   6
CONTINUOUS
  62
7
  10
 116.500
  20
 134.000
  30
0.0
  11
 116.500
  21
 144.000
  31
0.0
   0
LINE
   8
LEVEL001
   6
CONTINUOUS
  62
7
  10
 122.000
  20
 144.000
  30
0.0
  11
 122.000
  21
 154.000
  31
0.0
   0
LINE
   8
LEVEL001
   6
CONTINUOUS
  62
7
  10
 122.000
  20
 154.000
  30
0.0
  11
 123.500
  21
 154.000
  31
0.0
   0
LINE
   8
LEVEL001
   6
CONTINUOUS
  62
7
  10
 243.500
  20
 134.000
  30
0.0
  11
 243.500
  21
 144.000
  31
0.0
   0
LINE
   8
LEVEL001
   6
CONTINUOUS
  62
7
  10
 238.000
  20
 144.000
  30
0.0
  11
 238.000
  21
 154.000
  31
0.0
   0
LINE
   8
LEVEL001
   6
CONTINUOUS
  62
7
  10
 238.000
  20
 154.000
  30
0.0
  11
 236.500
  21
 154.000
  31
0.0
   0
ARC
   8
LEVEL001
   6
CONTINUOUS
  62
7
  10
 246.058
  20
 235.784
  30
0.0
  40
 10.0000
  50
 190.482
  51
 265.533
   0
ARC
   8
LEVEL001
   6
CONTINUOUS
  62
7
  10
 251.500
  20
 163.626
  30
0.0
  40
 15.0000
  50
 94.4672
  51
 180.000
   0
LINE
   8
LEVEL001
   6
CONTINUOUS
  62
7
  10
 236.500
  20
 154.000
  30
0.0
  11
 236.500
  21
 163.626
  31
0.0
   0
LINE
   8
LEVEL001
   6
CONTINUOUS
  62
7
  10
 266.506
  20
 224.156
  30
0.0
  11
 268.500
  21
 222.000
  31
0.0
   0
LINE
   8
LEVEL001
   6
CONTINUOUS
  62
7
  10
 245.279
  20
 225.814
  30
0.0
  11
 266.506
  21
 224.156
  31
0.0
   0
LINE
   8
LEVEL001
   6
CONTINUOUS
  62
7
  10
 268.500
  20
 182.000
  30
0.0
  11
 266.506
  21
 179.844
  31
0.0
   0
LINE
   8
LEVEL001
   6
CONTINUOUS
  62
7
  10
 250.332
  20
 178.581
  30
0.0
  11
 266.506
  21
 179.844
  31
0.0
   0
LINE
   8
LEVEL001
   6
CONTINUOUS
  62
7
  10
 266.506
  20
 179.844
  30
0.0
  11
 236.500
  21
 161.500
  31
0.0
   0
LINE
   8
LEVEL001
   6
CONTINUOUS
  62
7
  10
 218.000
  20
 363.000
  30
0.0
  11
 220.000
  21
 363.000
  31
0.0
   0
ARC
   8
LEVEL001
   6
CONTINUOUS
  62
7
  10
 94.8208
  20
 232.351
  30
0.0
  40
 40.0000
  50
 331.968
  51
 355.352
   0
ARC
   8
LEVEL001
   6
CONTINUOUS
  62
7
  10
 144.000
  20
 363.000
  30
0.0
  40
 2.00000
  50
 90.0000
  51
 180.000
   0
ARC
   8
LEVEL001
   6
CONTINUOUS
  62
7
  10
 216.000
  20
 363.000
  30
0.0
  40
 2.00000
  50
0.0
  51
 90.0000
   0
LINE
   8
LEVEL001
   6
CONTINUOUS
  62
7
  10
 142.000
  20
 363.000
  30
0.0
  11
 142.000
  21
 352.000
  31
0.0
   0
ARC
   8
LEVEL001
   6
CONTINUOUS
  62
7
  10
 142.376
  20
 348.344
  30
0.0
  40
 2.00000
  50
 355.351
  51
 66.0531
   0
LINE
   8
LEVEL001
   6
CONTINUOUS
  62
7
  10
 134.689
  20
 229.110
  30
0.0
  11
 144.370
  21
 348.182
  31
0.0
   0
ARC
   8
LEVEL001
   6
CONTINUOUS
  62
7
  10
 144.000
  20
 352.000
  30
0.0
  40
 2.00000
  50
 180.000
  51
 246.053
   0
LINE
   8
LEVEL001
   6
CONTINUOUS
  62
7
  10
 220.000
  20
 363.000
  30
0.0
  11
 220.000
  21
 327.000
  31
0.0
   0
ARC
   8
LEVEL001
   6
CONTINUOUS
  62
7
  10
 219.655
  20
 323.358
  30
0.0
  40
 2.00000
  50
 114.440
  51
 184.648
   0
ARC
   8
LEVEL001
   6
CONTINUOUS
  62
7
  10
 218.000
  20
 327.000
  30
0.0
  40
 2.00000
  50
 294.439
  51
 0.115620E-9
   0
ARC
   8
LEVEL001
   6
CONTINUOUS
  62
7
  10
 240.033
  20
 257.813
  30
0.0
  40
 17.0000
  50
 184.648
  51
 233.272
   0
ARC
   8
LEVEL001
   6
CONTINUOUS
  62
7
  10
 220.000
  20
 230.963
  30
0.0
  40
 16.5000
  50
 10.4820
  51
 53.2725
   0
ARC
   8
LEVEL001
   6
CONTINUOUS
  62
7
  10
 312.884
  20
 292.989
  30
0.0
  40
 83.0000
  50
 192.844
  51
 236.029
   0
LINE
   8
LEVEL001
   6
CONTINUOUS
  62
7
  10
 220.000
  20
 327.000
  30
0.0
  11
 231.961
  21
 274.539
  31
0.0
   0
LINE
   8
LEVEL001
   6
CONTINUOUS
  62
7
  10
 220.000
  20
 361.000
  30
0.0
  11
 220.000
  21
 351.000
  31
0.0
   0
LINE
   8
LEVEL001
   6
CONTINUOUS
  62
7
  10
 220.000
  20
 351.000
  30
0.0
  11
 225.700
  21
 351.000
  31
0.0
   0
LINE
   8
LEVEL001
   6
CONTINUOUS
  62
7
  10
 225.700
  20
 351.000
  30
0.0
  11
 226.000
  21
 351.520
  31
0.0
   0
LINE
   8
LEVEL001
   6
CONTINUOUS
  62
7
  10
 226.000
  20
 351.520
  30
0.0
  11
 226.000
  21
 360.480
  31
0.0
   0
LINE
   8
LEVEL001
   6
CONTINUOUS
  62
7
  10
 226.000
  20
 360.480
  30
0.0
  11
 225.700
  21
 361.000
  31
0.0
   0
LINE
   8
LEVEL001
   6
CONTINUOUS
  62
7
  10
 225.700
  20
 361.000
  30
0.0
  11
 220.000
  21
 361.000
  31
0.0
   0
LINE
   8
LEVEL001
   6
CONTINUOUS
  62
7
  10
 225.700
  20
 361.000
  30
0.0
  11
 225.700
  21
 351.000
  31
0.0
   0
LINE
   8
LEVEL001
   6
CONTINUOUS
  62
7
  10
 220.000
  20
 342.000
  30
0.0
  11
 220.000
  21
 332.000
  31
0.0
   0
LINE
   8
LEVEL001
   6
CONTINUOUS
  62
7
  10
 220.000
  20
 332.000
  30
0.0
  11
 225.700
  21
 332.000
  31
0.0
   0
LINE
   8
LEVEL001
   6
CONTINUOUS
  62
7
  10
 225.700
  20
 332.000
  30
0.0
  11
 226.000
  21
 332.520
  31
0.0
   0
LINE
   8
LEVEL001
   6
CONTINUOUS
  62
7
  10
 226.000
  20
 332.520
  30
0.0
  11
 226.000
  21
 341.480
  31
0.0
   0
LINE
   8
LEVEL001
   6
CONTINUOUS
  62
7
  10
 226.000
  20
 341.480
  30
0.0
  11
 225.700
  21
 342.000
  31
0.0
   0
LINE
   8
LEVEL001
   6
CONTINUOUS
  62
7
  10
 225.700
  20
 342.000
  30
0.0
  11
 220.000
  21
 342.000
  31
0.0
   0
LINE
   8
LEVEL001
   6
CONTINUOUS
  62
7
  10
 225.700
  20
 342.000
  30
0.0
  11
 225.700
  21
 332.000
  31
0.0
   0
LINE
   8
LEVEL001
   6
DASHDOT
  62
1
  10
 229.000
  20
 356.000
  30
0.0
  11
 200.000
  21
 356.000
  31
0.0
   0
LINE
   8
LEVEL001
   6
DASHDOT
  62
1
  10
 229.000
  20
 337.000
  30
0.0
  11
 200.000
  21
 337.000
  31
0.0
   0
LINE
   8
LEVEL001
   6
DASHDOT
  62
1
  10
 447.500
  20
 380.750
  30
0.0
  11
 447.500
  21
 376.250
  31
0.0
   0
LINE
   8
LEVEL001
   6
DASHDOT
  62
1
  10
 456.000
  20
 380.750
  30
0.0
  11
 456.000
  21
 376.250
  31
0.0
   0
LINE
   8
LEVEL001
   6
DASHDOT
  62
1
  10
 492.500
  20
 380.750
  30
0.0
  11
 492.500
  21
 376.250
  31
0.0
   0
LINE
   8
LEVEL001
   6
DASHDOT
  62
1
  10
 484.000
  20
 380.750
  30
0.0
  11
 484.000
  21
 376.250
  31
0.0
   0
ARC
   8
LEVEL001
   6
CONTINUOUS
  62
7
  10
 440.500
  20
 378.000
  30
0.0
  40
 2.00000
  50
 90.0000
  51
 180.000
   0
LINE
   8
LEVEL001
   6
CONTINUOUS
  62
7
  10
 438.500
  20
 378.000
  30
0.0
  11
 438.500
  21
 365.000
  31
0.0
   0
ARC
   8
LEVEL001
   6
CONTINUOUS
  62
7
  10
 499.500
  20
 378.000
  30
0.0
  40
 2.00000
  50
0.0
  51
 90.0000
   0
LINE
   8
LEVEL001
   6
CONTINUOUS
  62
7
  10
 440.500
  20
 380.000
  30
0.0
  11
 499.500
  21
 380.000
  31
0.0
   0
LINE
   8
LEVEL001
   6
CONTINUOUS
  62
7
  10
 501.500
  20
 378.000
  30
0.0
  11
 501.500
  21
 365.000
  31
0.0
   0
LINE
   8
LEVEL001
   6
CONTINUOUS
  62
7
  10
 406.500
  20
 134.000
  30
0.0
  11
 406.500
  21
 144.000
  31
0.0
   0
LINE
   8
LEVEL001
   6
CONTINUOUS
  62
7
  10
 412.000
  20
 144.000
  30
0.0
  11
 412.000
  21
 154.000
  31
0.0
   0
ARC
   8
LEVEL001
   6
CONTINUOUS
  62
7
  10
 384.821
  20
 232.351
  30
0.0
  40
 40.0000
  50
 331.968
  51
 355.352
   0
ARC
   8
LEVEL001
   6
CONTINUOUS
  62
7
  10
 470.000
  20
 187.000
  30
0.0
  40
 56.5000
  50
 151.968
  51
 180.000
   0
ARC
   8
LEVEL001
   6
CONTINUOUS
  62
7
  10
 434.000
  20
 363.000
  30
0.0
  40
 2.00000
  50
 90.0000
  51
 180.000
   0
LINE
   8
LEVEL001
   6
CONTINUOUS
  62
7
  10
 432.000
  20
 363.000
  30
0.0
  11
 432.000
  21
 352.000
  31
0.0
   0
ARC
   8
LEVEL001
   6
CONTINUOUS
  62
7
  10
 432.376
  20
 348.344
  30
0.0
  40
 2.00000
  50
 355.351
  51
 66.0531
   0
ARC
   8
LEVEL001
   6
CONTINUOUS
  62
7
  10
 434.000
  20
 352.000
  30
0.0
  40
 2.00000
  50
 180.000
  51
 246.053
   0
LINE
   8
LEVEL001
   6
CONTINUOUS
  62
7
  10
 533.500
  20
 134.000
  30
0.0
  11
 533.500
  21
 144.000
  31
0.0
   0
LINE
   8
LEVEL001
   6
CONTINUOUS
  62
7
  10
 528.000
  20
 144.000
  30
0.0
  11
 528.000
  21
 154.000
  31
0.0
   0
ARC
   8
LEVEL001
   6
CONTINUOUS
  62
7
  10
 555.179
  20
 232.351
  30
0.0
  40
 40.0000
  50
 184.648
  51
 208.032
   0
ARC
   8
LEVEL001
   6
CONTINUOUS
  62
7
  10
 506.000
  20
 363.000
  30
0.0
  40
 2.00000
  50
0.0
  51
 90.0000
   0
LINE
   8
LEVEL001
   6
CONTINUOUS
  62
7
  10
 508.000
  20
 363.000
  30
0.0
  11
 508.000
  21
 352.000
  31
0.0
   0
ARC
   8
LEVEL001
   6
CONTINUOUS
  62
7
  10
 507.624
  20
 348.344
  30
0.0
  40
 2.00000
  50
 113.947
  51
 184.649
   0
ARC
   8
LEVEL001
   6
CONTINUOUS
  62
7
  10
 506.000
  20
 352.000
  30
0.0
  40
 2.00000
  50
 293.947
  51
 0.272154E-4
   0
LINE
   8
LEVEL001
   6
CONTINUOUS
  62
7
  10
 508.000
  20
 352.000
  30
0.0
  11
 524.472
  21
 202.000
  31
0.0
   0
LINE
   8
LEVEL001
   6
CONTINUOUS
  62
7
  10
 434.000
  20
 365.000
  30
0.0
  11
 506.000
  21
 365.000
  31
0.0
   0
LINE
   8
LEVEL001
   6
CONTINUOUS
  62
7
  10
 470.000
  20
 358.887
  30
0.0
  11
 472.500
  21
 357.443
  31
0.0
   0
LINE
   8
LEVEL001
   6
CONTINUOUS
  62
7
  10
 472.500
  20
 357.443
  30
0.0
  11
 472.500
  21
 354.557
  31
0.0
   0
LINE
   8
LEVEL001
   6
CONTINUOUS
  62
7
  10
 472.500
  20
 354.557
  30
0.0
  11
 470.000
  21
 353.113
  31
0.0
   0
LINE
   8
LEVEL001
   6
CONTINUOUS
  62
7
  10
 470.000
  20
 353.113
  30
0.0
  11
 467.500
  21
 354.557
  31
0.0
   0
LINE
   8
LEVEL001
   6
CONTINUOUS
  62
7
  10
 467.500
  20
 354.557
  30
0.0
  11
 467.500
  21
 357.443
  31
0.0
   0
LINE
   8
LEVEL001
   6
CONTINUOUS
  62
7
  10
 467.500
  20
 357.443
  30
0.0
  11
 470.000
  21
 358.887
  31
0.0
   0
CIRCLE
   8
LEVEL001
   6
CONTINUOUS
  62
7
  10
 470.000
  20
 356.000
  30
0.0
  40
 5.00000
   0
CIRCLE
   8
LEVEL001
   6
CONTINUOUS
  62
7
  10
 470.000
  20
 356.000
  30
0.0
  40
 4.48038
   0
LINE
   8
LEVEL001
   6
DASHDOT
  62
1
  10
 478.000
  20
 356.000
  30
0.0
  11
 462.000
  21
 356.000
  31
0.0
   0
LINE
   8
LEVEL001
   6
CONTINUOUS
  62
7
  10
 470.000
  20
 339.887
  30
0.0
  11
 472.500
  21
 338.443
  31
0.0
   0
LINE
   8
LEVEL001
   6
CONTINUOUS
  62
7
  10
 472.500
  20
 338.443
  30
0.0
  11
 472.500
  21
 335.557
  31
0.0
   0
LINE
   8
LEVEL001
   6
CONTINUOUS
  62
7
  10
 472.500
  20
 335.557
  30
0.0
  11
 470.000
  21
 334.113
  31
0.0
   0
LINE
   8
LEVEL001
   6
CONTINUOUS
  62
7
  10
 470.000
  20
 334.113
  30
0.0
  11
 467.500
  21
 335.557
  31
0.0
   0
LINE
   8
LEVEL001
   6
CONTINUOUS
  62
7
  10
 467.500
  20
 335.557
  30
0.0
  11
 467.500
  21
 338.443
  31
0.0
   0
LINE
   8
LEVEL001
   6
CONTINUOUS
  62
7
  10
 467.500
  20
 338.443
  30
0.0
  11
 470.000
  21
 339.887
  31
0.0
   0
CIRCLE
   8
LEVEL001
   6
CONTINUOUS
  62
7
  10
 470.000
  20
 337.000
  30
0.0
  40
 5.00000
   0
CIRCLE
   8
LEVEL001
   6
CONTINUOUS
  62
7
  10
 470.000
  20
 337.000
  30
0.0
  40
 4.48038
   0
LINE
   8
LEVEL001
   6
DASHDOT
  62
1
  10
 478.000
  20
 337.000
  30
0.0
  11
 462.000
  21
 337.000
  31
0.0
   0
ARC
   8
LEVEL001
   6
CONTINUOUS
  62
7
  10
 457.000
  20
 327.000
  30
0.0
  40
 2.00000
  50
 180.000
  51
 270.000
   0
LINE
   8
LEVEL001
   6
CONTINUOUS
  62
7
  10
 455.000
  20
 363.000
  30
0.0
  11
 455.000
  21
 327.000
  31
0.0
   0
ARC
   8
LEVEL001
   6
CONTINUOUS
  62
7
  10
 483.000
  20
 327.000
  30
0.0
  40
 2.00000
  50
 270.000
  51
0.0
   0
LINE
   8
LEVEL001
   6
CONTINUOUS
  62
7
  10
 485.000
  20
 363.000
  30
0.0
  11
 485.000
  21
 327.000
  31
0.0
   0
LINE
   8
LEVEL001
   6
CONTINUOUS
  62
7
  10
 455.000
  20
 363.000
  30
0.0
  11
 485.000
  21
 363.000
  31
0.0
   0
LINE
   8
LEVEL001
   6
CONTINUOUS
  62
7
  10
 434.000
  20
 350.000
  30
0.0
  11
 455.000
  21
 350.000
  31
0.0
   0
LINE
   8
LEVEL001
   6
CONTINUOUS
  62
7
  10
 485.000
  20
 350.000
  30
0.0
  11
 506.000
  21
 350.000
  31
0.0
   0
LINE
   8
LEVEL001
   6
CONTINUOUS
  62
7
  10
 415.557
  20
 146.000
  30
0.0
  11
 415.557
  21
 134.000
  31
0.0
   0
LINE
   8
LEVEL001
   6
CONTINUOUS
  62
7
  10
 406.500
  20
 144.000
  30
0.0
  11
 415.557
  21
 144.000
  31
0.0
   0
LINE
   8
LEVEL001
   6
CONTINUOUS
  62
7
  10
 524.443
  20
 146.000
  30
0.0
  11
 524.443
  21
 134.000
  31
0.0
   0
LINE
   8
LEVEL001
   6
CONTINUOUS
  62
7
  10
 524.443
  20
 144.000
  30
0.0
  11
 533.500
  21
 144.000
  31
0.0
   0
ARC
   8
LEVEL001
   6
CONTINUOUS
  62
7
  10
 400.036
  20
 204.000
  30
0.0
  40
 15.5000
  50
 187.701
  51
 346.698
   0
ARC
   8
LEVEL001
   6
CONTINUOUS
  62
7
  10
 400.550
  20
 204.000
  30
0.0
  40
 15.0000
  50
 187.804
  51
 346.245
   0
ARC
   8
LEVEL001
   6
CONTINUOUS
  62
7
  10
 412.381
  20
 269.000
  30
0.0
  40
 15.5000
  50
 355.205
  51
 150.790
   0
ARC
   8
LEVEL001
   6
CONTINUOUS
  62
7
  10
 503.587
  20
 218.121
  30
0.0
  40
 119.000
  50
 150.710
  51
 187.804
   0
ARC
   8
LEVEL001
   6
CONTINUOUS
  62
7
  10
 503.593
  20
 218.004
  30
0.0
  40
 120.000
  50
 150.791
  51
 187.701
   0
ARC
   8
LEVEL001
   6
CONTINUOUS
  62
7
  10
 503.587
  20
 218.121
  30
0.0
  40
 134.000
  50
 150.602
  51
 187.395
   0
ARC
   8
LEVEL001
   6
CONTINUOUS
  62
7
  10
 503.587
  20
 218.121
  30
0.0
  40
 125.000
  50
 150.664
  51
 187.445
   0
ARC
   8
LEVEL001
   6
CONTINUOUS
  62
7
  10
 412.883
  20
 269.000
  30
0.0
  40
 15.0000
  50
 355.045
  51
 150.710
   0
ARC
   8
LEVEL001
   6
CONTINUOUS
  62
7
  10
 418.893
  20
 305.930
  30
0.0
  40
 8.00000
  50
 260.000
  51
 353.733
   0
LINE
   8
LEVEL001
   6
CONTINUOUS
  62
7
  10
 432.000
  20
 352.000
  30
0.0
  11
 426.845
  21
 305.057
  31
0.0
   0
ARC
   8
LEVEL001
   6
CONTINUOUS
  62
7
  10
 412.381
  20
 269.000
  30
0.0
  40
 29.5000
  50
 80.0003
  51
 149.745
   0
ARC
   8
LEVEL001
   6
CONTINUOUS
  62
7
  10
 424.730
  20
 291.311
  30
0.0
  40
 5.00000
  50
 241.036
  51
 355.352
   0
ARC
   8
LEVEL001
   6
CONTINUOUS
  62
7
  10
 412.381
  20
 269.000
  30
0.0
  40
 20.5000
  50
 61.0362
  51
 149.745
   0
LINE
   8
LEVEL001
   6
CONTINUOUS
  62
7
  10
 424.689
  20
 229.110
  30
0.0
  11
 434.370
  21
 348.182
  31
0.0
   0
ARC
   8
LEVEL001
   6
CONTINUOUS
  62
7
  10
 401.500
  20
 162.526
  30
0.0
  40
 12.0000
  50
 0.237194E-4
  51
 92.0220
   0
ARC
   8
LEVEL001
   6
CONTINUOUS
  62
7
  10
 400.036
  20
 204.000
  30
0.0
  40
 29.5000
  50
 186.082
  51
 272.022
   0
ARC
   8
LEVEL001
   6
CONTINUOUS
  62
7
  10
 408.500
  20
 179.946
  30
0.0
  40
 5.00000
  50
 0.195413E-11
  51
 109.386
   0
ARC
   8
LEVEL001
   6
CONTINUOUS
  62
7
  10
 400.036
  20
 204.000
  30
0.0
  40
 20.5000
  50
 185.815
  51
 289.386
   0
LINE
   8
LEVEL001
   6
CONTINUOUS
  62
7
  10
 413.500
  20
 154.000
  30
0.0
  11
 413.500
  21
 187.000
  31
0.0
   0
ARC
   8
LEVEL001
   6
CONTINUOUS
  62
7
  10
 474.500
  20
 323.000
  30
0.0
  40
 2.00000
  50
 90.0000
  51
 180.000
   0
ARC
   8
LEVEL001
   6
CONTINUOUS
  62
7
  10
 465.500
  20
 323.000
  30
0.0
  40
 2.00000
  50
0.0
  51
 90.0000
   0
LINE
   8
LEVEL001
   6
CONTINUOUS
  62
7
  10
 457.000
  20
 325.000
  30
0.0
  11
 483.000
  21
 325.000
  31
0.0
   0
ARC
   8
LEVEL001
   6
CONTINUOUS
  62
7
  10
 125.500
  20
 127.000
  30
0.0
  40
 2.00000
  50
 180.000
  51
 270.000
   0
LINE
   8
LEVEL001
   6
CONTINUOUS
  62
7
  10
 123.500
  20
 134.000
  30
0.0
  11
 123.500
  21
 127.000
  31
0.0
   0
ARC
   8
LEVEL001
   6
CONTINUOUS
  62
7
  10
 234.500
  20
 127.000
  30
0.0
  40
 2.00000
  50
 270.000
  51
0.0
   0
LINE
   8
LEVEL001
   6
CONTINUOUS
  62
7
  10
 125.500
  20
 125.000
  30
0.0
  11
 234.500
  21
 125.000
  31
0.0
   0
LINE
   8
LEVEL001
   6
CONTINUOUS
  62
7
  10
 236.500
  20
 134.000
  30
0.0
  11
 236.500
  21
 127.000
  31
0.0
   0
LINE
   8
LEVEL001
   6
DASHDOT
  62
1
  10
 195.000
  20
 128.750
  30
0.0
  11
 195.000
  21
 124.250
  31
0.0
   0
LINE
   8
LEVEL001
   6
DASHDOT
  62
1
  10
 209.000
  20
 128.750
  30
0.0
  11
 209.000
  21
 124.250
  31
0.0
   0
LINE
   8
LEVEL001
   6
DASHDOT
  62
1
  10
 223.500
  20
 128.750
  30
0.0
  11
 223.500
  21
 124.250
  31
0.0
   0
LINE
   8
LEVEL001
   6
DASHDOT
  62
1
  10
 165.000
  20
 128.750
  30
0.0
  11
 165.000
  21
 124.250
  31
0.0
   0
LINE
   8
LEVEL001
   6
DASHDOT
  62
1
  10
 151.000
  20
 128.750
  30
0.0
  11
 151.000
  21
 124.250
  31
0.0
   0
LINE
   8
LEVEL001
   6
DASHDOT
  62
1
  10
 136.500
  20
 128.750
  30
0.0
  11
 136.500
  21
 124.250
  31
0.0
   0
LINE
   8
LEVEL001
   6
DASHDOT
  62
1
  10
 180.000
  20
 390.000
  30
0.0
  11
 180.000
  21
 120.000
  31
0.0
   0
LINE
   8
LEVEL001
   6
DASHDOT
  62
1
  10
 180.000
  20
 202.000
  30
0.0
  11
 320.000
  21
 202.000
  31
0.0
   0
LINE
   8
LEVEL001
   6
DASHDOT
  62
1
  10
 470.000
  20
 390.000
  30
0.0
  11
 470.000
  21
 120.000
  31
0.0
   0
ARC
   8
LEVEL001
   6
CONTINUOUS
  62
7
  10
 415.500
  20
 127.000
  30
0.0
  40
 2.00000
  50
 180.000
  51
 270.000
   0
LINE
   8
LEVEL001
   6
CONTINUOUS
  62
7
  10
 413.500
  20
 134.000
  30
0.0
  11
 413.500
  21
 127.000
  31
0.0
   0
LINE
   8
LEVEL001
   6
CONTINUOUS
  62
7
  10
 415.500
  20
 125.000
  30
0.0
  11
 524.500
  21
 125.000
  31
0.0
   0
ARC
   8
LEVEL001
   6
CONTINUOUS
  62
7
  10
 524.500
  20
 127.000
  30
0.0
  40
 2.00000
  50
 270.000
  51
 0.814222E-12
   0
LINE
   8
LEVEL001
   6
CONTINUOUS
  62
7
  10
 526.500
  20
 134.000
  30
0.0
  11
 526.500
  21
 127.000
  31
0.0
   0
LINE
   8
LEVEL001
   6
DASHDOT
  62
1
  10
 485.000
  20
 128.750
  30
0.0
  11
 485.000
  21
 124.250
  31
0.0
   0
LINE
   8
LEVEL001
   6
DASHDOT
  62
1
  10
 499.000
  20
 128.750
  30
0.0
  11
 499.000
  21
 124.250
  31
0.0
   0
LINE
   8
LEVEL001
   6
DASHDOT
  62
1
  10
 513.500
  20
 128.750
  30
0.0
  11
 513.500
  21
 124.250
  31
0.0
   0
LINE
   8
LEVEL001
   6
DASHDOT
  62
1
  10
 455.000
  20
 128.750
  30
0.0
  11
 455.000
  21
 124.250
  31
0.0
   0
LINE
   8
LEVEL001
   6
DASHDOT
  62
1
  10
 441.000
  20
 128.750
  30
0.0
  11
 441.000
  21
 124.250
  31
0.0
   0
LINE
   8
LEVEL001
   6
DASHDOT
  62
1
  10
 426.500
  20
 128.750
  30
0.0
  11
 426.500
  21
 124.250
  31
0.0
   0
LINE
   8
LEVEL001
   6
CONTINUOUS
  62
7
  10
 406.500
  20
 134.000
  30
0.0
  11
 453.000
  21
 134.000
  31
0.0
   0
CIRCLE
   8
LEVEL001
   6
CONTINUOUS
  62
7
  10
 470.000
  20
 202.000
  30
0.0
  40
 8.50000
   0
LINE
   8
LEVEL001
   6
CONTINUOUS
  62
7
  10
 494.820
  20
 134.000
  30
0.0
  11
 533.500
  21
 134.000
  31
0.0
   0
LINE
   8
LEVEL001
   6
DASHDOT
  62
1
  10
 540.000
  20
 179.500
  30
0.0
  11
 410.000
  21
 179.500
  31
0.0
   0
ARC
   8
LEVEL001
   6
CONTINUOUS
  62
7
  10
 470.000
  20
 187.000
  30
0.0
  40
 56.5000
  50
 4.82265
  51
 28.0319
   0
ARC
   8
LEVEL001
   6
CONTINUOUS
  62
7
  10
 433.778
  20
 206.500
  30
0.0
  40
 2.00000
  50
 172.918
  51
 270.000
   0
LINE
   8
LEVEL001
   6
CONTINUOUS
  62
7
  10
 433.778
  20
 204.500
  30
0.0
  11
 443.512
  21
 204.500
  31
0.0
   0
ARC
   8
LEVEL001
   6
CONTINUOUS
  62
7
  10
 506.222
  20
 206.500
  30
0.0
  40
 2.00000
  50
 270.000
  51
 7.08207
   0
LINE
   8
LEVEL001
   6
CONTINUOUS
  62
7
  10
 496.488
  20
 204.500
  30
0.0
  11
 506.222
  21
 204.500
  31
0.0
   0
ARC
   8
LEVEL001
   6
CONTINUOUS
  62
7
  10
 474.500
  20
 242.249
  30
0.0
  40
 2.00000
  50
 180.000
  51
 263.620
   0
ARC
   8
LEVEL001
   6
CONTINUOUS
  62
7
  10
 465.500
  20
 242.249
  30
0.0
  40
 2.00000
  50
 276.380
  51
 0.201927E-9
   0
CIRCLE
   8
LEVEL001
   6
CONTINUOUS
  62
7
  10
 473.000
  20
 212.100
  30
0.0
  40
 0.850006
   0
CIRCLE
   8
LEVEL001
   6
CONTINUOUS
  62
7
  10
 467.000
  20
 212.100
  30
0.0
  40
 0.850006
   0
LINE
   8
LEVEL001
   6
CONTINUOUS
  62
7
  10
 469.000
  20
 213.800
  30
0.0
  11
 469.000
  21
 210.441
  31
0.0
   0
LINE
   8
LEVEL001
   6
CONTINUOUS
  62
7
  10
 471.000
  20
 213.800
  30
0.0
  11
 471.000
  21
 210.441
  31
0.0
   0
ARC
   8
LEVEL001
   6
CONTINUOUS
  62
7
  10
 466.000
  20
 212.800
  30
0.0
  40
 1.00000
  50
 90.0000
  51
 180.000
   0
LINE
   8
LEVEL001
   6
CONTINUOUS
  62
7
  10
 466.000
  20
 213.800
  30
0.0
  11
 469.000
  21
 213.800
  31
0.0
   0
ARC
   8
LEVEL001
   6
CONTINUOUS
  62
7
  10
 474.000
  20
 212.800
  30
0.0
  40
 1.00000
  50
0.0
  51
 90.0000
   0
LINE
   8
LEVEL001
   6
CONTINUOUS
  62
7
  10
 471.000
  20
 213.800
  30
0.0
  11
 474.000
  21
 213.800
  31
0.0
   0
ARC
   8
LEVEL001
   6
CONTINUOUS
  62
7
  10
 476.000
  20
 210.480
  30
0.0
  40
 1.00000
  50
 180.000
  51
 236.252
   0
LINE
   8
LEVEL001
   6
CONTINUOUS
  62
7
  10
 475.000
  20
 212.800
  30
0.0
  11
 475.000
  21
 210.480
  31
0.0
   0
ARC
   8
LEVEL001
   6
CONTINUOUS
  62
7
  10
 464.000
  20
 210.480
  30
0.0
  40
 1.00000
  50
 303.748
  51
0.0
   0
LINE
   8
LEVEL001
   6
CONTINUOUS
  62
7
  10
 465.000
  20
 212.800
  30
0.0
  11
 465.000
  21
 210.480
  31
0.0
   0
ARC
   8
LEVEL001
   6
CONTINUOUS
  62
7
  10
 470.000
  20
 201.500
  30
0.0
  40
 9.80000
  50
 123.749
  51
 56.2509
   0
LINE
   8
LEVEL001
   6
DASHDOT
  62
1
  10
 430.000
  20
 202.000
  30
0.0
  11
 510.000
  21
 202.000
  31
0.0
   0
LINE
   8
LEVEL003
   6
CONTINUOUS
  62
3
  10
 148.500
  20
 380.000
  30
0.0
  11
 148.500
  21
 404.000
  31
0.0
   0
LINE
   8
LEVEL003
   6
CONTINUOUS
  62
3
  10
 211.500
  20
 380.000
  30
0.0
  11
 211.500
  21
 404.000
  31
0.0
   0
LINE
   8
LEVEL003
   6
CONTINUOUS
  62
3
  10
 148.500
  20
 400.000
  30
0.0
  11
 211.500
  21
 400.000
  31
0.0
   0
LINE
   8
LEVEL003
   6
CONTINUOUS
  62
3
  10
 154.500
  20
 399.000
  30
0.0
  11
 148.500
  21
 400.000
  31
0.0
   0
LINE
   8
LEVEL003
   6
CONTINUOUS
  62
3
  10
 148.500
  20
 400.000
  30
0.0
  11
 154.500
  21
 401.000
  31
0.0
   0
LINE
   8
LEVEL003
   6
CONTINUOUS
  62
3
  10
 148.500
  20
 400.000
  30
0.0
  11
 154.500
  21
 400.000
  31
0.0
   0
LINE
   8
LEVEL003
   6
CONTINUOUS
  62
3
  10
 205.500
  20
 401.000
  30
0.0
  11
 211.500
  21
 400.000
  31
0.0
   0
LINE
   8
LEVEL003
   6
CONTINUOUS
  62
3
  10
 211.500
  20
 400.000
  30
0.0
  11
 205.500
  21
 399.000
  31
0.0
   0
LINE
   8
LEVEL003
   6
CONTINUOUS
  62
3
  10
 211.500
  20
 400.000
  30
0.0
  11
 205.500
  21
 400.000
  31
0.0
   0
TEXT
   8
LEVEL003
  62
3
  10
 172.000
  20
 396.267
  30
0.0
  40
 8.00000
   1
%%c63
   7
STANDARD
  72
1
  11
 180.000
  21
 401.600
  31
0.0
  73
2
   0
LINE
   8
LEVEL001
   6
DASHDOT
  62
1
  10
 225.500
  20
 139.000
  30
0.0
  11
 246.500
  21
 139.000
  31
0.0
   0
LINE
   8
LEVEL003
   6
CONTINUOUS
  62
3
  10
 148.500
  20
 380.000
  30
0.0
  11
 76.0000
  21
 380.000
  31
0.0
   0
LINE
   8
LEVEL003
   6
CONTINUOUS
  62
3
  10
 123.500
  20
 125.000
  30
0.0
  11
 76.0000
  21
 125.000
  31
0.0
   0
LINE
   8
LEVEL003
   6
CONTINUOUS
  62
3
  10
 80.0000
  20
 380.000
  30
0.0
  11
 80.0000
  21
 125.000
  31
0.0
   0
LINE
   8
LEVEL003
   6
CONTINUOUS
  62
3
  10
 79.0000
  20
 374.000
  30
0.0
  11
 80.0000
  21
 380.000
  31
0.0
   0
LINE
   8
LEVEL003
   6
CONTINUOUS
  62
3
  10
 80.0000
  20
 380.000
  30
0.0
  11
 81.0000
  21
 374.000
  31
0.0
   0
LINE
   8
LEVEL003
   6
CONTINUOUS
  62
3
  10
 80.0000
  20
 380.000
  30
0.0
  11
 80.0000
  21
 374.000
  31
0.0
   0
LINE
   8
LEVEL003
   6
CONTINUOUS
  62
3
  10
 81.0000
  20
 131.000
  30
0.0
  11
 80.0000
  21
 125.000
  31
0.0
   0
LINE
   8
LEVEL003
   6
CONTINUOUS
  62
3
  10
 80.0000
  20
 125.000
  30
0.0
  11
 79.0000
  21
 131.000
  31
0.0
   0
LINE
   8
LEVEL003
   6
CONTINUOUS
  62
3
  10
 80.0000
  20
 125.000
  30
0.0
  11
 80.0000
  21
 131.000
  31
0.0
   0
TEXT
   8
LEVEL003
  62
3
  10
 83.7333
  20
 246.500
  30
0.0
  40
 8.00000
   1
255
  50
 90.0000
  41
 0.500000
   7
STANDARD
  72
1
  11
 78.4000
  21
 252.500
  31
0.0
  73
2
   0
LINE
   8
LEVEL003
   6
CONTINUOUS
  62
3
  10
 148.500
  20
 380.000
  30
0.0
  11
 96.0000
  21
 380.000
  31
0.0
   0
LINE
   8
LEVEL003
   6
CONTINUOUS
  62
3
  10
 142.000
  20
 365.000
  30
0.0
  11
 96.0000
  21
 365.000
  31
0.0
   0
LINE
   8
LEVEL003
   6
CONTINUOUS
  62
3
  10
 100.000
  20
 380.000
  30
0.0
  11
 100.000
  21
 365.000
  31
0.0
   0
LINE
   8
LEVEL003
   6
CONTINUOUS
  62
3
  10
 99.0000
  20
 374.000
  30
0.0
  11
 100.000
  21
 380.000
  31
0.0
   0
LINE
   8
LEVEL003
   6
CONTINUOUS
  62
3
  10
 100.000
  20
 380.000
  30
0.0
  11
 101.000
  21
 374.000
  31
0.0
   0
LINE
   8
LEVEL003
   6
CONTINUOUS
  62
3
  10
 100.000
  20
 380.000
  30
0.0
  11
 100.000
  21
 374.000
  31
0.0
   0
LINE
   8
LEVEL003
   6
CONTINUOUS
  62
3
  10
 101.000
  20
 371.000
  30
0.0
  11
 100.000
  21
 365.000
  31
0.0
   0
LINE
   8
LEVEL003
   6
CONTINUOUS
  62
3
  10
 100.000
  20
 365.000
  30
0.0
  11
 99.0000
  21
 371.000
  31
0.0
   0
LINE
   8
LEVEL003
   6
CONTINUOUS
  62
3
  10
 100.000
  20
 365.000
  30
0.0
  11
 100.000
  21
 371.000
  31
0.0
   0
TEXT
   8
LEVEL003
  62
3
  10
 103.733
  20
 368.500
  30
0.0
  40
 8.00000
   1
15
  50
 90.0000
  41
 0.500000
   7
STANDARD
  72
1
  11
 98.4000
  21
 372.500
  31
0.0
  73
2
   0
TEXT
   8
LEVEL020
  62
6
  10
 290.000
  20
 480.000
  30
0.0
  40
 10.0000
   1
ストローク
   7
STANDARD
   0
TEXT
   8
LEVEL020
  62
6
  10
 290.000
  20
 494.000
  30
0.0
  40
 10.0000
   1
揚　　　力
   7
STANDARD
   0
TEXT
   8
LEVEL020
  62
6
  10
 460.000
  20
 480.000
  30
0.0
  40
 10.0000
   1
ｍｍ
  41
 0.700000
   7
STANDARD
   0
LINE
   8
LEVEL020
   6
CONTINUOUS
  62
6
  10
 290.000
  20
 506.000
  30
0.0
  11
 490.000
  21
 506.000
  31
0.0
   0
LINE
   8
LEVEL020
   6
CONTINUOUS
  62
6
  10
 290.000
  20
 492.000
  30
0.0
  11
 490.000
  21
 492.000
  31
0.0
   0
LINE
   8
LEVEL020
   6
CONTINUOUS
  62
6
  10
 290.000
  20
 478.000
  30
0.0
  11
 490.000
  21
 478.000
  31
0.0
   0
TEXT
   8
LEVEL020
  62
6
  10
 290.000
  20
 508.000
  30
0.0
  40
 10.0000
   1
形　　　式
   7
STANDARD
   0
TEXT
   8
LEVEL020
  62
6
  10
 290.000
  20
 522.000
  30
0.0
  40
 10.0000
   1
仕　　　様
   7
STANDARD
   0
LINE
   8
LEVEL020
   6
CONTINUOUS
  62
6
  10
 290.000
  20
 520.000
  30
0.0
  11
 340.000
  21
 520.000
  31
0.0
   0
TEXT
   8
LEVEL020
  62
6
  10
 290.000
  20
 466.000
  30
0.0
  40
 10.0000
   1
最低高さ
   7
STANDARD
   0
TEXT
   8
LEVEL020
  62
6
  10
 460.000
  20
 466.000
  30
0.0
  40
 10.0000
   1
ｍｍ
  41
 0.700000
   7
STANDARD
   0
LINE
   8
LEVEL020
   6
CONTINUOUS
  62
6
  10
 290.000
  20
 464.000
  30
0.0
  11
 490.000
  21
 464.000
  31
0.0
   0
LINE
   8
LEVEL020
   6
CONTINUOUS
  62
6
  10
 290.000
  20
 450.000
  30
0.0
  11
 490.000
  21
 450.000
  31
0.0
   0
LINE
   8
LEVEL020
   6
CONTINUOUS
  62
6
  10
 290.000
  20
 436.000
  30
0.0
  11
 490.000
  21
 436.000
  31
0.0
   0
TEXT
   8
LEVEL020
  62
6
  10
 290.000
  20
 438.000
  30
0.0
  40
 10.0000
   1
付　属　品
   7
STANDARD
   0
TEXT
   8
LEVEL020
  62
6
  10
 404.000
  20
 438.000
  30
0.0
  40
 10.0000
   1
　　　　　　１
  41
 0.700000
   7
STANDARD
   0
TEXT
   8
LEVEL020
  62
6
  10
 460.000
  20
 438.000
  30
0.0
  40
 10.0000
   1
本
  41
 0.500000
   7
STANDARD
   0
TEXT
   8
LEVEL020
  62
6
  10
 404.000
  20
 508.000
  30
0.0
  40
 10.0000
   1
　　　ＪＪ－１５１３
  41
 0.700000
   7
STANDARD
   0
TEXT
   8
LEVEL020
  62
6
  10
 404.000
  20
 480.000
  30
0.0
  40
 10.0000
   1
　　　　１２５
  41
 0.700000
   7
STANDARD
   0
TEXT
   8
LEVEL020
  62
6
  10
 404.000
  20
 466.000
  30
0.0
  40
 10.0000
   1
　　　　２５５
  41
 0.700000
   7
STANDARD
   0
TEXT
   8
LEVEL020
  62
6
  10
 404.000
  20
 452.000
  30
0.0
  40
 10.0000
   1
　　　約　１２
  41
 0.700000
   7
STANDARD
   0
TEXT
   8
LEVEL020
  62
6
  10
 460.000
  20
 452.000
  30
0.0
  40
 10.0000
   1
ｋｇ
  41
 0.700000
   7
STANDARD
   0
TEXT
   8
LEVEL020
  62
6
  10
 347.000
  20
 438.000
  30
0.0
  40
 10.0000
   1
ハンドル棒（%%c２５×６００Ｌ）
  41
 0.600000
   7
STANDARD
   0
TEXT
   8
LEVEL020
  62
6
  10
 404.000
  20
 494.000
  30
0.0
  40
 10.0000
   1
　　　　１５０
  41
 0.700000
   7
STANDARD
   0
TEXT
   8
LEVEL020
  62
6
  10
 460.000
  20
 494.000
  30
0.0
  40
 10.0000
   1
ｋＮ
  41
 0.700000
   7
STANDARD
   0
TEXT
   8
LEVEL020
  62
6
  10
 290.000
  20
 452.000
  30
0.0
  40
 10.0000
   1
質　　　量
   7
STANDARD
   0
ARC
   8
LEVEL001
   6
CONTINUOUS
  62
7
  10
 311.000
  20
 209.500
  30
0.0
  40
 1.00000
  50
0.0
  51
 90.0000
   0
LINE
   8
LEVEL001
   6
CONTINUOUS
  62
7
  10
 309.400
  20
 210.500
  30
0.0
  11
 311.000
  21
 210.500
  31
0.0
   0
LINE
   8
LEVEL001
   6
CONTINUOUS
  62
7
  10
 312.000
  20
 209.500
  30
0.0
  11
 312.000
  21
 194.500
  31
0.0
   0
LINE
   8
LEVEL001
   6
CONTINUOUS
  62
7
  10
 309.400
  20
 213.800
  30
0.0
  11
 309.400
  21
 191.700
  31
0.0
   0
LINE
   8
LEVEL001
   6
CONTINUOUS
  62
7
  10
 308.250
  20
 213.800
  30
0.0
  11
 308.250
  21
 191.700
  31
0.0
   0
ARC
   8
LEVEL001
   6
CONTINUOUS
  62
7
  10
 311.000
  20
 194.500
  30
0.0
  40
 1.00000
  50
 270.000
  51
0.0
   0
LINE
   8
LEVEL001
   6
CONTINUOUS
  62
7
  10
 309.400
  20
 193.500
  30
0.0
  11
 311.000
  21
 193.500
  31
0.0
   0
LINE
   8
LEVEL001
   6
CONTINUOUS
  62
7
  10
 304.950
  20
 219.500
  30
0.0
  11
 305.050
  21
 219.500
  31
0.0
   0
LINE
   8
LEVEL001
   6
CONTINUOUS
  62
7
  10
 304.950
  20
 184.500
  30
0.0
  11
 305.050
  21
 184.500
  31
0.0
   0
LINE
   8
LEVEL001
   6
CONTINUOUS
  62
7
  10
 305.050
  20
 219.500
  30
0.0
  11
 307.050
  21
 219.500
  31
0.0
   0
LINE
   8
LEVEL001
   6
CONTINUOUS
  62
7
  10
 305.050
  20
 184.500
  30
0.0
  11
 307.050
  21
 184.500
  31
0.0
   0
LINE
   8
LEVEL001
   6
CONTINUOUS
  62
7
  10
 308.250
  20
 191.700
  30
0.0
  11
 309.400
  21
 191.700
  31
0.0
   0
LINE
   8
LEVEL001
   6
CONTINUOUS
  62
7
  10
 308.250
  20
 213.800
  30
0.0
  11
 309.400
  21
 213.800
  31
0.0
   0
LINE
   8
LEVEL003
   6
CONTINUOUS
  62
7
  10
 421.000
  20
 195.863
  30
0.0
  11
 421.000
  21
 162.800
  31
0.0
   0
ARC
   8
LEVEL003
   6
CONTINUOUS
  62
7
  10
 422.000
  20
 195.863
  30
0.0
  40
 1.00000
  50
 93.7365
  51
 180.000
   0
LINE
   8
LEVEL003
   6
CONTINUOUS
  62
7
  10
 421.935
  20
 196.861
  30
0.0
  11
 437.813
  21
 197.898
  31
0.0
   0
LINE
   8
LEVEL003
   6
CONTINUOUS
  62
7
  10
 422.591
  20
 196.904
  30
0.0
  11
 422.500
  21
 198.301
  31
0.0
   0
LINE
   8
LEVEL003
   6
CONTINUOUS
  62
7
  10
 422.500
  20
 198.301
  30
0.0
  11
 437.722
  21
 199.295
  31
0.0
   0
LINE
   8
LEVEL003
   6
DASHDOT
  62
1
  10
 429.220
  20
 203.038
  30
0.0
  11
 429.894
  21
 192.725
  31
0.0
   0
ARC
   8
LEVEL003
   6
CONTINUOUS
  62
7
  10
 428.011
  20
 198.534
  30
0.0
  40
 3.00000
  50
 132.419
  51
 181.320
   0
ARC
   8
LEVEL003
   6
CONTINUOUS
  62
7
  10
 429.630
  20
 196.762
  30
0.0
  40
 5.40000
  50
 55.0543
  51
 132.419
   0
ARC
   8
LEVEL003
   6
CONTINUOUS
  62
7
  10
 437.292
  20
 205.881
  30
0.0
  40
 8.00000
  50
 273.736
  51
 352.371
   0
ARC
   8
LEVEL003
   6
CONTINUOUS
  62
7
  10
 470.000
  20
 201.500
  30
0.0
  40
 25.0000
  50
 7.62900
  51
 172.371
   0
ARC
   8
LEVEL003
   6
CONTINUOUS
  62
7
  10
 437.292
  20
 205.881
  30
0.0
  40
 6.60000
  50
 273.736
  51
 352.371
   0
ARC
   8
LEVEL003
   6
CONTINUOUS
  62
7
  10
 470.000
  20
 201.500
  30
0.0
  40
 26.4000
  50
 7.62900
  51
 172.371
   0
ARC
   8
LEVEL003
   6
CONTINUOUS
  62
7
  10
 502.708
  20
 205.881
  30
0.0
  40
 8.00000
  50
 187.629
  51
 266.264
   0
ARC
   8
LEVEL003
   6
CONTINUOUS
  62
7
  10
 502.708
  20
 205.881
  30
0.0
  40
 6.60000
  50
 187.629
  51
 266.264
   0
ARC
   8
LEVEL003
   6
CONTINUOUS
  62
7
  10
 518.000
  20
 195.863
  30
0.0
  40
 1.00000
  50
 0.309404E-10
  51
 86.2635
   0
LINE
   8
LEVEL003
   6
CONTINUOUS
  62
7
  10
 519.000
  20
 195.863
  30
0.0
  11
 519.000
  21
 162.800
  31
0.0
   0
LINE
   8
LEVEL003
   6
CONTINUOUS
  62
7
  10
 502.187
  20
 197.898
  30
0.0
  11
 518.065
  21
 196.861
  31
0.0
   0
LINE
   8
LEVEL003
   6
CONTINUOUS
  62
7
  10
 517.409
  20
 196.904
  30
0.0
  11
 517.500
  21
 198.301
  31
0.0
   0
LINE
   8
LEVEL003
   6
CONTINUOUS
  62
7
  10
 502.278
  20
 199.295
  30
0.0
  11
 517.500
  21
 198.301
  31
0.0
   0
LINE
   8
LEVEL003
   6
DASHDOT
  62
1
  10
 510.780
  20
 203.038
  30
0.0
  11
 510.106
  21
 192.725
  31
0.0
   0
ARC
   8
LEVEL003
   6
CONTINUOUS
  62
7
  10
 510.370
  20
 196.762
  30
0.0
  40
 5.40000
  50
 47.5814
  51
 124.946
   0
ARC
   8
LEVEL003
   6
CONTINUOUS
  62
7
  10
 508.995
  20
 198.730
  30
0.0
  40
 3.00000
  50
 124.946
  51
 173.847
   0
ARC
   8
LEVEL003
   6
CONTINUOUS
  62
7
  10
 511.989
  20
 198.534
  30
0.0
  40
 3.00000
  50
 358.680
  51
 47.5814
   0
ARC
   8
LEVEL003
   6
CONTINUOUS
  62
7
  10
 432.437
  20
 156.800
  30
0.0
  40
 5.00000
  50
 19.0523
  51
 90.0000
   0
LINE
   8
LEVEL003
   6
CONTINUOUS
  62
7
  10
 437.163
  20
 158.432
  30
0.0
  11
 441.548
  21
 145.736
  31
0.0
   0
ARC
   8
LEVEL003
   6
CONTINUOUS
  62
7
  10
 422.000
  20
 162.800
  30
0.0
  40
 1.00000
  50
 180.000
  51
 270.000
   0
ARC
   8
LEVEL003
   6
CONTINUOUS
  62
7
  10
 463.000
  20
 159.000
  30
0.0
  40
 3.00000
  50
 180.000
  51
 270.000
   0
CIRCLE
   8
0
   6
CONTINUOUS
  62
7
  10
 476.523
  20
 162.040
  30
0.0
  40
 3.33333
   0
LINE
   8
0
   6
CONTINUOUS
  62
7
  10
 469.980
  20
 158.706
  30
0.0
  11
 474.214
  21
 166.040
  31
0.0
   0
LINE
   8
0
   6
CONTINUOUS
  62
7
  10
 474.214
  20
 166.040
  30
0.0
  11
 482.682
  21
 166.040
  31
0.0
   0
LINE
   8
0
   6
CONTINUOUS
  62
7
  10
 482.682
  20
 166.040
  30
0.0
  11
 483.644
  21
 167.706
  31
0.0
   0
LINE
   8
0
   6
CONTINUOUS
  62
7
  10
 483.644
  20
 167.706
  30
0.0
  11
 468.510
  21
 167.706
  31
0.0
   0
LINE
   8
0
   6
CONTINUOUS
  62
7
  10
 468.510
  20
 167.706
  30
0.0
  11
 463.313
  21
 158.706
  31
0.0
   0
LINE
   8
0
   6
CONTINUOUS
  62
7
  10
 463.313
  20
 158.706
  30
0.0
  11
 469.980
  21
 158.706
  31
0.0
   0
LINE
   8
LEVEL003
   6
CONTINUOUS
  62
7
  10
 453.000
  20
 179.000
  30
0.0
  11
 451.000
  21
 181.000
  31
0.0
   0
LINE
   8
LEVEL003
   6
CONTINUOUS
  62
7
  10
 451.000
  20
 181.000
  30
0.0
  11
 451.000
  21
 180.000
  31
0.0
   0
LINE
   8
LEVEL003
   6
CONTINUOUS
  62
7
  10
 451.000
  20
 180.000
  30
0.0
  11
 444.000
  21
 180.000
  31
0.0
   0
LINE
   8
LEVEL003
   6
CONTINUOUS
  62
7
  10
 444.000
  20
 180.000
  30
0.0
  11
 444.000
  21
 178.000
  31
0.0
   0
LINE
   8
LEVEL003
   6
CONTINUOUS
  62
7
  10
 444.000
  20
 178.000
  30
0.0
  11
 451.000
  21
 178.000
  31
0.0
   0
LINE
   8
LEVEL003
   6
CONTINUOUS
  62
7
  10
 451.000
  20
 178.000
  30
0.0
  11
 451.000
  21
 177.000
  31
0.0
   0
LINE
   8
LEVEL003
   6
CONTINUOUS
  62
7
  10
 451.000
  20
 177.000
  30
0.0
  11
 453.000
  21
 179.000
  31
0.0
   0
TEXT
   8
LEVEL003
  62
7
  10
 440.342
  20
 183.202
  30
0.0
  40
 8.00000
   1
ＵＰ
  50
 180.000
  41
 0.875000
   7
STANDARD
   0
ARC
   8
LEVEL003
   6
CONTINUOUS
  62
7
  10
 458.000
  20
 169.200
  30
0.0
  40
 2.00000
  50
0.0
  51
 90.0000
   0
ARC
   8
LEVEL003
   6
CONTINUOUS
  62
7
  10
 451.000
  20
 149.000
  30
0.0
  40
 10.0000
  50
 199.052
  51
 258.463
   0
ARC
   8
LEVEL003
   6
CONTINUOUS
  62
7
  10
 496.000
  20
 158.800
  30
0.0
  40
 3.00000
  50
 90.0000
  51
 180.000
   0
ARC
   8
LEVEL003
   6
CONTINUOUS
  62
7
  10
 470.000
  20
 201.500
  30
0.0
  40
 73.0000
  50
 257.803
  51
 288.902
   0
LINE
   8
LEVEL003
   6
CONTINUOUS
  62
7
  10
 493.000
  20
 141.882
  30
0.0
  11
 493.000
  21
 158.800
  31
0.0
   0
ARC
   8
LEVEL003
   6
CONTINUOUS
  62
7
  10
 495.000
  20
 141.882
  30
0.0
  40
 2.00000
  50
 180.000
  51
 240.000
   0
CIRCLE
   8
LEVEL003
   6
CONTINUOUS
  62
7
  10
 474.000
  20
 146.500
  30
0.0
  40
 5.00000
   0
CIRCLE
   8
LEVEL003
   6
CONTINUOUS
  62
7
  10
 474.000
  20
 146.500
  30
0.0
  40
 5.70146
   0
ARC
   8
LEVEL003
   6
CONTINUOUS
  62
7
  10
 462.000
  20
 146.560
  30
0.0
  40
 2.00000
  50
 359.714
  51
 123.763
   0
ARC
   8
LEVEL003
   6
CONTINUOUS
  62
7
  10
 474.000
  20
 146.500
  30
0.0
  40
 10.0000
  50
 179.714
  51
 0.285782
   0
ARC
   8
LEVEL003
   6
CONTINUOUS
  62
7
  10
 486.000
  20
 146.560
  30
0.0
  40
 2.00000
  50
 56.2369
  51
 180.286
   0
ARC
   8
LEVEL003
   6
CONTINUOUS
  62
7
  10
 474.000
  20
 128.610
  30
0.0
  40
 23.5918
  50
 56.2369
  51
 123.763
   0
CIRCLE
   8
LEVEL003
   6
CONTINUOUS
  62
7
  10
 470.000
  20
 201.500
  30
0.0
  40
 17.5000
   0
LINE
   8
LEVEL003
   6
CONTINUOUS
  62
7
  10
 463.000
  20
 156.000
  30
0.0
  11
 485.000
  21
 156.000
  31
0.0
   0
ARC
   8
LEVEL003
   6
CONTINUOUS
  62
7
  10
 485.000
  20
 159.000
  30
0.0
  40
 3.00000
  50
 270.000
  51
0.0
   0
ARC
   8
LEVEL003
   6
CONTINUOUS
  62
7
  10
 490.000
  20
 169.200
  30
0.0
  40
 2.00000
  50
 90.0000
  51
 180.000
   0
LINE
   8
LEVEL003
   6
CONTINUOUS
  62
7
  10
 488.000
  20
 159.000
  30
0.0
  11
 488.000
  21
 169.200
  31
0.0
   0
LINE
   8
LEVEL003
   6
CONTINUOUS
  62
7
  10
 489.353
  20
 168.656
  30
0.0
  11
 493.000
  21
 161.800
  31
0.0
   0
ARC
   8
LEVEL003
   6
CONTINUOUS
  62
7
  10
 470.000
  20
 201.500
  30
0.0
  40
 66.0000
  50
 255.803
  51
 290.091
   0
LINE
   8
LEVEL003
   6
CONTINUOUS
  62
7
  10
 475.000
  20
 179.000
  30
0.0
  11
 477.000
  21
 181.000
  31
0.0
   0
LINE
   8
LEVEL003
   6
CONTINUOUS
  62
7
  10
 477.000
  20
 181.000
  30
0.0
  11
 477.000
  21
 180.000
  31
0.0
   0
LINE
   8
LEVEL003
   6
CONTINUOUS
  62
7
  10
 477.000
  20
 180.000
  30
0.0
  11
 484.000
  21
 180.000
  31
0.0
   0
LINE
   8
LEVEL003
   6
CONTINUOUS
  62
7
  10
 484.000
  20
 180.000
  30
0.0
  11
 484.000
  21
 178.000
  31
0.0
   0
LINE
   8
LEVEL003
   6
CONTINUOUS
  62
7
  10
 484.000
  20
 178.000
  30
0.0
  11
 477.000
  21
 178.000
  31
0.0
   0
LINE
   8
LEVEL003
   6
CONTINUOUS
  62
7
  10
 477.000
  20
 178.000
  30
0.0
  11
 477.000
  21
 177.000
  31
0.0
   0
LINE
   8
LEVEL003
   6
CONTINUOUS
  62
7
  10
 477.000
  20
 177.000
  30
0.0
  11
 475.000
  21
 179.000
  31
0.0
   0
TEXT
   8
LEVEL003
  62
7
  10
 515.368
  20
 183.202
  30
0.0
  40
 8.00000
   1
ＤＯＷＮ
  50
 180.000
  41
 0.875000
   7
STANDARD
   0
LINE
   8
LEVEL003
   6
CONTINUOUS
  62
7
  10
 460.000
  20
 159.000
  30
0.0
  11
 460.000
  21
 169.200
  31
0.0
   0
ARC
   8
LEVEL003
   6
CONTINUOUS
  62
7
  10
 448.000
  20
 134.303
  30
0.0
  40
 5.00000
  50
0.0
  51
 78.4630
   0
LINE
   8
LEVEL003
   6
CONTINUOUS
  62
7
  10
 453.000
  20
 132.103
  30
0.0
  11
 453.000
  21
 134.303
  31
0.0
   0
ARC
   8
LEVEL003
   6
CONTINUOUS
  62
7
  10
 455.000
  20
 132.103
  30
0.0
  40
 2.00000
  50
 180.000
  51
 257.803
   0
LINE
   8
LEVEL003
   6
CONTINUOUS
  62
7
  10
 495.000
  20
 138.418
  30
0.0
  11
 495.000
  21
 134.329
  31
0.0
   0
ARC
   8
LEVEL003
   6
CONTINUOUS
  62
7
  10
 493.000
  20
 138.418
  30
0.0
  40
 2.00000
  50
0.0
  51
 60.0000
   0
ARC
   8
LEVEL003
   6
CONTINUOUS
  62
7
  10
 523.899
  20
 132.367
  30
0.0
  40
 30.0000
  50
 101.334
  51
 166.424
   0
ARC
   8
LEVEL003
   6
CONTINUOUS
  62
7
  10
 493.000
  20
 134.329
  30
0.0
  40
 2.00000
  50
 288.902
  51
 0.139232E-9
   0
LINE
   8
LEVEL003
   6
DASHDOT
  62
1
  10
 474.000
  20
 169.000
  30
0.0
  11
 474.000
  21
 124.000
  31
0.0
   0
LINE
   8
LEVEL003
   6
DASHDOT
  62
1
  10
 463.000
  20
 146.500
  30
0.0
  11
 485.000
  21
 146.500
  31
0.0
   0
LINE
   8
LEVEL003
   6
CONTINUOUS
  62
7
  10
 496.000
  20
 161.800
  30
0.0
  11
 518.000
  21
 161.800
  31
0.0
   0
ARC
   8
LEVEL003
   6
CONTINUOUS
  62
7
  10
 431.005
  20
 198.730
  30
0.0
  40
 3.00000
  50
 6.15316
  51
 55.0543
   0
LINE
   8
LEVEL001
   6
CONTINUOUS
  62
7
  10
 412.000
  20
 154.000
  30
0.0
  11
 438.694
  21
 154.000
  31
0.0
   0
LINE
   8
LEVEL001
   6
CONTINUOUS
  62
7
  10
 415.557
  20
 146.000
  30
0.0
  11
 441.548
  21
 146.000
  31
0.0
   0
LINE
   8
LEVEL001
   6
CONTINUOUS
  62
7
  10
 450.000
  20
 134.000
  30
0.0
  11
 450.000
  21
 138.886
  31
0.0
   0
ARC
   8
LEVEL003
   6
CONTINUOUS
  62
7
  10
 518.000
  20
 163.137
  30
0.0
  40
 1.00000
  50
 273.736
  51
 0.651378E-11
   0
LINE
   8
LEVEL001
   6
CONTINUOUS
  62
7
  10
 467.500
  20
 323.000
  30
0.0
  11
 467.500
  21
 227.781
  31
0.0
   0
LINE
   8
LEVEL001
   6
CONTINUOUS
  62
7
  10
 472.500
  20
 323.000
  30
0.0
  11
 472.500
  21
 227.781
  31
0.0
   0
ARC
   8
LEVEL001
   6
CONTINUOUS
  62
7
  10
 470.000
  20
 202.000
  30
0.0
  40
 38.5000
  50
 359.744
  51
 83.6206
   0
ARC
   8
LEVEL001
   6
CONTINUOUS
  62
7
  10
 470.000
  20
 202.000
  30
0.0
  40
 38.5000
  50
 96.3794
  51
 180.256
   0
LINE
   8
LEVEL001
   6
CONTINUOUS
  62
7
  10
 269.750
  20
 228.400
  30
0.0
  11
 303.250
  21
 228.400
  31
0.0
   0
ARC
   8
LEVEL001
   6
CONTINUOUS
  62
7
  10
 305.200
  20
 221.000
  30
0.0
  40
 1.50000
  50
 180.000
  51
 270.000
   0
ARC
   8
LEVEL001
   6
CONTINUOUS
  62
7
  10
 305.116
  20
 183.300
  30
0.0
  40
 1.20000
  50
 90.0000
  51
 191.537
   0
ARC
   8
LEVEL001
   6
CONTINUOUS
  62
7
  10
 286.500
  20
 179.500
  30
0.0
  40
 17.8000
  50
 165.081
  51
 181.635
   0
LINE
   8
LEVEL001
   6
DASHDOT
  62
1
  10
 307.800
  20
 179.500
  30
0.0
  11
 266.334
  21
 179.500
  31
0.0
   0
ARC
   8
LEVEL001
   6
CONTINUOUS
  62
7
  10
 299.500
  20
 131.000
  30
0.0
  40
 2.00000
  50
 270.000
  51
0.0
   0
LINE
   8
LEVEL001
   6
CONTINUOUS
  62
7
  10
 301.500
  20
 131.000
  30
0.0
  11
 301.500
  21
 134.610
  31
0.0
   0
LINE
   8
LEVEL001
   6
CONTINUOUS
  62
7
  10
 299.500
  20
 129.000
  30
0.0
  11
 297.368
  21
 129.000
  31
0.0
   0
LINE
   8
LEVEL001
   6
CONTINUOUS
  62
7
  10
 263.632
  20
 129.000
  30
0.0
  11
 261.500
  21
 129.000
  31
0.0
   0
ARC
   8
LEVEL001
   6
CONTINUOUS
  62
7
  10
 306.499
  20
 134.739
  30
0.0
  40
 5.00000
  50
 114.928
  51
 181.058
   0
LINE
   8
LEVEL001
   6
CONTINUOUS
  62
7
  10
 319.674
  20
 142.003
  30
0.0
  11
 310.513
  21
 141.683
  31
0.0
   0
ARC
   8
LEVEL001
   6
CONTINUOUS
  62
7
  10
 310.688
  20
 136.686
  30
0.0
  40
 5.00000
  50
 92.0000
  51
 114.928
   0
LINE
   8
LEVEL001
   6
CONTINUOUS
  62
7
  10
 304.391
  20
 139.273
  30
0.0
  11
 308.580
  21
 141.220
  31
0.0
   0
ARC
   8
LEVEL001
   6
CONTINUOUS
  62
7
  10
 319.500
  20
 147.000
  30
0.0
  40
 5.00000
  50
 272.000
  51
 88.0000
   0
ARC
   8
LEVEL001
   6
CONTINUOUS
  62
7
  10
 280.500
  20
-41.2687
  30
0.0
  40
 171.102
  50
 84.3422
  51
 95.6578
   0
ARC
   8
LEVEL001
   6
CONTINUOUS
  62
7
  10
 261.500
  20
 131.000
  30
0.0
  40
 2.00000
  50
 180.000
  51
 270.000
   0
LINE
   8
LEVEL001
   6
CONTINUOUS
  62
7
  10
 259.500
  20
 131.000
  30
0.0
  11
 259.500
  21
 134.610
  31
0.0
   0
ARC
   8
LEVEL001
   6
CONTINUOUS
  62
7
  10
 259.500
  20
 138.074
  30
0.0
  40
 2.00000
  50
 300.000
  51
 0.244267E-10
   0
ARC
   8
LEVEL001
   6
CONTINUOUS
  62
7
  10
 261.500
  20
 134.610
  30
0.0
  40
 2.00000
  50
 120.000
  51
 180.000
   0
LINE
   8
LEVEL001
   6
CONTINUOUS
  62
7
  10
 261.500
  20
 138.074
  30
0.0
  11
 261.500
  21
 164.500
  31
0.0
   0
ARC
   8
LEVEL001
   6
CONTINUOUS
  62
7
  10
 301.500
  20
 154.633
  30
0.0
  40
 2.00000
  50
 180.000
  51
 268.000
   0
LINE
   8
LEVEL001
   6
CONTINUOUS
  62
7
  10
 319.674
  20
 151.997
  30
0.0
  11
 301.430
  21
 152.634
  31
0.0
   0
ARC
   8
LEVEL001
   6
CONTINUOUS
  62
7
  10
 301.500
  20
 154.627
  30
0.0
  40
 2.00000
  50
 104.478
  51
 180.000
   0
ARC
   8
LEVEL001
   6
CONTINUOUS
  62
7
  10
 300.500
  20
 158.500
  30
0.0
  40
 2.00000
  50
 284.478
  51
 0.814222E-11
   0
LINE
   8
LEVEL001
   6
CONTINUOUS
  62
7
  10
 302.500
  20
 171.700
  30
0.0
  11
 302.500
  21
 158.500
  31
0.0
   0
ARC
   8
LEVEL001
   6
CONTINUOUS
  62
7
  10
 276.500
  20
 164.500
  30
0.0
  40
 15.0000
  50
 126.836
  51
 180.000
   0
ARC
   8
LEVEL001
   6
CONTINUOUS
  62
7
  10
 265.708
  20
 178.906
  30
0.0
  40
 3.00000
  50
 306.836
  51
 1.63549
   0
LINE
   8
LEVEL001
   6
DASHDOT
  62
1
  10
 280.500
  20
 174.500
  30
0.0
  11
 280.500
  21
 124.500
  31
0.0
   0
LINE
   8
LEVEL001
   6
DASHDOT
  62
1
  10
 326.500
  20
 147.000
  30
0.0
  11
 291.500
  21
 147.000
  31
0.0
   0
LINE
   8
LEVEL001
   6
CONTINUOUS
  62
7
  10
 123.500
  20
 154.000
  30
0.0
  11
 123.500
  21
 155.637
  31
0.0
   0
ARC
   8
LEVEL001
   6
CONTINUOUS
  62
7
  10
 118.500
  20
 155.637
  30
0.0
  40
 5.00000
  50
 0.977066E-12
  51
 44.4153
   0
ARC
   8
LEVEL001
   6
CONTINUOUS
  62
7
  10
 123.500
  20
 160.536
  30
0.0
  40
 2.00000
  50
 120.000
  51
 224.415
   0
ARC
   8
LEVEL001
   6
CONTINUOUS
  62
7
  10
 123.500
  20
 201.464
  30
0.0
  40
 2.00000
  50
 99.6165
  51
 240.000
   0
ARC
   8
LEVEL001
   6
CONTINUOUS
  62
7
  10
 122.331
  20
 208.366
  30
0.0
  40
 5.00000
  50
 279.616
  51
 339.671
   0
ARC
   8
LEVEL001
   6
CONTINUOUS
  62
7
  10
 180.000
  20
 187.000
  30
0.0
  40
 56.5000
  50
 151.968
  51
 159.671
   0
LINE
   8
LEVEL001
   6
CONTINUOUS
  62
7
  10
 142.000
  20
 352.000
  30
0.0
  11
 125.835
  21
 204.799
  31
0.0
   0
ARC
   8
LEVEL001
   6
CONTINUOUS
  62
7
  10
 509.274
  20
 318.000
  30
0.0
  40
 2.00000
  50
 3.29022
  51
 90.0000
   0
LINE
   8
LEVEL001
   6
CONTINUOUS
  62
7
  10
 511.271
  20
 318.115
  30
0.0
  11
 515.353
  21
 247.115
  31
0.0
   0
ARC
   8
LEVEL001
   6
CONTINUOUS
  62
7
  10
 513.356
  20
 247.000
  30
0.0
  40
 2.00000
  50
 270.000
  51
 3.29022
   0
ARC
   8
LEVEL001
   6
CONTINUOUS
  62
7
  10
 485.683
  20
 247.000
  30
0.0
  40
 2.00000
  50
 183.290
  51
 270.000
   0
LINE
   8
LEVEL001
   6
CONTINUOUS
  62
7
  10
 483.686
  20
 246.885
  30
0.0
  11
 479.605
  21
 317.885
  31
0.0
   0
ARC
   8
LEVEL001
   6
CONTINUOUS
  62
7
  10
 481.601
  20
 318.000
  30
0.0
  40
 2.00000
  50
 90.0000
  51
 183.290
   0
ARC
   8
LEVEL001
   6
CONTINUOUS
  62
7
  10
 484.876
  20
 242.000
  30
0.0
  40
 3.00000
  50
 90.0000
  51
 183.645
   0
LINE
   8
LEVEL001
   6
CONTINUOUS
  62
7
  10
 484.876
  20
 245.000
  30
0.0
  11
 513.356
  21
 245.000
  31
0.0
   0
ARC
   8
LEVEL001
   6
CONTINUOUS
  62
7
  10
 479.716
  20
 323.000
  30
0.0
  40
 3.00000
  50
 183.645
  51
 270.000
   0
LINE
   8
LEVEL001
   6
CONTINUOUS
  62
7
  10
 479.716
  20
 320.000
  30
0.0
  11
 509.274
  21
 320.000
  31
0.0
   0
LINE
   8
LEVEL001
   6
CONTINUOUS
  62
7
  10
 515.311
  20
 229.110
  30
0.0
  11
 514.010
  21
 245.110
  31
0.0
   0
ARC
   8
LEVEL001
   6
CONTINUOUS
  62
7
  10
 509.274
  20
 323.000
  30
0.0
  40
 3.00000
  50
 183.645
  51
 270.000
   0
LINE
   8
LEVEL001
   6
CONTINUOUS
  62
7
  10
 507.894
  20
 320.336
  30
0.0
  11
 505.630
  21
 348.182
  31
0.0
   0
LINE
   8
LEVEL001
   6
CONTINUOUS
  62
7
  10
 477.046
  20
 317.722
  30
0.0
  11
 481.567
  21
 246.750
  31
0.0
   0
ARC
   8
LEVEL001
   6
CONTINUOUS
  62
7
  10
 513.356
  20
 242.000
  30
0.0
  40
 3.00000
  50
 90.0000
  51
 183.645
   0
TEXT
   8
LEVEL100
  62
3
  10
 768.896
  20
 30.6000
  30
0.0
  40
 10.0000
   1
＊＊
  41
 0.630000
   7
STANDARD
  72
1
  11
 775.196
  21
 30.6000
  31
0.0
   0
LINE
   8
LEVEL001
   6
CONTINUOUS
  62
7
  10
 268.500
  20
 214.500
  30
0.0
  11
 269.300
  21
 214.500
  31
0.0
   0
LINE
   8
LEVEL001
   6
CONTINUOUS
  62
7
  10
 305.050
  20
 210.600
  30
0.0
  11
 305.300
  21
 210.600
  31
0.0
   0
LINE
   8
LEVEL001
   6
CONTINUOUS
  62
7
  10
 307.050
  20
 210.500
  30
0.0
  11
 308.250
  21
 210.500
  31
0.0
   0
LINE
   8
LEVEL001
   6
CONTINUOUS
  62
7
  10
 305.300
  20
 193.400
  30
0.0
  11
 305.050
  21
 193.400
  31
0.0
   0
LINE
   8
LEVEL001
   6
CONTINUOUS
  62
7
  10
 307.050
  20
 193.500
  30
0.0
  11
 308.250
  21
 193.500
  31
0.0
   0
LINE
   8
LEVEL001
   6
CONTINUOUS
  62
7
  10
 268.500
  20
 189.500
  30
0.0
  11
 269.300
  21
 189.500
  31
0.0
   0
LINE
   8
LEVEL001
   6
DOT
  62
3
  10
 267.500
  20
 131.182
  30
0.0
  11
 267.500
  21
 161.200
  31
0.0
   0
ARC
   8
LEVEL001
   6
DOT
  62
3
  10
 265.500
  20
 131.182
  30
0.0
  40
 2.00000
  50
 274.971
  51
 0.244267E-10
   0
LINE
   8
LEVEL001
   6
DOT
  62
3
  10
 293.500
  20
 161.200
  30
0.0
  11
 293.500
  21
 131.182
  31
0.0
   0
ARC
   8
LEVEL001
   6
DOT
  62
3
  10
 295.500
  20
 131.182
  30
0.0
  40
 2.00000
  50
 180.000
  51
 265.029
   0
ARC
   8
LEVEL001
   6
DOT
  62
3
  10
 269.500
  20
 161.200
  30
0.0
  40
 2.00000
  50
 90.0000
  51
 180.000
   0
ARC
   8
LEVEL001
   6
DOT
  62
3
  10
 291.500
  20
 161.200
  30
0.0
  40
 2.00000
  50
0.0
  51
 90.0000
   0
LINE
   8
LEVEL001
   6
DOT
  62
3
  10
 291.500
  20
 163.200
  30
0.0
  11
 269.500
  21
 163.200
  31
0.0
   0
LINE
   8
LEVEL001
   6
CONTINUOUS
  62
7
  10
 144.000
  20
 365.000
  30
0.0
  11
 180.000
  21
 365.000
  31
0.0
   0
LINE
   8
LEVEL001
   6
CONTINUOUS
  62
7
  10
 180.000
  20
 365.000
  30
0.0
  11
 216.000
  21
 365.000
  31
0.0
   0
LINE
   8
LEVEL001
   6
CONTINUOUS
  62
7
  10
 116.500
  20
 134.000
  30
0.0
  11
 243.500
  21
 134.000
  31
0.0
   0
LINE
   8
LEVEL003
   6
CONTINUOUS
  62
3
  10
 123.500
  20
 125.000
  30
0.0
  11
 123.500
  21
 98.0047
  31
0.0
   0
LINE
   8
LEVEL003
   6
CONTINUOUS
  62
3
  10
 236.500
  20
 125.000
  30
0.0
  11
 236.500
  21
 98.0047
  31
0.0
   0
LINE
   8
LEVEL003
   6
CONTINUOUS
  62
3
  10
 123.500
  20
 102.005
  30
0.0
  11
 236.500
  21
 102.005
  31
0.0
   0
LINE
   8
LEVEL003
   6
CONTINUOUS
  62
3
  10
 129.500
  20
 101.005
  30
0.0
  11
 123.500
  21
 102.005
  31
0.0
   0
LINE
   8
LEVEL003
   6
CONTINUOUS
  62
3
  10
 123.500
  20
 102.005
  30
0.0
  11
 129.500
  21
 103.005
  31
0.0
   0
LINE
   8
LEVEL003
   6
CONTINUOUS
  62
3
  10
 123.500
  20
 102.005
  30
0.0
  11
 129.500
  21
 102.005
  31
0.0
   0
LINE
   8
LEVEL003
   6
CONTINUOUS
  62
3
  10
 230.500
  20
 103.005
  30
0.0
  11
 236.500
  21
 102.005
  31
0.0
   0
LINE
   8
LEVEL003
   6
CONTINUOUS
  62
3
  10
 236.500
  20
 102.005
  30
0.0
  11
 230.500
  21
 101.005
  31
0.0
   0
LINE
   8
LEVEL003
   6
CONTINUOUS
  62
3
  10
 236.500
  20
 102.005
  30
0.0
  11
 230.500
  21
 102.005
  31
0.0
   0
TEXT
   8
LEVEL003
  62
3
  10
 170.000
  20
 98.2714
  30
0.0
  40
 8.00000
   1
%%c113
   7
STANDARD
  72
1
  11
 180.000
  21
 103.605
  31
0.0
  73
2
   0
LINE
   8
LEVEL001
   6
CONTINUOUS
  62
7
  10
 144.000
  20
 350.000
  30
0.0
  11
 214.914
  21
 350.000
  31
0.0
   0
ARC
   8
LEVEL001
   6
CONTINUOUS
  62
7
  10
 180.000
  20
 177.000
  30
0.0
  40
 2.50000
  50
 180.000
  51
0.0
   0
ARC
   8
LEVEL001
   6
CONTINUOUS
  62
7
  10
 172.500
  20
 177.863
  30
0.0
  40
 5.00000
  50
0.0
  51
 90.0000
   0
ARC
   8
LEVEL001
   6
CONTINUOUS
  62
7
  10
 187.500
  20
 177.863
  30
0.0
  40
 5.00000
  50
 90.0000
  51
 180.000
   0
LINE
   8
LEVEL001
   6
CONTINUOUS
  62
7
  10
 177.500
  20
 177.000
  30
0.0
  11
 177.500
  21
 177.863
  31
0.0
   0
LINE
   8
LEVEL001
   6
CONTINUOUS
  62
7
  10
 182.500
  20
 177.863
  30
0.0
  11
 182.500
  21
 177.000
  31
0.0
   0
ARC
   8
LEVEL001
   6
CONTINUOUS
  62
7
  10
 194.863
  20
 184.863
  30
0.0
  40
 5.36307
  50
 180.000
  51
 270.000
   0
ARC
   8
LEVEL001
   6
CONTINUOUS
  62
7
  10
 172.500
  20
 184.863
  30
0.0
  40
 2.00000
  50
 180.000
  51
 270.000
   0
ARC
   8
LEVEL001
   6
CONTINUOUS
  62
7
  10
 187.500
  20
 184.863
  30
0.0
  40
 2.00000
  50
 270.000
  51
0.0
   0
ARC
   8
LEVEL001
   6
CONTINUOUS
  62
7
  10
 185.000
  20
 165.026
  30
0.0
  40
 2.50000
  50
 180.000
  51
 270.000
   0
LINE
   8
LEVEL001
   6
CONTINUOUS
  62
7
  10
 182.500
  20
 348.182
  30
0.0
  11
 182.500
  21
 165.026
  31
0.0
   0
ARC
   8
LEVEL001
   6
CONTINUOUS
  62
7
  10
 175.000
  20
 165.026
  30
0.0
  40
 2.50000
  50
 270.000
  51
0.0
   0
LINE
   8
LEVEL001
   6
CONTINUOUS
  62
7
  10
 177.500
  20
 348.182
  30
0.0
  11
 177.500
  21
 165.026
  31
0.0
   0
ARC
   8
LEVEL001
   6
CONTINUOUS
  62
7
  10
 165.137
  20
 184.863
  30
0.0
  40
 5.36307
  50
 270.000
  51
0.0
   0
ARC
   8
LEVEL001
   6
CONTINUOUS
  62
7
  10
 187.500
  20
 295.137
  30
0.0
  40
 5.00000
  50
 180.000
  51
 270.000
   0
ARC
   8
LEVEL001
   6
CONTINUOUS
  62
7
  10
 187.500
  20
 288.137
  30
0.0
  40
 2.00000
  50
0.0
  51
 90.0000
   0
ARC
   8
LEVEL001
   6
CONTINUOUS
  62
7
  10
 180.000
  20
 296.000
  30
0.0
  40
 2.50000
  50
0.0
  51
 180.000
   0
ARC
   8
LEVEL001
   6
CONTINUOUS
  62
7
  10
 172.500
  20
 295.137
  30
0.0
  40
 5.00000
  50
 270.000
  51
 0.781653E-11
   0
ARC
   8
LEVEL001
   6
CONTINUOUS
  62
7
  10
 172.500
  20
 288.137
  30
0.0
  40
 2.00000
  50
 90.0000
  51
 180.000
   0
ARC
   8
LEVEL001
   6
CONTINUOUS
  62
7
  10
 165.137
  20
 288.137
  30
0.0
  40
 5.36307
  50
0.0
  51
 90.0000
   0
ARC
   8
LEVEL001
   6
CONTINUOUS
  62
7
  10
 194.863
  20
 288.137
  30
0.0
  40
 5.36307
  50
 90.0000
  51
 180.000
   0
LINE
   8
LEVEL001
   6
CONTINUOUS
  62
7
  10
 170.500
  20
 184.863
  30
0.0
  11
 170.500
  21
 288.137
  31
0.0
   0
LINE
   8
LEVEL001
   6
CONTINUOUS
  62
7
  10
 189.500
  20
 184.863
  30
0.0
  11
 189.500
  21
 288.137
  31
0.0
   0
LINE
   8
LEVEL001
   6
CONTINUOUS
  62
7
  10
 214.914
  20
 352.165
  30
0.0
  11
 214.914
  21
 363.000
  31
0.0
   0
LINE
   8
LEVEL001
   6
CONTINUOUS
  62
7
  10
 125.557
  20
 146.000
  30
0.0
  11
 125.557
  21
 134.000
  31
0.0
   0
LINE
   8
LEVEL001
   6
CONTINUOUS
  62
7
  10
 160.000
  20
 134.000
  30
0.0
  11
 160.000
  21
 146.000
  31
0.0
   0
LINE
   8
LEVEL001
   6
CONTINUOUS
  62
7
  10
 238.000
  20
 154.000
  30
0.0
  11
 122.000
  21
 154.000
  31
0.0
   0
LINE
   8
LEVEL001
   6
CONTINUOUS
  62
7
  10
 125.557
  20
 146.000
  30
0.0
  11
 160.000
  21
 146.000
  31
0.0
   0
LINE
   8
LEVEL001
   6
CONTINUOUS
  62
7
  10
 200.000
  20
 144.000
  30
0.0
  11
 160.000
  21
 144.000
  31
0.0
   0
LINE
   8
LEVEL001
   6
CONTINUOUS
  62
7
  10
 234.443
  20
 146.000
  30
0.0
  11
 200.000
  21
 146.000
  31
0.0
   0
LINE
   8
LEVEL001
   6
CONTINUOUS
  62
7
  10
 200.000
  20
 134.000
  30
0.0
  11
 200.000
  21
 146.000
  31
0.0
   0
LINE
   8
LEVEL001
   6
CONTINUOUS
  62
7
  10
 266.506
  20
 204.500
  30
0.0
  11
 236.500
  21
 204.500
  31
0.0
   0
LINE
   8
LEVEL001
   6
CONTINUOUS
  62
7
  10
 266.506
  20
 199.500
  30
0.0
  11
 236.500
  21
 199.500
  31
0.0
   0
LINE
   8
LEVEL001
   6
CONTINUOUS
  62
7
  10
 266.506
  20
 179.844
  30
0.0
  11
 266.506
  21
 224.156
  31
0.0
   0
LINE
   8
LEVEL001
   6
CONTINUOUS
  62
7
  10
 223.089
  20
 256.435
  30
0.0
  11
 215.689
  21
 347.463
  31
0.0
   0
LINE
   8
LEVEL001
   6
CONTINUOUS
  62
7
  10
 116.500
  20
 144.000
  30
0.0
  11
 125.557
  21
 144.000
  31
0.0
   0
LINE
   8
LEVEL001
   6
CONTINUOUS
  62
7
  10
 243.500
  20
 144.000
  30
0.0
  11
 234.443
  21
 144.000
  31
0.0
   0
LINE
   8
LEVEL001
   6
CONTINUOUS
  62
7
  10
 234.443
  20
 146.000
  30
0.0
  11
 234.443
  21
 134.000
  31
0.0
   0
LINE
   8
LEVEL001
   6
CONTINUOUS
  62
7
  10
 269.750
  20
 228.400
  30
0.0
  11
 269.750
  21
 197.457
  31
0.0
   0
LINE
   8
LEVEL001
   6
CONTINUOUS
  62
7
  10
 303.250
  20
 228.400
  30
0.0
  11
 303.250
  21
 197.457
  31
0.0
   0
LINE
   8
LEVEL001
   6
CONTINUOUS
  62
7
  10
 303.250
  20
 198.850
  30
0.0
  11
 269.750
  21
 198.850
  31
0.0
   0
LINE
   8
LEVEL001
   6
CONTINUOUS
  62
7
  10
 303.250
  20
 197.457
  30
0.0
  11
 269.750
  21
 197.457
  31
0.0
   0
ARC
   8
LEVEL001
   6
CONTINUOUS
  62
7
  10
 270.300
  20
 226.000
  30
0.0
  40
 1.00000
  50
 123.367
  51
 180.000
   0
ARC
   8
LEVEL001
   6
CONTINUOUS
  62
7
  10
 302.700
  20
 226.000
  30
0.0
  40
 1.00000
  50
0.0
  51
 56.6330
   0
LINE
   8
LEVEL001
   6
CONTINUOUS
  62
7
  10
 305.300
  20
 219.500
  30
0.0
  11
 305.300
  21
 184.500
  31
0.0
   0
LINE
   8
LEVEL001
   6
CONTINUOUS
  62
7
  10
 305.050
  20
 219.500
  30
0.0
  11
 305.050
  21
 184.500
  31
0.0
   0
LINE
   8
LEVEL001
   6
CONTINUOUS
  62
7
  10
 268.500
  20
 222.000
  30
0.0
  11
 268.500
  21
 182.000
  31
0.0
   0
LINE
   8
LEVEL001
   6
CONTINUOUS
  62
7
  10
 269.300
  20
 184.083
  30
0.0
  11
 269.300
  21
 226.000
  31
0.0
   0
POLYLINE
   8
LEVEL001
   6
CONTINUOUS
  62
7
  66
1
  10
0.0
  20
0.0
  30
0.0
  70
0
   0
VERTEX
   8
LEVEL001
   6
CONTINUOUS
  62
7
  10
 122.493
  20
 162.391
  30
0.0
   0
VERTEX
   8
LEVEL001
   6
CONTINUOUS
  62
7
  10
 123.572
  20
 162.800
  30
0.0
   0
VERTEX
   8
LEVEL001
   6
CONTINUOUS
  62
7
  10
 124.618
  20
 163.494
  30
0.0
   0
VERTEX
   8
LEVEL001
   6
CONTINUOUS
  62
7
  10
 125.616
  20
 164.461
  30
0.0
   0
VERTEX
   8
LEVEL001
   6
CONTINUOUS
  62
7
  10
 126.549
  20
 165.686
  30
0.0
   0
VERTEX
   8
LEVEL001
   6
CONTINUOUS
  62
7
  10
 127.404
  20
 167.150
  30
0.0
   0
VERTEX
   8
LEVEL001
   6
CONTINUOUS
  62
7
  10
 128.166
  20
 168.830
  30
0.0
   0
VERTEX
   8
LEVEL001
   6
CONTINUOUS
  62
7
  10
 128.825
  20
 170.700
  30
0.0
   0
VERTEX
   8
LEVEL001
   6
CONTINUOUS
  62
7
  10
 129.369
  20
 172.731
  30
0.0
   0
VERTEX
   8
LEVEL001
   6
CONTINUOUS
  62
7
  10
 129.790
  20
 174.890
  30
0.0
   0
VERTEX
   8
LEVEL001
   6
CONTINUOUS
  62
7
  10
 130.082
  20
 177.145
  30
0.0
   0
VERTEX
   8
LEVEL001
   6
CONTINUOUS
  62
7
  10
 130.240
  20
 179.461
  30
0.0
   0
VERTEX
   8
LEVEL001
   6
CONTINUOUS
  62
7
  10
 130.262
  20
 181.800
  30
0.0
   0
VERTEX
   8
LEVEL001
   6
CONTINUOUS
  62
7
  10
 130.147
  20
 184.127
  30
0.0
   0
VERTEX
   8
LEVEL001
   6
CONTINUOUS
  62
7
  10
 129.897
  20
 186.405
  30
0.0
   0
VERTEX
   8
LEVEL001
   6
CONTINUOUS
  62
7
  10
 129.516
  20
 188.598
  30
0.0
   0
VERTEX
   8
LEVEL001
   6
CONTINUOUS
  62
7
  10
 129.010
  20
 190.674
  30
0.0
   0
VERTEX
   8
LEVEL001
   6
CONTINUOUS
  62
7
  10
 128.386
  20
 192.598
  30
0.0
   0
VERTEX
   8
LEVEL001
   6
CONTINUOUS
  62
7
  10
 127.656
  20
 194.341
  30
0.0
   0
VERTEX
   8
LEVEL001
   6
CONTINUOUS
  62
7
  10
 126.829
  20
 195.876
  30
0.0
   0
VERTEX
   8
LEVEL001
   6
CONTINUOUS
  62
7
  10
 125.919
  20
 197.179
  30
0.0
   0
VERTEX
   8
LEVEL001
   6
CONTINUOUS
  62
7
  10
 124.940
  20
 198.229
  30
0.0
   0
VERTEX
   8
LEVEL001
   6
CONTINUOUS
  62
7
  10
 123.907
  20
 199.011
  30
0.0
   0
VERTEX
   8
LEVEL001
   6
CONTINUOUS
  62
7
  10
 122.837
  20
 199.511
  30
0.0
   0
VERTEX
   8
LEVEL001
   6
CONTINUOUS
  62
7
  10
 122.794
  20
 199.525
  30
0.0
   0
SEQEND
   0
POLYLINE
   8
LEVEL001
   6
CONTINUOUS
  62
7
  66
1
  10
0.0
  20
0.0
  30
0.0
  70
0
   0
VERTEX
   8
LEVEL001
   6
CONTINUOUS
  62
7
  10
 125.052
  20
 159.089
  30
0.0
   0
VERTEX
   8
LEVEL001
   6
CONTINUOUS
  62
7
  10
 126.555
  20
 160.050
  30
0.0
   0
VERTEX
   8
LEVEL001
   6
CONTINUOUS
  62
7
  10
 127.979
  20
 161.338
  30
0.0
   0
VERTEX
   8
LEVEL001
   6
CONTINUOUS
  62
7
  10
 129.301
  20
 162.933
  30
0.0
   0
VERTEX
   8
LEVEL001
   6
CONTINUOUS
  62
7
  10
 130.503
  20
 164.810
  30
0.0
   0
VERTEX
   8
LEVEL001
   6
CONTINUOUS
  62
7
  10
 131.563
  20
 166.940
  30
0.0
   0
VERTEX
   8
LEVEL001
   6
CONTINUOUS
  62
7
  10
 132.467
  20
 169.289
  30
0.0
   0
VERTEX
   8
LEVEL001
   6
CONTINUOUS
  62
7
  10
 133.199
  20
 171.820
  30
0.0
   0
VERTEX
   8
LEVEL001
   6
CONTINUOUS
  62
7
  10
 133.749
  20
 174.495
  30
0.0
   0
VERTEX
   8
LEVEL001
   6
CONTINUOUS
  62
7
  10
 134.108
  20
 177.272
  30
0.0
   0
VERTEX
   8
LEVEL001
   6
CONTINUOUS
  62
7
  10
 134.270
  20
 180.106
  30
0.0
   0
VERTEX
   8
LEVEL001
   6
CONTINUOUS
  62
7
  10
 134.233
  20
 182.955
  30
0.0
   0
VERTEX
   8
LEVEL001
   6
CONTINUOUS
  62
7
  10
 133.997
  20
 185.773
  30
0.0
   0
VERTEX
   8
LEVEL001
   6
CONTINUOUS
  62
7
  10
 133.566
  20
 188.517
  30
0.0
   0
VERTEX
   8
LEVEL001
   6
CONTINUOUS
  62
7
  10
 132.947
  20
 191.143
  30
0.0
   0
VERTEX
   8
LEVEL001
   6
CONTINUOUS
  62
7
  10
 132.149
  20
 193.611
  30
0.0
   0
VERTEX
   8
LEVEL001
   6
CONTINUOUS
  62
7
  10
 131.185
  20
 195.882
  30
0.0
   0
VERTEX
   8
LEVEL001
   6
CONTINUOUS
  62
7
  10
 130.070
  20
 197.921
  30
0.0
   0
VERTEX
   8
LEVEL001
   6
CONTINUOUS
  62
7
  10
 128.821
  20
 199.696
  30
0.0
   0
VERTEX
   8
LEVEL001
   6
CONTINUOUS
  62
7
  10
 127.458
  20
 201.180
  30
0.0
   0
VERTEX
   8
LEVEL001
   6
CONTINUOUS
  62
7
  10
 126.002
  20
 202.348
  30
0.0
   0
VERTEX
   8
LEVEL001
   6
CONTINUOUS
  62
7
  10
 125.075
  20
 202.899
  30
0.0
   0
SEQEND
   0
ARC
   8
LEVEL001
   6
CONTINUOUS
  62
7
  10
 121.500
  20
 198.000
  30
0.0
  40
 2.00000
  50
 0.977066E-11
  51
 60.0000
   0
ARC
   8
LEVEL001
   6
CONTINUOUS
  62
7
  10
 121.500
  20
 164.000
  30
0.0
  40
 2.00000
  50
 300.000
  51
0.0
   0
LINE
   8
LEVEL001
   6
CONTINUOUS
  62
7
  10
 123.500
  20
 154.000
  30
0.0
  11
 123.500
  21
 155.637
  31
0.0
   0
LINE
   8
LEVEL001
   6
CONTINUOUS
  62
7
  10
 123.500
  20
 198.000
  30
0.0
  11
 123.500
  21
 164.000
  31
0.0
   0
ARC
   8
LEVEL001
   6
CONTINUOUS
  62
7
  10
 180.000
  20
 187.000
  30
0.0
  40
 56.5000
  50
 151.968
  51
 159.671
   0
LINE
   8
LEVEL003
   6
CONTINUOUS
  62
7
  10
 420.500
  20
 177.500
  30
0.0
  11
 420.500
  21
 169.500
  31
0.0
   0
LINE
   8
LEVEL003
   6
DASHDOT
  62
1
  10
 426.307
  20
 173.500
  30
0.0
  11
 417.926
  21
 173.500
  31
0.0
   0
LINE
   8
LEVEL003
   6
CONTINUOUS
  62
7
  10
 420.500
  20
 177.500
  30
0.0
  11
 421.000
  21
 177.500
  31
0.0
   0
LINE
   8
LEVEL003
   6
CONTINUOUS
  62
7
  10
 421.000
  20
 169.500
  30
0.0
  11
 420.500
  21
 169.500
  31
0.0
   0
LINE
   8
LEVEL003
   6
CONTINUOUS
  62
7
  10
 536.500
  20
 177.500
  30
0.0
  11
 536.500
  21
 169.500
  31
0.0
   0
LINE
   8
LEVEL003
   6
CONTINUOUS
  62
7
  10
 535.500
  20
 169.500
  30
0.0
  11
 536.500
  21
 169.500
  31
0.0
   0
LINE
   8
LEVEL003
   6
CONTINUOUS
  62
7
  10
 535.500
  20
 177.500
  30
0.0
  11
 536.500
  21
 177.500
  31
0.0
   0
LINE
   8
LEVEL003
   6
CONTINUOUS
  62
7
  10
 519.000
  20
 167.250
  30
0.0
  11
 535.500
  21
 167.250
  31
0.0
   0
LINE
   8
LEVEL003
   6
CONTINUOUS
  62
7
  10
 535.500
  20
 191.750
  30
0.0
  11
 535.500
  21
 167.250
  31
0.0
   0
LINE
   8
LEVEL003
   6
CONTINUOUS
  62
7
  10
 519.000
  20
 191.750
  30
0.0
  11
 535.500
  21
 191.750
  31
0.0
   0
LINE
   8
LEVEL001
   6
CONTINUOUS
  62
7
  10
 526.500
  20
 154.000
  30
0.0
  11
 526.500
  21
 167.250
  31
0.0
   0
LINE
   8
LEVEL003
   6
DASHDOT
  62
1
  10
 530.693
  20
 173.500
  30
0.0
  11
 539.074
  21
 173.500
  31
0.0
   0
ARC
   8
LEVEL003
   6
CONTINUOUS
  62
7
  10
 280.500
  20
-41.2687
  30
0.0
  40
 179.102
  50
 83.9525
  51
 96.0475
   0
ARC
   8
LEVEL003
   6
CONTINUOUS
  62
7
  10
 280.500
  20
-41.2687
  30
0.0
  40
 172.102
  50
 83.1781
  51
 96.8219
   0
ARC
   8
LEVEL003
   6
CONTINUOUS
  62
7
  10
 301.500
  20
 138.074
  30
0.0
  40
 2.00000
  50
 180.000
  51
 240.000
   0
LINE
   8
LEVEL003
   6
CONTINUOUS
  62
7
  10
 299.500
  20
 138.074
  30
0.0
  11
 299.500
  21
 161.048
  31
0.0
   0
LINE
   8
LEVEL003
   6
CONTINUOUS
  62
7
  10
 309.500
  20
 150.519
  30
0.0
  11
 309.500
  21
 142.753
  31
0.0
   0
ARC
   8
LEVEL003
   6
CONTINUOUS
  62
7
  10
 299.500
  20
 134.610
  30
0.0
  40
 2.00000
  50
 0.814222E-11
  51
 60.0000
   0
LINE
   8
LEVEL001
   6
CONTINUOUS
  62
7
  10
 307.050
  20
 219.500
  30
0.0
  11
 307.050
  21
 184.500
  31
0.0
   0
LINE
   8
LEVEL001
   6
DASHDOT
  62
1
  10
 286.500
  20
 160.000
  30
0.0
  11
 286.500
  21
 206.785
  31
0.0
   0
ARC
   8
LEVEL001
   6
CONTINUOUS
  62
7
  10
 286.500
  20
 198.850
  30
0.0
  40
 3.50000
  50
0.0
  51
 180.000
   0
CIRCLE
   8
LEVEL001
   6
CONTINUOUS
  62
7
  10
 286.500
  20
 173.500
  30
0.0
  40
 4.00000
   0
LINE
   8
LEVEL003
   6
DASHDOT
  62
1
  10
 293.100
  20
 173.500
  30
0.0
  11
 279.831
  21
 173.500
  31
0.0
   0
CIRCLE
   8
LEVEL003
   6
CONTINUOUS
  62
7
  10
 286.500
  20
 173.500
  30
0.0
  40
 1.75000
   0
CIRCLE
   8
LEVEL001
   6
CONTINUOUS
  62
7
  10
 286.500
  20
 179.500
  30
0.0
  40
 12.2500
   0
LINE
   8
LEVEL001
   6
CONTINUOUS
  62
7
  10
 303.700
  20
 226.000
  30
0.0
  11
 303.700
  21
 184.083
  31
0.0
   0
ARC
   8
LEVEL001
   6
CONTINUOUS
  62
7
  10
 286.500
  20
 179.500
  30
0.0
  40
 17.8000
  50
 181.635
  51
 14.9187
   0
LINE
   8
LEVEL001
   6
CONTINUOUS
  62
7
  10
 503.115
  20
 154.000
  30
0.0
  11
 528.000
  21
 154.000
  31
0.0
   0
LINE
   8
LEVEL001
   6
CONTINUOUS
  62
7
  10
 497.176
  20
 146.000
  30
0.0
  11
 524.443
  21
 146.000
  31
0.0
   0
ARC
   8
LEVEL003
   6
CONTINUOUS
  62
7
  10
 452.000
  20
 158.800
  30
0.0
  40
 3.00000
  50
0.0
  51
 90.0000
   0
LINE
   8
LEVEL003
   6
CONTINUOUS
  62
7
  10
 455.000
  20
 141.882
  30
0.0
  11
 455.000
  21
 158.800
  31
0.0
   0
LINE
   8
LEVEL003
   6
CONTINUOUS
  62
7
  10
 422.000
  20
 161.800
  30
0.0
  11
 452.000
  21
 161.800
  31
0.0
   0
LINE
   8
LEVEL003
   6
CONTINUOUS
  62
7
  10
 458.746
  20
 168.656
  30
0.0
  11
 455.100
  21
 161.800
  31
0.0
   0
CIRCLE
   8
LEVEL003
   6
CONTINUOUS
  62
7
  10
 611.263
  20
 47.9935
  30
0.0
  40
 6.48000
   0
LINE
   8
LEVEL003
   6
CONTINUOUS
  62
7
  10
 623.981
  20
 54.4735
  30
0.0
  11
 615.752
  21
 40.2175
  31
0.0
   0
LINE
   8
LEVEL003
   6
CONTINUOUS
  62
7
  10
 615.752
  20
 40.2175
  30
0.0
  11
 599.290
  21
 40.2175
  31
0.0
   0
LINE
   8
LEVEL003
   6
CONTINUOUS
  62
7
  10
 597.420
  20
 36.9775
  30
0.0
  11
 626.841
  21
 36.9775
  31
0.0
   0
LINE
   8
LEVEL003
   6
CONTINUOUS
  62
7
  10
 626.841
  20
 36.9775
  30
0.0
  11
 636.941
  21
 54.4735
  31
0.0
   0
LINE
   8
LEVEL003
   6
CONTINUOUS
  62
7
  10
 636.941
  20
 54.4735
  30
0.0
  11
 623.981
  21
 54.4735
  31
0.0
   0
LINE
   8
LEVEL003
   6
CONTINUOUS
  62
7
  10
 599.290
  20
 40.2175
  30
0.0
  11
 597.420
  21
 36.9775
  31
0.0
   0
TEXT
   8
LEVEL003
  62
7
  10
 645.206
  20
 33.3353
  30
0.0
  40
 16.2000
   1
ＯＳＡＫＡ ＪＡＣＫ
   7
STANDARD
   0
TEXT
   8
LEVEL003
  62
7
  10
 645.500
  20
 65.4384
  30
0.0
  40
 10.8000
   1
Model : ＪＪ－１５１３
   7
STANDARD
   0
ENDSEC
   0
EOF
