   0
SECTION
   2
HEADER
   9
$LIMMIN
  10
0.0
  20
0.0
   9
$LIMMAX
  10
 840.000
  20
 594.000
   9
$EXTMIN
  10
0.0
  20
0.0
   9
$EXTMAX
  10
 840.000
  20
 594.000
   9
$LTSCALE
  40
 16.8000
   0
ENDSEC
   0
SECTION
   2
TABLES
  0
TABLE
  2
LTYPE
 70
    25
  0
LTYPE
  2
CONTINUOUS
 70
    64
  3
Solid line
 72
    65
 73
     0
 40
0.0
  0
LTYPE
  2
BORDER
 70
    64
  3
__ __ . __ __ . __ __ . __ __ . __ __ . __ __ .
 72
    65
 73
     6
 40
1.75
 49
0.5
 49
-0.25
 49
0.5
 49
-0.25
 49
0.0
 49
-0.25
  0
LTYPE
  2
BORDER2
 70
    64
  3
__.__.__.__.__.__.__.__.__.__.__.__.__.__.__.__
 72
    65
 73
     6
 40
0.875
 49
0.25
 49
-0.125
 49
0.25
 49
-0.125
 49
0.0
 49
-0.125
  0
LTYPE
  2
BORDERX2
 70
    64
  3
____  ____  .  ____  ____  .  ____  ____  .  __
 72
    65
 73
     6
 40
3.5
 49
1.0
 49
-0.5
 49
1.0
 49
-0.5
 49
0.0
 49
-0.5
  0
LTYPE
  2
CENTER
 70
    64
  3
____ _ ____ _ ____ _ ____ _ ____ _ ____ _ ____ 
 72
    65
 73
     4
 40
2.0
 49
1.25
 49
-0.25
 49
0.25
 49
-0.25
  0
LTYPE
  2
CENTER2
 70
    64
  3
___ _ ___ _ ___ _ ___ _ ___ _ ___ _ ___ _ ___ _
 72
    65
 73
     4
 40
1.125
 49
0.75
 49
-0.125
 49
0.125
 49
-0.125
  0
LTYPE
  2
CENTERX2
 70
    64
  3
________  __  ________  __  ________  __  _____
 72
    65
 73
     4
 40
4.0
 49
2.5
 49
-0.5
 49
0.5
 49
-0.5
  0
LTYPE
  2
DASHDOT
 70
    64
  3
__ . __ . __ . __ . __ . __ . __ . __ . __ . __
 72
    65
 73
     4
 40
1.0
 49
0.5
 49
-0.25
 49
0.0
 49
-0.25
  0
LTYPE
  2
DASHDOT2
 70
    64
  3
_._._._._._._._._._._._._._._._._._._._._._._._
 72
    65
 73
     4
 40
0.5
 49
0.25
 49
-0.125
 49
0.0
 49
-0.125
  0
LTYPE
  2
DASHDOTX2
 70
    64
  3
____  .  ____  .  ____  .  ____  .  ____  .  __
 72
    65
 73
     4
 40
2.0
 49
1.0
 49
-0.5
 49
0.0
 49
-0.5
  0
LTYPE
  2
DASHED
 70
    64
  3
__ __ __ __ __ __ __ __ __ __ __ __ __ __ __ __
 72
    65
 73
     2
 40
0.75
 49
0.5
 49
-0.25
  0
LTYPE
  2
DASHED2
 70
    64
  3
_ _ _ _ _ _ _ _ _ _ _ _ _ _ _ _ _ _ _ _ _ _ _ _
 72
    65
 73
     2
 40
0.375
 49
0.25
 49
-0.125
  0
LTYPE
  2
DASHEDX2
 70
    64
  3
____  ____  ____  ____  ____  ____  ____  ____ 
 72
    65
 73
     2
 40
1.5
 49
1.0
 49
-0.5
  0
LTYPE
  2
DIVIDE
 70
    64
  3
____ . . ____ . . ____ . . ____ . . ____ . . __
 72
    65
 73
     6
 40
1.25
 49
0.5
 49
-0.25
 49
0.0
 49
-0.25
 49
0.0
 49
-0.25
  0
LTYPE
  2
DIVIDE2
 70
    64
  3
__..__..__..__..__..__..__..__..__..__..__..__.
 72
    65
 73
     6
 40
0.625
 49
0.25
 49
-0.125
 49
0.0
 49
-0.125
 49
0.0
 49
-0.125
  0
LTYPE
  2
DIVIDEX2
 70
    64
  3
________  .  .  ________  .  .  ________  .  . 
 72
    65
 73
     6
 40
2.5
 49
1.0
 49
-0.5
 49
0.0
 49
-0.5
 49
0.0
 49
-0.5
  0
LTYPE
  2
DOT
 70
    64
  3
. . . . . . . . . . . . . . . . . . . . . . . .
 72
    65
 73
     2
 40
0.25
 49
0.0
 49
-0.25
  0
LTYPE
  2
DOT2
 70
    64
  3
...............................................
 72
    65
 73
     2
 40
0.125
 49
0.0
 49
-0.125
  0
LTYPE
  2
DOTX2
 70
    64
  3
.  .  .  .  .  .  .  .  .  .  .  .  .  .  .  . 
 72
    65
 73
     2
 40
0.5
 49
0.0
 49
-0.5
  0
LTYPE
  2
HIDDEN
 70
    64
  3
__ __ __ __ __ __ __ __ __ __ __ __ __ __ __ __
 72
    65
 73
     2
 40
0.375
 49
0.25
 49
-0.125
  0
LTYPE
  2
HIDDEN2
 70
    64
  3
_ _ _ _ _ _ _ _ _ _ _ _ _ _ _ _ _ _ _ _ _ _ _ _
 72
    65
 73
     2
 40
0.1875
 49
0.125
 49
-0.0625
  0
LTYPE
  2
HIDDENX2
 70
    64
  3
____ ____ ____ ____ ____ ____ ____ ____ ____ __
 72
    65
 73
     2
 40
0.75
 49
0.5
 49
-0.25
  0
LTYPE
  2
PHANTOM
 70
    64
  3
______  __  __  ______  __  __  ______  __  __ 
 72
    65
 73
     6
 40
2.5
 49
1.25
 49
-0.25
 49
0.25
 49
-0.25
 49
0.25
 49
-0.25
  0
LTYPE
  2
PHANTOM2
 70
    64
  3
___ _ _ ___ _ _ ___ _ _ ___ _ _ ___ _ _ ___ _ _
 72
    65
 73
     6
 40
1.25
 49
0.625
 49
-0.125
 49
0.125
 49
-0.125
 49
0.125
 49
-0.125
  0
LTYPE
  2
PHANTOMX2
 70
    64
  3
____________    ____    ____    ____________   
 72
    65
 73
     6
 40
5.0
 49
2.5
 49
-0.5
 49
0.5
 49
-0.5
 49
0.5
 49
-0.5
  0
ENDTAB
  0
TABLE
  2
STYLE
 70
     2
  0
STYLE
  2
STANDARD
 70
0
 40
0.0
 41
1.0
 50
0.0
 71
0
 42
0.2
  3
TXT
  4
BIGFONT
  0
STYLE
  2
STANDARD1
 70
     4
 40
0.0
 41
1.0
 50
0.0
 71
     0
 42
0.2
  3
TXT
  4
BIGFONT
  0
ENDTAB
   0
TABLE
   2
LAYER
  70
7
   0
LAYER
   2
0
  70
0
  62
7
   6
CONTINUOUS
   0
LAYER
   2
LEVEL001
  70
0
  62
7
   6
CONTINUOUS
   0
LAYER
   2
LEVEL003
  70
0
  62
7
   6
CONTINUOUS
   0
LAYER
   2
LEVEL020
  70
0
  62
7
   6
CONTINUOUS
   0
LAYER
   2
LEVEL050
  70
0
  62
7
   6
CONTINUOUS
   0
LAYER
   2
LEVEL100
  70
0
  62
-7
   6
CONTINUOUS
   0
LAYER
   2
LEVEL110
  70
0
  62
7
   6
CONTINUOUS
   0
ENDTAB
   0
ENDSEC
   0
SECTION
   2
ENTITIES
   0
LINE
   8
LEVEL100
   6
CONTINUOUS
  62
7
  10
 622.500
  20
 128.000
  30
0.0
  11
 622.500
  21
 114.000
  31
0.0
   0
LINE
   8
LEVEL100
   6
CONTINUOUS
  62
7
  10
 682.500
  20
 128.000
  30
0.0
  11
 682.500
  21
 82.0000
  31
0.0
   0
LINE
   8
LEVEL100
   6
CONTINUOUS
  62
7
  10
 722.500
  20
 128.000
  30
0.0
  11
 722.500
  21
 114.000
  31
0.0
   0
LINE
   8
LEVEL100
   6
CONTINUOUS
  62
7
  10
 738.500
  20
 128.000
  30
0.0
  11
 738.500
  21
 114.000
  31
0.0
   0
LINE
   8
LEVEL100
   6
CONTINUOUS
  62
7
  10
 761.500
  20
 128.000
  30
0.0
  11
 761.500
  21
 114.000
  31
0.0
   0
LINE
   8
LEVEL100
   6
CONTINUOUS
  62
7
  10
 663.500
  20
 114.000
  30
0.0
  11
 663.500
  21
 82.0000
  31
0.0
   0
LINE
   8
LEVEL100
   6
CONTINUOUS
  62
7
  10
 630.500
  20
 53.0000
  30
0.0
  11
 640.500
  21
 63.0000
  31
0.0
   0
CIRCLE
   8
LEVEL100
   6
CONTINUOUS
  62
7
  10
 616.500
  20
 23.0000
  30
0.0
  40
 0.800000
   0
CIRCLE
   8
LEVEL100
   6
CONTINUOUS
  62
7
  10
 630.500
  20
 23.0000
  30
0.0
  40
 0.800000
   0
CIRCLE
   8
LEVEL100
   6
CONTINUOUS
  62
7
  10
 616.500
  20
 23.0000
  30
0.0
  40
 0.500000
   0
CIRCLE
   8
LEVEL100
   6
CONTINUOUS
  62
7
  10
 630.500
  20
 23.0000
  30
0.0
  40
 0.500000
   0
LINE
   8
LEVEL100
   6
CONTINUOUS
  62
7
  10
 692.000
  20
 31.0000
  30
0.0
  11
 692.000
  21
 33.0000
  31
0.0
   0
LINE
   8
LEVEL100
   6
CONTINUOUS
  62
7
  10
 692.000
  20
 33.0000
  30
0.0
  11
 698.000
  21
 33.0000
  31
0.0
   0
LINE
   8
LEVEL100
   6
CONTINUOUS
  62
7
  10
 698.000
  20
 33.0000
  30
0.0
  11
 698.000
  21
 31.0000
  31
0.0
   0
LINE
   8
LEVEL100
   6
CONTINUOUS
  62
7
  10
 698.000
  20
 31.0000
  30
0.0
  11
 692.000
  21
 31.0000
  31
0.0
   0
LINE
   8
LEVEL100
   6
CONTINUOUS
  62
7
  10
 602.500
  20
 20.0000
  30
0.0
  11
 602.500
  21
 128.000
  31
0.0
   0
LINE
   8
LEVEL100
   6
CONTINUOUS
  62
7
  10
 644.500
  20
 114.000
  30
0.0
  11
 644.500
  21
 20.0000
  31
0.0
   0
LINE
   8
LEVEL100
   6
CONTINUOUS
  62
7
  10
 602.500
  20
 66.0000
  30
0.0
  11
 644.500
  21
 66.0000
  31
0.0
   0
TEXT
   8
LEVEL100
  62
7
  10
 651.500
  20
 27.0000
  30
0.0
  40
 10.0000
   1
ＯＪ
  41
 0.700000
   7
STANDARD
   0
LINE
   8
LEVEL100
   6
CONTINUOUS
  62
7
  10
 602.500
  20
 114.000
  30
0.0
  11
 816.300
  21
 114.000
  31
0.0
   0
LINE
   8
LEVEL100
   6
CONTINUOUS
  62
7
  10
 602.500
  20
 106.000
  30
0.0
  11
 816.300
  21
 106.000
  31
0.0
   0
LINE
   8
LEVEL100
   6
CONTINUOUS
  62
7
  10
 602.500
  20
 128.000
  30
0.0
  11
 816.300
  21
 128.000
  31
0.0
   0
LINE
   8
LEVEL100
   6
CONTINUOUS
  62
7
  10
 654.300
  20
 526.000
  30
0.0
  11
 654.300
  21
 576.000
  31
0.0
   0
LINE
   8
LEVEL100
   6
CONTINUOUS
  62
7
  10
 654.300
  20
 566.000
  30
0.0
  11
 816.300
  21
 566.000
  31
0.0
   0
LINE
   8
LEVEL100
   6
CONTINUOUS
  62
7
  10
 654.300
  20
 556.000
  30
0.0
  11
 816.300
  21
 556.000
  31
0.0
   0
LINE
   8
LEVEL100
   6
CONTINUOUS
  62
7
  10
 672.300
  20
 566.000
  30
0.0
  11
 672.300
  21
 556.000
  31
0.0
   0
LINE
   8
LEVEL100
   6
CONTINUOUS
  62
7
  10
 776.300
  20
 566.000
  30
0.0
  11
 776.300
  21
 556.000
  31
0.0
   0
LINE
   8
LEVEL100
   6
CONTINUOUS
  62
7
  10
 800.300
  20
 566.000
  30
0.0
  11
 800.300
  21
 556.000
  31
0.0
   0
LINE
   8
LEVEL100
   6
CONTINUOUS
  62
7
  10
 602.500
  20
 82.0000
  30
0.0
  11
 816.300
  21
 82.0000
  31
0.0
   0
LINE
   8
LEVEL100
   6
CONTINUOUS
  62
7
  10
 602.500
  20
 50.0000
  30
0.0
  11
 816.300
  21
 50.0000
  31
0.0
   0
LINE
   8
LEVEL100
   6
CONTINUOUS
  62
7
  10
 760.300
  20
 50.0000
  30
0.0
  11
 760.300
  21
 20.0000
  31
0.0
   0
LINE
   8
LEVEL100
   6
CONTINUOUS
  62
7
  10
 768.300
  20
 20.0000
  30
0.0
  11
 802.300
  21
 40.0000
  31
0.0
   0
LINE
   8
LEVEL100
   6
CONTINUOUS
  62
7
  10
 50.0000
  20
 576.000
  30
0.0
  11
 816.300
  21
 576.000
  31
0.0
   0
LINE
   8
LEVEL100
   6
CONTINUOUS
  62
7
  10
 816.300
  20
 576.000
  30
0.0
  11
 816.300
  21
 20.0000
  31
0.0
   0
LINE
   8
LEVEL100
   6
CONTINUOUS
  62
7
  10
 816.300
  20
 20.0000
  30
0.0
  11
 50.0000
  21
 20.0000
  31
0.0
   0
LINE
   8
LEVEL100
   6
CONTINUOUS
  62
7
  10
 50.0000
  20
 558.400
  30
0.0
  11
 150.300
  21
 558.400
  31
0.0
   0
LINE
   8
LEVEL100
   6
CONTINUOUS
  62
7
  10
 150.300
  20
 558.400
  30
0.0
  11
 150.300
  21
 576.000
  31
0.0
   0
TEXT
   8
LEVEL100
  62
7
  10
 148.300
  20
 572.200
  30
0.0
  40
 10.0000
   1
ＯＪ．
  50
 180.000
  41
 0.900000
   7
STANDARD
   0
LINE
   8
LEVEL100
   6
CONTINUOUS
  62
7
  10
 114.300
  20
 568.200
  30
0.0
  11
 108.300
  21
 568.200
  31
0.0
   0
LINE
   8
LEVEL100
   6
CONTINUOUS
  62
7
  10
 108.300
  20
 568.200
  30
0.0
  11
 108.300
  21
 566.200
  31
0.0
   0
LINE
   8
LEVEL100
   6
CONTINUOUS
  62
7
  10
 108.300
  20
 566.200
  30
0.0
  11
 114.300
  21
 566.200
  31
0.0
   0
LINE
   8
LEVEL100
   6
CONTINUOUS
  62
7
  10
 114.300
  20
 566.200
  30
0.0
  11
 114.300
  21
 568.200
  31
0.0
   0
TEXT
   8
LEVEL100
  62
7
  10
 624.500
  20
 116.000
  30
0.0
  40
 8.00000
   1
Ｓ．ＩＭＡＮＩＳＨＩ
  41
 0.625000
   7
STANDARD
   0
TEXT
   8
LEVEL020
  62
6
  10
 290.000
  20
 480.000
  30
0.0
  40
 10.0000
   1
ストローク
   7
STANDARD
   0
TEXT
   8
LEVEL020
  62
6
  10
 290.000
  20
 494.000
  30
0.0
  40
 10.0000
   1
揚　　　力
   7
STANDARD
   0
TEXT
   8
LEVEL020
  62
6
  10
 460.000
  20
 480.000
  30
0.0
  40
 10.0000
   1
ｍｍ
  41
 0.700000
   7
STANDARD
   0
LINE
   8
LEVEL020
   6
CONTINUOUS
  62
6
  10
 290.000
  20
 506.000
  30
0.0
  11
 490.000
  21
 506.000
  31
0.0
   0
LINE
   8
LEVEL020
   6
CONTINUOUS
  62
6
  10
 290.000
  20
 492.000
  30
0.0
  11
 490.000
  21
 492.000
  31
0.0
   0
LINE
   8
LEVEL020
   6
CONTINUOUS
  62
6
  10
 290.000
  20
 478.000
  30
0.0
  11
 490.000
  21
 478.000
  31
0.0
   0
TEXT
   8
LEVEL020
  62
6
  10
 290.000
  20
 508.000
  30
0.0
  40
 10.0000
   1
形　　　式
   7
STANDARD
   0
TEXT
   8
LEVEL020
  62
6
  10
 290.000
  20
 522.000
  30
0.0
  40
 10.0000
   1
仕　　　様
   7
STANDARD
   0
LINE
   8
LEVEL020
   6
CONTINUOUS
  62
6
  10
 290.000
  20
 520.000
  30
0.0
  11
 340.000
  21
 520.000
  31
0.0
   0
TEXT
   8
LEVEL020
  62
6
  10
 290.000
  20
 466.000
  30
0.0
  40
 10.0000
   1
最低高さ
   7
STANDARD
   0
TEXT
   8
LEVEL020
  62
6
  10
 460.000
  20
 466.000
  30
0.0
  40
 10.0000
   1
ｍｍ
  41
 0.700000
   7
STANDARD
   0
LINE
   8
LEVEL020
   6
CONTINUOUS
  62
6
  10
 290.000
  20
 464.000
  30
0.0
  11
 490.000
  21
 464.000
  31
0.0
   0
LINE
   8
LEVEL020
   6
CONTINUOUS
  62
6
  10
 290.000
  20
 450.000
  30
0.0
  11
 490.000
  21
 450.000
  31
0.0
   0
LINE
   8
LEVEL020
   6
CONTINUOUS
  62
6
  10
 290.000
  20
 436.000
  30
0.0
  11
 490.000
  21
 436.000
  31
0.0
   0
TEXT
   8
LEVEL020
  62
6
  10
 290.000
  20
 438.000
  30
0.0
  40
 10.0000
   1
付　属　品
   7
STANDARD
   0
TEXT
   8
LEVEL020
  62
6
  10
 404.000
  20
 438.000
  30
0.0
  40
 10.0000
   1
　　　　　　１
  41
 0.700000
   7
STANDARD
   0
TEXT
   8
LEVEL020
  62
6
  10
 460.000
  20
 438.000
  30
0.0
  40
 10.0000
   1
本
  41
 0.500000
   7
STANDARD
   0
TEXT
   8
LEVEL020
  62
6
  10
 404.000
  20
 480.000
  30
0.0
  40
 10.0000
   1
　　　　１２５
  41
 0.700000
   7
STANDARD
   0
TEXT
   8
LEVEL020
  62
6
  10
 404.000
  20
 466.000
  30
0.0
  40
 10.0000
   1
　　　　２５５
  41
 0.700000
   7
STANDARD
   0
TEXT
   8
LEVEL020
  62
6
  10
 460.000
  20
 452.000
  30
0.0
  40
 10.0000
   1
ｋｇ
  41
 0.700000
   7
STANDARD
   0
TEXT
   8
LEVEL020
  62
6
  10
 404.000
  20
 508.000
  30
0.0
  40
 10.0000
   1
　　　ＪＪ－２５１３
  41
 0.700000
   7
STANDARD
   0
TEXT
   8
LEVEL020
  62
6
  10
 404.000
  20
 452.000
  30
0.0
  40
 10.0000
   1
　　　約　１６
  41
 0.700000
   7
STANDARD
   0
TEXT
   8
LEVEL020
  62
6
  10
 347.000
  20
 438.000
  30
0.0
  40
 10.0000
   1
ハンドル棒（%%c２５×７００Ｌ）
  41
 0.600000
   7
STANDARD
   0
ARC
   8
LEVEL001
   6
CONTINUOUS
  62
7
  10
 454.500
  20
 372.000
  30
0.0
  40
 3.00000
  50
 90.0000
  51
 180.000
   0
LINE
   8
LEVEL001
   6
CONTINUOUS
  62
7
  10
 451.500
  20
 360.000
  30
0.0
  11
 451.500
  21
 372.000
  31
0.0
   0
ARC
   8
LEVEL001
   6
CONTINUOUS
  62
7
  10
 447.500
  20
 358.000
  30
0.0
  40
 2.00000
  50
 90.0000
  51
 179.999
   0
LINE
   8
LEVEL001
   6
CONTINUOUS
  62
7
  10
 420.500
  20
 132.000
  30
0.0
  11
 420.500
  21
 143.000
  31
0.0
   0
ARC
   8
LEVEL001
   6
CONTINUOUS
  62
7
  10
 422.500
  20
 156.000
  30
0.0
  40
 3.00000
  50
 311.810
  51
0.0
   0
LINE
   8
LEVEL001
   6
CONTINUOUS
  62
7
  10
 424.500
  20
 143.000
  30
0.0
  11
 424.500
  21
 153.764
  31
0.0
   0
LINE
   8
LEVEL001
   6
CONTINUOUS
  62
7
  10
 425.500
  20
 156.000
  30
0.0
  11
 425.500
  21
 193.000
  31
0.0
   0
ARC
   8
LEVEL001
   6
CONTINUOUS
  62
7
  10
 418.542
  20
 246.889
  30
0.0
  40
 25.0000
  50
 322.978
  51
 357.699
   0
ARC
   8
LEVEL001
   6
CONTINUOUS
  62
7
  10
 490.000
  20
 193.000
  30
0.0
  40
 64.5000
  50
 142.979
  51
 180.000
   0
ARC
   8
LEVEL001
   6
CONTINUOUS
  62
7
  10
 429.500
  20
 123.000
  30
0.0
  40
 3.00000
  50
 180.000
  51
 270.000
   0
LINE
   8
LEVEL001
   6
CONTINUOUS
  62
7
  10
 426.500
  20
 132.000
  30
0.0
  11
 426.500
  21
 123.000
  31
0.0
   0
ARC
   8
LEVEL001
   6
CONTINUOUS
  62
7
  10
 525.500
  20
 372.000
  30
0.0
  40
 3.00000
  50
0.0
  51
 90.0000
   0
LINE
   8
LEVEL001
   6
CONTINUOUS
  62
7
  10
 528.500
  20
 360.000
  30
0.0
  11
 528.500
  21
 372.000
  31
0.0
   0
ARC
   8
LEVEL001
   6
CONTINUOUS
  62
7
  10
 532.500
  20
 358.000
  30
0.0
  40
 2.00000
  50
 0.874264E-3
  51
 90.0000
   0
LINE
   8
LEVEL001
   6
CONTINUOUS
  62
7
  10
 559.500
  20
 132.000
  30
0.0
  11
 559.500
  21
 143.000
  31
0.0
   0
ARC
   8
LEVEL001
   6
CONTINUOUS
  62
7
  10
 557.500
  20
 156.000
  30
0.0
  40
 3.00000
  50
 180.000
  51
 228.190
   0
LINE
   8
LEVEL001
   6
CONTINUOUS
  62
7
  10
 555.500
  20
 143.000
  30
0.0
  11
 555.500
  21
 153.764
  31
0.0
   0
ARC
   8
LEVEL001
   6
CONTINUOUS
  62
7
  10
 561.458
  20
 246.889
  30
0.0
  40
 25.0000
  50
 182.301
  51
 217.021
   0
ARC
   8
LEVEL001
   6
CONTINUOUS
  62
7
  10
 550.500
  20
 123.000
  30
0.0
  40
 3.00000
  50
 270.000
  51
0.0
   0
LINE
   8
LEVEL001
   6
CONTINUOUS
  62
7
  10
 553.500
  20
 132.000
  30
0.0
  11
 553.500
  21
 123.000
  31
0.0
   0
LINE
   8
LEVEL001
   6
CONTINUOUS
  62
7
  10
 525.500
  20
 375.000
  30
0.0
  11
 454.500
  21
 375.000
  31
0.0
   0
LINE
   8
LEVEL001
   6
CONTINUOUS
  62
7
  10
 532.500
  20
 360.000
  30
0.0
  11
 447.500
  21
 360.000
  31
0.0
   0
LINE
   8
LEVEL001
   6
CONTINUOUS
  62
7
  10
 550.500
  20
 120.000
  30
0.0
  11
 429.500
  21
 120.000
  31
0.0
   0
LINE
   8
LEVEL001
   6
CONTINUOUS
  62
7
  10
 549.869
  20
 132.000
  30
0.0
  11
 549.869
  21
 143.000
  31
0.0
   0
LINE
   8
LEVEL001
   6
CONTINUOUS
  62
7
  10
 430.131
  20
 143.000
  30
0.0
  11
 420.500
  21
 143.000
  31
0.0
   0
LINE
   8
LEVEL001
   6
CONTINUOUS
  62
7
  10
 559.500
  20
 143.000
  30
0.0
  11
 549.869
  21
 143.000
  31
0.0
   0
LINE
   8
LEVEL001
   6
CONTINUOUS
  62
7
  10
 424.775
  20
 132.000
  30
0.0
  11
 424.775
  21
 143.000
  31
0.0
   0
LINE
   8
LEVEL001
   6
CONTINUOUS
  62
7
  10
 555.225
  20
 132.000
  30
0.0
  11
 555.225
  21
 143.000
  31
0.0
   0
LINE
   8
LEVEL001
   6
CONTINUOUS
  62
7
  10
 430.131
  20
 132.000
  30
0.0
  11
 430.131
  21
 145.000
  31
0.0
   0
LINE
   8
LEVEL001
   6
CONTINUOUS
  62
7
  10
 549.869
  20
 132.000
  30
0.0
  11
 549.869
  21
 145.000
  31
0.0
   0
CIRCLE
   8
LEVEL001
   6
CONTINUOUS
  62
7
  10
 490.000
  20
 208.000
  30
0.0
  40
 11.0000
   0
LINE
   8
LEVEL001
   6
CONTINUOUS
  62
7
  10
 491.000
  20
 219.000
  30
0.0
  11
 491.000
  21
 222.600
  31
0.0
   0
CIRCLE
   8
LEVEL001
   6
CONTINUOUS
  62
7
  10
 493.000
  20
 220.600
  30
0.0
  40
 1.00000
   0
ARC
   8
LEVEL001
   6
CONTINUOUS
  62
7
  10
 497.000
  20
 219.462
  30
0.0
  40
 2.00000
  50
 180.000
  51
 240.580
   0
ARC
   8
LEVEL001
   6
CONTINUOUS
  62
7
  10
 493.000
  20
 220.600
  30
0.0
  40
 2.00000
  50
 0.437132E-3
  51
 90.0000
   0
LINE
   8
LEVEL001
   6
CONTINUOUS
  62
7
  10
 491.000
  20
 222.600
  30
0.0
  11
 493.000
  21
 222.600
  31
0.0
   0
LINE
   8
LEVEL001
   6
CONTINUOUS
  62
7
  10
 495.000
  20
 220.600
  30
0.0
  11
 495.000
  21
 219.462
  31
0.0
   0
LINE
   8
LEVEL001
   6
CONTINUOUS
  62
7
  10
 489.000
  20
 219.000
  30
0.0
  11
 489.000
  21
 222.600
  31
0.0
   0
CIRCLE
   8
LEVEL001
   6
CONTINUOUS
  62
7
  10
 487.000
  20
 220.600
  30
0.0
  40
 1.00000
   0
ARC
   8
LEVEL001
   6
CONTINUOUS
  62
7
  10
 483.000
  20
 219.462
  30
0.0
  40
 2.00000
  50
 299.420
  51
0.0
   0
ARC
   8
LEVEL001
   6
CONTINUOUS
  62
7
  10
 487.000
  20
 220.600
  30
0.0
  40
 2.00000
  50
 90.0000
  51
 180.000
   0
LINE
   8
LEVEL001
   6
CONTINUOUS
  62
7
  10
 489.000
  20
 222.600
  30
0.0
  11
 487.000
  21
 222.600
  31
0.0
   0
LINE
   8
LEVEL001
   6
CONTINUOUS
  62
7
  10
 485.000
  20
 220.600
  30
0.0
  11
 485.000
  21
 219.462
  31
0.0
   0
ARC
   8
LEVEL001
   6
CONTINUOUS
  62
7
  10
 490.000
  20
 207.050
  30
0.0
  40
 12.2500
  50
 119.422
  51
 60.5785
   0
LINE
   8
LEVEL001
   6
DASHDOT
  62
1
  10
 490.000
  20
 112.500
  30
0.0
  11
 490.000
  21
 382.500
  31
0.0
   0
CIRCLE
   8
LEVEL001
   6
CONTINUOUS
  62
7
  10
 490.000
  20
 208.000
  30
0.0
  40
 17.5000
   0
ARC
   8
LEVEL001
   6
CONTINUOUS
  62
7
  10
 477.000
  20
 322.000
  30
0.0
  40
 2.00000
  50
 180.000
  51
 270.000
   0
ARC
   8
LEVEL001
   6
CONTINUOUS
  62
7
  10
 503.000
  20
 322.000
  30
0.0
  40
 2.00000
  50
 270.000
  51
0.0
   0
LINE
   8
LEVEL001
   6
CONTINUOUS
  62
7
  10
 477.000
  20
 320.000
  30
0.0
  11
 503.000
  21
 320.000
  31
0.0
   0
ARC
   8
LEVEL001
   6
CONTINUOUS
  62
7
  10
 477.000
  20
 356.000
  30
0.0
  40
 2.00000
  50
 90.0000
  51
 180.000
   0
LINE
   8
LEVEL001
   6
CONTINUOUS
  62
7
  10
 475.000
  20
 356.000
  30
0.0
  11
 475.000
  21
 322.000
  31
0.0
   0
ARC
   8
LEVEL001
   6
CONTINUOUS
  62
7
  10
 503.000
  20
 356.000
  30
0.0
  40
 2.00000
  50
0.0
  51
 90.0000
   0
LINE
   8
LEVEL001
   6
CONTINUOUS
  62
7
  10
 477.000
  20
 358.000
  30
0.0
  11
 503.000
  21
 358.000
  31
0.0
   0
LINE
   8
LEVEL001
   6
CONTINUOUS
  62
7
  10
 505.000
  20
 356.000
  30
0.0
  11
 505.000
  21
 322.000
  31
0.0
   0
ARC
   8
LEVEL001
   6
CONTINUOUS
  62
7
  10
 473.000
  20
 340.000
  30
0.0
  40
 2.00000
  50
0.0
  51
 90.0000
   0
ARC
   8
LEVEL001
   6
CONTINUOUS
  62
7
  10
 507.000
  20
 340.000
  30
0.0
  40
 2.00000
  50
 90.0000
  51
 180.000
   0
ARC
   8
LEVEL001
   6
CONTINUOUS
  62
7
  10
 485.500
  20
 318.000
  30
0.0
  40
 2.00000
  50
0.0
  51
 90.0000
   0
ARC
   8
LEVEL001
   6
CONTINUOUS
  62
7
  10
 494.500
  20
 318.000
  30
0.0
  40
 2.00000
  50
 90.0000
  51
 180.000
   0
LINE
   8
LEVEL001
   6
CONTINUOUS
  62
7
  10
 490.000
  20
 334.887
  30
0.0
  11
 492.500
  21
 333.443
  31
0.0
   0
LINE
   8
LEVEL001
   6
CONTINUOUS
  62
7
  10
 492.500
  20
 333.443
  30
0.0
  11
 492.500
  21
 330.557
  31
0.0
   0
LINE
   8
LEVEL001
   6
CONTINUOUS
  62
7
  10
 492.500
  20
 330.557
  30
0.0
  11
 490.000
  21
 329.113
  31
0.0
   0
LINE
   8
LEVEL001
   6
CONTINUOUS
  62
7
  10
 490.000
  20
 329.113
  30
0.0
  11
 487.500
  21
 330.557
  31
0.0
   0
LINE
   8
LEVEL001
   6
CONTINUOUS
  62
7
  10
 487.500
  20
 330.557
  30
0.0
  11
 487.500
  21
 333.443
  31
0.0
   0
LINE
   8
LEVEL001
   6
CONTINUOUS
  62
7
  10
 487.500
  20
 333.443
  30
0.0
  11
 490.000
  21
 334.887
  31
0.0
   0
CIRCLE
   8
LEVEL001
   6
CONTINUOUS
  62
7
  10
 490.000
  20
 332.000
  30
0.0
  40
 5.00000
   0
CIRCLE
   8
LEVEL001
   6
CONTINUOUS
  62
7
  10
 490.000
  20
 332.000
  30
0.0
  40
 4.48038
   0
LINE
   8
LEVEL001
   6
DASHDOT
  62
1
  10
 498.000
  20
 332.000
  30
0.0
  11
 482.000
  21
 332.000
  31
0.0
   0
LINE
   8
LEVEL001
   6
CONTINUOUS
  62
7
  10
 490.000
  20
 350.887
  30
0.0
  11
 492.500
  21
 349.443
  31
0.0
   0
LINE
   8
LEVEL001
   6
CONTINUOUS
  62
7
  10
 492.500
  20
 349.443
  30
0.0
  11
 492.500
  21
 346.557
  31
0.0
   0
LINE
   8
LEVEL001
   6
CONTINUOUS
  62
7
  10
 492.500
  20
 346.557
  30
0.0
  11
 490.000
  21
 345.113
  31
0.0
   0
LINE
   8
LEVEL001
   6
CONTINUOUS
  62
7
  10
 490.000
  20
 345.113
  30
0.0
  11
 487.500
  21
 346.557
  31
0.0
   0
LINE
   8
LEVEL001
   6
CONTINUOUS
  62
7
  10
 487.500
  20
 346.557
  30
0.0
  11
 487.500
  21
 349.443
  31
0.0
   0
LINE
   8
LEVEL001
   6
CONTINUOUS
  62
7
  10
 487.500
  20
 349.443
  30
0.0
  11
 490.000
  21
 350.887
  31
0.0
   0
CIRCLE
   8
LEVEL001
   6
CONTINUOUS
  62
7
  10
 490.000
  20
 348.000
  30
0.0
  40
 5.00000
   0
CIRCLE
   8
LEVEL001
   6
CONTINUOUS
  62
7
  10
 490.000
  20
 348.000
  30
0.0
  40
 4.48038
   0
LINE
   8
LEVEL001
   6
DASHDOT
  62
1
  10
 498.000
  20
 348.000
  30
0.0
  11
 482.000
  21
 348.000
  31
0.0
   0
ARC
   8
LEVEL001
   6
CONTINUOUS
  62
7
  10
 485.500
  20
 255.789
  30
0.0
  40
 2.00000
  50
 275.379
  51
 0.170987E-9
   0
ARC
   8
LEVEL001
   6
CONTINUOUS
  62
7
  10
 494.500
  20
 255.789
  30
0.0
  40
 2.00000
  50
 180.000
  51
 264.621
   0
ARC
   8
LEVEL001
   6
CONTINUOUS
  62
7
  10
 446.231
  20
 212.500
  30
0.0
  40
 2.00000
  50
 174.130
  51
 270.000
   0
ARC
   8
LEVEL001
   6
CONTINUOUS
  62
7
  10
 533.769
  20
 212.500
  30
0.0
  40
 2.00000
  50
 270.000
  51
 5.87002
   0
ARC
   8
LEVEL001
   6
CONTINUOUS
  62
7
  10
 454.239
  20
 212.142
  30
0.0
  40
 8.00000
  50
 272.001
  51
 353.393
   0
ARC
   8
LEVEL001
   6
CONTINUOUS
  62
7
  10
 437.000
  20
 202.534
  30
0.0
  40
 1.00000
  50
 92.0007
  51
 180.002
   0
ARC
   8
LEVEL001
   6
CONTINUOUS
  62
7
  10
 437.000
  20
 162.466
  30
0.0
  40
 1.00000
  50
 180.000
  51
 267.999
   0
LINE
   8
LEVEL001
   6
CONTINUOUS
  62
7
  10
 436.000
  20
 162.466
  30
0.0
  11
 436.000
  21
 202.534
  31
0.0
   0
LINE
   8
LEVEL001
   6
CONTINUOUS
  62
7
  10
 436.965
  20
 203.534
  30
0.0
  11
 454.518
  21
 204.147
  31
0.0
   0
ARC
   8
LEVEL001
   6
CONTINUOUS
  62
7
  10
 543.000
  20
 162.466
  30
0.0
  40
 1.00000
  50
 272.001
  51
 0.486905E-9
   0
LINE
   8
LEVEL001
   6
CONTINUOUS
  62
7
  10
 544.000
  20
 162.466
  30
0.0
  11
 544.000
  21
 202.534
  31
0.0
   0
ARC
   8
LEVEL001
   6
CONTINUOUS
  62
7
  10
 543.000
  20
 202.534
  30
0.0
  40
 1.00000
  50
 359.998
  51
 87.9993
   0
LINE
   8
LEVEL001
   6
CONTINUOUS
  62
7
  10
 543.035
  20
 203.534
  30
0.0
  11
 525.482
  21
 204.147
  31
0.0
   0
ARC
   8
LEVEL001
   6
CONTINUOUS
  62
7
  10
 525.761
  20
 212.142
  30
0.0
  40
 8.00000
  50
 186.607
  51
 267.999
   0
ARC
   8
LEVEL001
   6
CONTINUOUS
  62
7
  10
 490.000
  20
 208.000
  30
0.0
  40
 28.0000
  50
 6.60627
  51
 173.394
   0
CIRCLE
   8
LEVEL001
   6
CONTINUOUS
  62
7
  10
 492.500
  20
 144.000
  30
0.0
  40
 5.00000
   0
ARC
   8
LEVEL001
   6
CONTINUOUS
  62
7
  10
 461.388
  20
 143.603
  30
0.0
  40
 5.00000
  50
 187.724
  51
 268.000
   0
ARC
   8
LEVEL001
   6
CONTINUOUS
  62
7
  10
 451.367
  20
 157.962
  30
0.0
  40
 3.00000
  50
 7.72395
  51
 87.9998
   0
LINE
   8
LEVEL001
   6
CONTINUOUS
  62
7
  10
 456.433
  20
 142.931
  30
0.0
  11
 454.340
  21
 158.365
  31
0.0
   0
LINE
   8
LEVEL001
   6
CONTINUOUS
  62
7
  10
 424.500
  20
 153.764
  30
0.0
  11
 454.964
  21
 153.764
  31
0.0
   0
LINE
   8
LEVEL001
   6
CONTINUOUS
  62
7
  10
 430.131
  20
 145.000
  30
0.0
  11
 456.153
  21
 145.000
  31
0.0
   0
LINE
   8
LEVEL001
   6
DASHDOT
  62
1
  10
 485.000
  20
 144.000
  30
0.0
  11
 500.000
  21
 144.000
  31
0.0
   0
LINE
   8
LEVEL001
   6
DASHDOT
  62
1
  10
 430.000
  20
 182.500
  30
0.0
  11
 565.000
  21
 182.500
  31
0.0
   0
LINE
   8
LEVEL001
   6
CONTINUOUS
  62
7
  10
 554.500
  20
 156.000
  30
0.0
  11
 554.500
  21
 167.750
  31
0.0
   0
ARC
   8
LEVEL001
   6
CONTINUOUS
  62
7
  10
 490.000
  20
 193.000
  30
0.0
  40
 64.5000
  50
 3.77811
  51
 37.0215
   0
LINE
   8
LEVEL001
   6
CONTINUOUS
  62
7
  10
 437.500
  20
 203.552
  30
0.0
  11
 437.500
  21
 204.953
  31
0.0
   0
ARC
   8
LEVEL001
   6
CONTINUOUS
  62
7
  10
 454.239
  20
 212.142
  30
0.0
  40
 6.60000
  50
 272.000
  51
 353.394
   0
LINE
   8
LEVEL001
   6
CONTINUOUS
  62
7
  10
 437.500
  20
 204.953
  30
0.0
  11
 454.469
  21
 205.546
  31
0.0
   0
LINE
   8
LEVEL001
   6
CONTINUOUS
  62
7
  10
 446.231
  20
 210.500
  30
0.0
  11
 460.632
  21
 210.500
  31
0.0
   0
LINE
   8
LEVEL001
   6
CONTINUOUS
  62
7
  10
 487.500
  20
 237.294
  30
0.0
  11
 487.500
  21
 318.000
  31
0.0
   0
LINE
   8
LEVEL001
   6
CONTINUOUS
  62
7
  10
 492.500
  20
 237.294
  30
0.0
  11
 492.500
  21
 318.000
  31
0.0
   0
LINE
   8
LEVEL001
   6
DASHDOT
  62
1
  10
 445.356
  20
 195.012
  30
0.0
  11
 444.794
  21
 211.108
  31
0.0
   0
ARC
   8
LEVEL001
   6
CONTINUOUS
  62
7
  10
 490.000
  20
 208.000
  30
0.0
  40
 46.0000
  50
 95.3794
  51
 179.365
   0
ARC
   8
LEVEL001
   6
CONTINUOUS
  62
7
  10
 443.505
  20
 205.036
  30
0.0
  40
 3.00000
  50
 130.680
  51
 179.583
   0
ARC
   8
LEVEL001
   6
CONTINUOUS
  62
7
  10
 446.504
  20
 205.141
  30
0.0
  40
 3.00000
  50
 4.41713
  51
 53.3159
   0
LINE
   8
LEVEL001
   6
DASHDOT
  62
1
  10
 467.500
  20
 208.000
  30
0.0
  11
 512.500
  21
 208.000
  31
0.0
   0
LINE
   8
LEVEL001
   6
CONTINUOUS
  62
7
  10
 542.500
  20
 203.552
  30
0.0
  11
 542.500
  21
 204.953
  31
0.0
   0
LINE
   8
LEVEL001
   6
CONTINUOUS
  62
7
  10
 542.500
  20
 204.953
  30
0.0
  11
 525.531
  21
 205.546
  31
0.0
   0
ARC
   8
LEVEL001
   6
CONTINUOUS
  62
7
  10
 536.495
  20
 205.036
  30
0.0
  40
 3.00000
  50
 0.417269
  51
 49.3204
   0
LINE
   8
LEVEL001
   6
DASHDOT
  62
1
  10
 534.644
  20
 195.012
  30
0.0
  11
 535.206
  21
 211.108
  31
0.0
   0
ARC
   8
LEVEL001
   6
CONTINUOUS
  62
7
  10
 533.496
  20
 205.141
  30
0.0
  40
 3.00000
  50
 126.683
  51
 175.582
   0
ARC
   8
LEVEL001
   6
CONTINUOUS
  62
7
  10
 525.761
  20
 212.142
  30
0.0
  40
 6.60000
  50
 186.606
  51
 268.000
   0
ARC
   8
LEVEL001
   6
CONTINUOUS
  62
7
  10
 490.000
  20
 208.000
  30
0.0
  40
 29.4000
  50
 6.60657
  51
 173.393
   0
ARC
   8
LEVEL001
   6
CONTINUOUS
  62
7
  10
 490.000
  20
 208.000
  30
0.0
  40
 46.0000
  50
 0.635145
  51
 84.6206
   0
LINE
   8
LEVEL001
   6
CONTINUOUS
  62
7
  10
 519.368
  20
 210.500
  30
0.0
  11
 533.769
  21
 210.500
  31
0.0
   0
ARC
   8
LEVEL001
   6
CONTINUOUS
  62
7
  10
 525.879
  20
 199.351
  30
0.0
  40
 130.000
  50
 143.039
  51
 179.677
   0
ARC
   8
LEVEL001
   6
CONTINUOUS
  62
7
  10
 431.991
  20
 270.000
  30
0.0
  40
 12.5000
  50
 355.398
  51
 143.039
   0
ARC
   8
LEVEL001
   6
CONTINUOUS
  62
7
  10
 410.881
  20
 200.000
  30
0.0
  40
 15.0000
  50
 179.676
  51
 349.889
   0
ARC
   8
LEVEL001
   6
CONTINUOUS
  62
7
  10
 420.500
  20
 176.925
  30
0.0
  40
 5.00000
  50
 0.423395E-11
  51
 112.629
   0
ARC
   8
LEVEL001
   6
CONTINUOUS
  62
7
  10
 413.500
  20
 159.084
  30
0.0
  40
 12.0000
  50
0.0
  51
 93.6625
   0
ARC
   8
LEVEL001
   6
CONTINUOUS
  62
7
  10
 525.879
  20
 199.351
  30
0.0
  40
 135.000
  50
 143.039
  51
 179.677
   0
ARC
   8
LEVEL001
   6
CONTINUOUS
  62
7
  10
 525.879
  20
 199.351
  30
0.0
  40
 144.000
  50
 143.039
  51
 179.677
   0
ARC
   8
LEVEL001
   6
CONTINUOUS
  62
7
  10
 410.881
  20
 200.000
  30
0.0
  40
 29.0000
  50
 179.677
  51
 273.662
   0
ARC
   8
LEVEL001
   6
CONTINUOUS
  62
7
  10
 410.881
  20
 200.000
  30
0.0
  40
 20.0000
  50
 179.677
  51
 292.629
   0
ARC
   8
LEVEL001
   6
CONTINUOUS
  62
7
  10
 432.236
  20
 304.499
  30
0.0
  40
 8.00000
  50
 269.594
  51
 352.123
   0
ARC
   8
LEVEL001
   6
CONTINUOUS
  62
7
  10
 431.991
  20
 270.000
  30
0.0
  40
 26.5000
  50
 89.5940
  51
 143.039
   0
ARC
   8
LEVEL001
   6
CONTINUOUS
  62
7
  10
 440.327
  20
 290.899
  30
0.0
  40
 5.00000
  50
 248.255
  51
 357.699
   0
ARC
   8
LEVEL001
   6
CONTINUOUS
  62
7
  10
 431.991
  20
 270.000
  30
0.0
  40
 17.5000
  50
 68.2552
  51
 143.039
   0
LINE
   8
LEVEL001
   6
CONTINUOUS
  62
7
  10
 443.522
  20
 245.886
  30
0.0
  11
 447.326
  21
 340.561
  31
0.0
   0
ARC
   8
LEVEL001
   6
CONTINUOUS
  62
7
  10
 432.967
  20
 269.633
  30
0.0
  40
 11.5000
  50
 357.699
  51
 142.895
   0
ARC
   8
LEVEL001
   6
CONTINUOUS
  62
7
  10
 411.888
  20
 200.799
  30
0.0
  40
 14.0000
  50
 179.272
  51
 354.299
   0
ARC
   8
LEVEL001
   6
CONTINUOUS
  62
7
  10
 525.879
  20
 199.351
  30
0.0
  40
 128.000
  50
 142.895
  51
 179.272
   0
ARC
   8
LEVEL001
   6
CONTINUOUS
  62
7
  10
 492.500
  20
 218.000
  30
0.0
  40
 84.0000
  50
 255.696
  51
 284.304
   0
ARC
   8
LEVEL001
   6
CONTINUOUS
  62
7
  10
 471.500
  20
 137.635
  30
0.0
  40
 1.00000
  50
 270.000
  51
 0.195413E-10
   0
ARC
   8
LEVEL001
   6
CONTINUOUS
  62
7
  10
 513.500
  20
 135.635
  30
0.0
  40
 1.00000
  50
 0.113991E-10
  51
 104.304
   0
ARC
   8
LEVEL001
   6
CONTINUOUS
  62
7
  10
 513.500
  20
 137.635
  30
0.0
  40
 1.00000
  50
 180.000
  51
 270.000
   0
ARC
   8
LEVEL001
   6
CONTINUOUS
  62
7
  10
 513.500
  20
 127.701
  30
0.0
  40
 1.00000
  50
 284.655
  51
 0.926585E-9
   0
ARC
   8
LEVEL001
   6
CONTINUOUS
  62
7
  10
 492.500
  20
 208.000
  30
0.0
  40
 84.0000
  50
 255.344
  51
 284.656
   0
LINE
   8
LEVEL001
   6
CONTINUOUS
  62
7
  10
 514.500
  20
 127.701
  30
0.0
  11
 514.500
  21
 135.635
  31
0.0
   0
LINE
   8
LEVEL001
   6
CONTINUOUS
  62
7
  10
 470.500
  20
 127.701
  30
0.0
  11
 470.500
  21
 135.635
  31
0.0
   0
ARC
   8
LEVEL001
   6
CONTINUOUS
  62
7
  10
 471.500
  20
 127.701
  30
0.0
  40
 1.00000
  50
 180.001
  51
 255.345
   0
ARC
   8
LEVEL001
   6
CONTINUOUS
  62
7
  10
 471.500
  20
 135.635
  30
0.0
  40
 1.00000
  50
 90.0000
  51
 180.000
   0
ARC
   8
LEVEL001
   6
CONTINUOUS
  62
7
  10
 465.500
  20
 133.453
  30
0.0
  40
 5.00000
  50
0.0
  51
 87.9996
   0
LINE
   8
LEVEL001
   6
CONTINUOUS
  62
7
  10
 461.214
  20
 138.606
  30
0.0
  11
 465.675
  21
 138.450
  31
0.0
   0
LINE
   8
LEVEL001
   6
CONTINUOUS
  62
7
  10
 470.500
  20
 132.000
  30
0.0
  11
 420.500
  21
 132.000
  31
0.0
   0
LINE
   8
LEVEL001
   6
CONTINUOUS
  62
7
  10
 466.000
  20
 132.000
  30
0.0
  11
 466.000
  21
 138.428
  31
0.0
   0
ARC
   8
LEVEL001
   6
CONTINUOUS
  62
7
  10
 469.500
  20
 157.328
  30
0.0
  40
 3.00000
  50
 0.217126E-11
  51
 87.9999
   0
LINE
   8
LEVEL001
   6
CONTINUOUS
  62
7
  10
 436.965
  20
 161.466
  30
0.0
  11
 469.605
  21
 160.327
  31
0.0
   0
ARC
   8
LEVEL001
   6
CONTINUOUS
  62
7
  10
 515.500
  20
 157.503
  30
0.0
  40
 3.00000
  50
 91.9996
  51
 180.000
   0
LINE
   8
LEVEL001
   6
CONTINUOUS
  62
7
  10
 543.035
  20
 161.466
  30
0.0
  11
 515.395
  21
 160.501
  31
0.0
   0
ARC
   8
LEVEL001
   6
CONTINUOUS
  62
7
  10
 548.418
  20
 126.876
  30
0.0
  40
 35.0000
  50
 98.6561
  51
 165.918
   0
LINE
   8
LEVEL001
   6
CONTINUOUS
  62
7
  10
 526.012
  20
 153.764
  30
0.0
  11
 555.500
  21
 153.764
  31
0.0
   0
LINE
   8
LEVEL001
   6
CONTINUOUS
  62
7
  10
 518.476
  20
 145.000
  30
0.0
  11
 549.869
  21
 145.000
  31
0.0
   0
LINE
   8
LEVEL001
   6
CONTINUOUS
  62
7
  10
 559.500
  20
 132.000
  30
0.0
  11
 514.500
  21
 132.000
  31
0.0
   0
LINE
   8
LEVEL001
   6
DASHDOT
  62
1
  10
 492.500
  20
 120.000
  30
0.0
  11
 492.500
  21
 182.500
  31
0.0
   0
LINE
   8
LEVEL001
   6
CONTINUOUS
  62
7
  10
 534.500
  20
 358.000
  30
0.0
  11
 534.500
  21
 344.000
  31
0.0
   0
ARC
   8
LEVEL001
   6
CONTINUOUS
  62
7
  10
 447.500
  20
 344.000
  30
0.0
  40
 2.00000
  50
 180.000
  51
 270.000
   0
LINE
   8
LEVEL001
   6
CONTINUOUS
  62
7
  10
 445.500
  20
 358.000
  30
0.0
  11
 445.500
  21
 344.000
  31
0.0
   0
LINE
   8
LEVEL001
   6
CONTINUOUS
  62
7
  10
 447.500
  20
 342.000
  30
0.0
  11
 473.000
  21
 342.000
  31
0.0
   0
ARC
   8
LEVEL001
   6
CONTINUOUS
  62
7
  10
 445.328
  20
 340.641
  30
0.0
  40
 2.00000
  50
 357.700
  51
 57.1066
   0
LINE
   8
LEVEL001
   6
CONTINUOUS
  62
7
  10
 445.666
  20
 343.202
  30
0.0
  11
 440.160
  21
 303.403
  31
0.0
   0
ARC
   8
LEVEL001
   6
CONTINUOUS
  62
7
  10
 134.500
  20
 372.000
  30
0.0
  40
 3.00000
  50
 90.0000
  51
 180.000
   0
LINE
   8
LEVEL001
   6
CONTINUOUS
  62
7
  10
 131.500
  20
 360.000
  30
0.0
  11
 131.500
  21
 372.000
  31
0.0
   0
ARC
   8
LEVEL001
   6
CONTINUOUS
  62
7
  10
 127.500
  20
 358.000
  30
0.0
  40
 2.00000
  50
 90.0002
  51
 179.999
   0
LINE
   8
LEVEL001
   6
CONTINUOUS
  62
7
  10
 100.500
  20
 132.000
  30
0.0
  11
 100.500
  21
 143.000
  31
0.0
   0
ARC
   8
LEVEL001
   6
CONTINUOUS
  62
7
  10
 102.500
  20
 156.000
  30
0.0
  40
 3.00000
  50
 311.810
  51
0.0
   0
LINE
   8
LEVEL001
   6
CONTINUOUS
  62
7
  10
 104.500
  20
 143.000
  30
0.0
  11
 104.500
  21
 153.764
  31
0.0
   0
ARC
   8
LEVEL001
   6
CONTINUOUS
  62
7
  10
 125.328
  20
 340.641
  30
0.0
  40
 2.00000
  50
 357.700
  51
 57.1066
   0
ARC
   8
LEVEL001
   6
CONTINUOUS
  62
7
  10
 98.5423
  20
 246.889
  30
0.0
  40
 25.0000
  50
 322.978
  51
 357.699
   0
LINE
   8
LEVEL001
   6
CONTINUOUS
  62
7
  10
 123.522
  20
 245.886
  30
0.0
  11
 127.326
  21
 340.561
  31
0.0
   0
ARC
   8
LEVEL001
   6
CONTINUOUS
  62
7
  10
 109.500
  20
 123.000
  30
0.0
  40
 3.00000
  50
 180.000
  51
 270.000
   0
LINE
   8
LEVEL001
   6
CONTINUOUS
  62
7
  10
 106.500
  20
 132.000
  30
0.0
  11
 106.500
  21
 123.000
  31
0.0
   0
ARC
   8
LEVEL001
   6
CONTINUOUS
  62
7
  10
 205.500
  20
 372.000
  30
0.0
  40
 3.00000
  50
0.0
  51
 90.0000
   0
LINE
   8
LEVEL001
   6
CONTINUOUS
  62
7
  10
 208.500
  20
 360.000
  30
0.0
  11
 208.500
  21
 372.000
  31
0.0
   0
LINE
   8
LEVEL001
   6
CONTINUOUS
  62
7
  10
 239.500
  20
 132.000
  30
0.0
  11
 239.500
  21
 143.000
  31
0.0
   0
ARC
   8
LEVEL001
   6
CONTINUOUS
  62
7
  10
 237.500
  20
 156.000
  30
0.0
  40
 3.00000
  50
 180.000
  51
 228.190
   0
LINE
   8
LEVEL001
   6
CONTINUOUS
  62
7
  10
 235.500
  20
 143.000
  30
0.0
  11
 235.500
  21
 153.764
  31
0.0
   0
ARC
   8
LEVEL001
   6
CONTINUOUS
  62
7
  10
 230.500
  20
 123.000
  30
0.0
  40
 3.00000
  50
 270.000
  51
0.0
   0
LINE
   8
LEVEL001
   6
CONTINUOUS
  62
7
  10
 233.500
  20
 132.000
  30
0.0
  11
 233.500
  21
 123.000
  31
0.0
   0
LINE
   8
LEVEL001
   6
DASHDOT
  62
1
  10
 170.000
  20
 112.500
  30
0.0
  11
 170.000
  21
 382.500
  31
0.0
   0
LINE
   8
LEVEL001
   6
CONTINUOUS
  62
7
  10
 205.500
  20
 375.000
  30
0.0
  11
 134.500
  21
 375.000
  31
0.0
   0
LINE
   8
LEVEL001
   6
CONTINUOUS
  62
7
  10
 230.500
  20
 120.000
  30
0.0
  11
 109.500
  21
 120.000
  31
0.0
   0
ARC
   8
LEVEL001
   6
CONTINUOUS
  62
7
  10
 215.576
  20
 318.147
  30
0.0
  40
 2.00000
  50
 105.606
  51
 182.302
   0
ARC
   8
LEVEL001
   6
CONTINUOUS
  62
7
  10
 214.500
  20
 322.000
  30
0.0
  40
 2.00000
  50
 285.606
  51
 0.113178E-4
   0
LINE
   8
LEVEL001
   6
CONTINUOUS
  62
7
  10
 216.500
  20
 353.000
  30
0.0
  11
 216.500
  21
 343.000
  31
0.0
   0
LINE
   8
LEVEL001
   6
CONTINUOUS
  62
7
  10
 216.500
  20
 343.000
  30
0.0
  11
 222.200
  21
 343.000
  31
0.0
   0
LINE
   8
LEVEL001
   6
CONTINUOUS
  62
7
  10
 222.200
  20
 343.000
  30
0.0
  11
 222.500
  21
 343.520
  31
0.0
   0
LINE
   8
LEVEL001
   6
CONTINUOUS
  62
7
  10
 222.500
  20
 343.520
  30
0.0
  11
 222.500
  21
 352.480
  31
0.0
   0
LINE
   8
LEVEL001
   6
CONTINUOUS
  62
7
  10
 222.500
  20
 352.480
  30
0.0
  11
 222.200
  21
 353.000
  31
0.0
   0
LINE
   8
LEVEL001
   6
CONTINUOUS
  62
7
  10
 222.200
  20
 353.000
  30
0.0
  11
 216.500
  21
 353.000
  31
0.0
   0
LINE
   8
LEVEL001
   6
CONTINUOUS
  62
7
  10
 222.200
  20
 353.000
  30
0.0
  11
 222.200
  21
 343.000
  31
0.0
   0
LINE
   8
LEVEL001
   6
DASHDOT
  62
1
  10
 225.500
  20
 348.000
  30
0.0
  11
 197.500
  21
 348.000
  31
0.0
   0
LINE
   8
LEVEL001
   6
CONTINUOUS
  62
7
  10
 216.500
  20
 337.000
  30
0.0
  11
 216.500
  21
 327.000
  31
0.0
   0
LINE
   8
LEVEL001
   6
CONTINUOUS
  62
7
  10
 216.500
  20
 327.000
  30
0.0
  11
 222.200
  21
 327.000
  31
0.0
   0
LINE
   8
LEVEL001
   6
CONTINUOUS
  62
7
  10
 222.200
  20
 327.000
  30
0.0
  11
 222.500
  21
 327.520
  31
0.0
   0
LINE
   8
LEVEL001
   6
CONTINUOUS
  62
7
  10
 222.500
  20
 327.520
  30
0.0
  11
 222.500
  21
 336.480
  31
0.0
   0
LINE
   8
LEVEL001
   6
CONTINUOUS
  62
7
  10
 222.500
  20
 336.480
  30
0.0
  11
 222.200
  21
 337.000
  31
0.0
   0
LINE
   8
LEVEL001
   6
CONTINUOUS
  62
7
  10
 222.200
  20
 337.000
  30
0.0
  11
 216.500
  21
 337.000
  31
0.0
   0
LINE
   8
LEVEL001
   6
CONTINUOUS
  62
7
  10
 222.200
  20
 337.000
  30
0.0
  11
 222.200
  21
 327.000
  31
0.0
   0
LINE
   8
LEVEL001
   6
DASHDOT
  62
1
  10
 225.500
  20
 332.000
  30
0.0
  11
 197.500
  21
 332.000
  31
0.0
   0
ARC
   8
LEVEL001
   6
CONTINUOUS
  62
7
  10
 215.328
  20
 359.000
  30
0.0
  40
 1.00000
  50
 199.472
  51
 270.000
   0
ARC
   8
LEVEL001
   6
CONTINUOUS
  62
7
  10
 212.500
  20
 358.000
  30
0.0
  40
 2.00000
  50
 19.4718
  51
 90.0003
   0
ARC
   8
LEVEL001
   6
CONTINUOUS
  62
7
  10
 215.500
  20
 357.000
  30
0.0
  40
 1.00000
  50
 359.998
  51
 90.0000
   0
LINE
   8
LEVEL001
   6
CONTINUOUS
  62
7
  10
 215.500
  20
 358.000
  30
0.0
  11
 215.328
  21
 358.000
  31
0.0
   0
LINE
   8
LEVEL001
   6
CONTINUOUS
  62
7
  10
 268.505
  20
 182.861
  30
0.0
  11
 270.500
  21
 185.000
  31
0.0
   0
ARC
   8
LEVEL001
   6
CONTINUOUS
  62
7
  10
 252.500
  20
 163.707
  30
0.0
  40
 18.0000
  50
 93.9725
  51
 180.000
   0
LINE
   8
LEVEL001
   6
CONTINUOUS
  62
7
  10
 234.500
  20
 156.000
  30
0.0
  11
 234.500
  21
 163.707
  31
0.0
   0
LINE
   8
LEVEL001
   6
CONTINUOUS
  62
7
  10
 268.505
  20
 182.861
  30
0.0
  11
 251.253
  21
 181.663
  31
0.0
   0
LINE
   8
LEVEL001
   6
CONTINUOUS
  62
7
  10
 268.505
  20
 233.139
  30
0.0
  11
 270.500
  21
 231.000
  31
0.0
   0
ARC
   8
LEVEL001
   6
CONTINUOUS
  62
7
  10
 245.187
  20
 278.621
  30
0.0
  40
 30.0000
  50
 182.301
  51
 237.020
   0
ARC
   8
LEVEL001
   6
CONTINUOUS
  62
7
  10
 248.866
  20
 246.531
  30
0.0
  40
 12.0000
  50
 199.825
  51
 266.028
   0
LINE
   8
LEVEL001
   6
CONTINUOUS
  62
7
  10
 268.505
  20
 233.139
  30
0.0
  11
 248.035
  21
 234.560
  31
0.0
   0
ARC
   8
LEVEL001
   6
CONTINUOUS
  62
7
  10
 216.881
  20
 235.000
  30
0.0
  40
 22.0000
  50
 19.8255
  51
 57.0204
   0
LINE
   8
LEVEL001
   6
DASHDOT
  62
1
  10
 141.500
  20
 369.750
  30
0.0
  11
 141.500
  21
 378.750
  31
0.0
   0
LINE
   8
LEVEL001
   6
DASHDOT
  62
1
  10
 152.000
  20
 369.750
  30
0.0
  11
 152.000
  21
 378.750
  31
0.0
   0
LINE
   8
LEVEL001
   6
DASHDOT
  62
1
  10
 188.000
  20
 369.750
  30
0.0
  11
 188.000
  21
 378.750
  31
0.0
   0
LINE
   8
LEVEL001
   6
DASHDOT
  62
1
  10
 198.500
  20
 369.750
  30
0.0
  11
 198.500
  21
 378.750
  31
0.0
   0
ARC
   8
LEVEL001
   6
CONTINUOUS
  62
7
  10
 236.500
  20
 156.025
  30
0.0
  40
 2.00000
  50
 128.010
  51
 180.000
   0
ARC
   8
LEVEL001
   6
CONTINUOUS
  62
7
  10
 268.249
  20
 180.839
  30
0.0
  40
 2.00000
  50
 93.9723
  51
 128.010
   0
LINE
   8
LEVEL001
   6
CONTINUOUS
  62
7
  10
 267.018
  20
 182.415
  30
0.0
  11
 235.268
  21
 157.601
  31
0.0
   0
ARC
   8
LEVEL001
   6
CONTINUOUS
  62
7
  10
 286.635
  20
 290.075
  30
0.0
  40
 60.0000
  50
 195.000
  51
 251.403
   0
ARC
   8
LEVEL001
   6
CONTINUOUS
  62
7
  10
 226.500
  20
 321.316
  30
0.0
  40
 10.0000
  50
 180.000
  51
 195.000
   0
LINE
   8
LEVEL001
   6
CONTINUOUS
  62
7
  10
 216.500
  20
 357.000
  30
0.0
  11
 216.500
  21
 321.317
  31
0.0
   0
LINE
   8
LEVEL001
   6
CONTINUOUS
  62
7
  10
 216.841
  20
 318.728
  30
0.0
  11
 228.679
  21
 274.546
  31
0.0
   0
ARC
   8
LEVEL001
   6
CONTINUOUS
  62
7
  10
 115.500
  20
 342.688
  30
0.0
  40
 10.0000
  50
 352.123
  51
0.0
   0
LINE
   8
LEVEL001
   6
CONTINUOUS
  62
7
  10
 125.500
  20
 358.000
  30
0.0
  11
 125.500
  21
 342.688
  31
0.0
   0
LINE
   8
LEVEL001
   6
DASHDOT
  62
1
  10
 122.000
  20
 116.250
  30
0.0
  11
 122.000
  21
 125.250
  31
0.0
   0
LINE
   8
LEVEL001
   6
DASHDOT
  62
1
  10
 138.000
  20
 116.250
  30
0.0
  11
 138.000
  21
 125.250
  31
0.0
   0
LINE
   8
LEVEL001
   6
DASHDOT
  62
1
  10
 154.000
  20
 116.250
  30
0.0
  11
 154.000
  21
 125.250
  31
0.0
   0
LINE
   8
LEVEL001
   6
DASHDOT
  62
1
  10
 186.000
  20
 116.250
  30
0.0
  11
 186.000
  21
 125.250
  31
0.0
   0
LINE
   8
LEVEL001
   6
DASHDOT
  62
1
  10
 202.000
  20
 116.250
  30
0.0
  11
 202.000
  21
 125.250
  31
0.0
   0
LINE
   8
LEVEL001
   6
DASHDOT
  62
1
  10
 218.000
  20
 116.250
  30
0.0
  11
 218.000
  21
 125.250
  31
0.0
   0
LINE
   8
LEVEL001
   6
DASHDOT
  62
1
  10
 222.500
  20
 137.500
  30
0.0
  11
 242.500
  21
 137.500
  31
0.0
   0
LINE
   8
LEVEL003
   6
CONTINUOUS
  62
3
  10
 132.500
  20
 375.000
  30
0.0
  11
 66.0000
  21
 375.000
  31
0.0
   0
LINE
   8
LEVEL003
   6
CONTINUOUS
  62
3
  10
 107.500
  20
 120.000
  30
0.0
  11
 66.0000
  21
 120.000
  31
0.0
   0
LINE
   8
LEVEL003
   6
CONTINUOUS
  62
3
  10
 70.0000
  20
 375.000
  30
0.0
  11
 70.0000
  21
 120.000
  31
0.0
   0
LINE
   8
LEVEL003
   6
CONTINUOUS
  62
3
  10
 69.0000
  20
 369.000
  30
0.0
  11
 70.0000
  21
 375.000
  31
0.0
   0
LINE
   8
LEVEL003
   6
CONTINUOUS
  62
3
  10
 70.0000
  20
 375.000
  30
0.0
  11
 71.0000
  21
 369.000
  31
0.0
   0
LINE
   8
LEVEL003
   6
CONTINUOUS
  62
3
  10
 70.0000
  20
 375.000
  30
0.0
  11
 70.0000
  21
 369.000
  31
0.0
   0
LINE
   8
LEVEL003
   6
CONTINUOUS
  62
3
  10
 71.0000
  20
 126.000
  30
0.0
  11
 70.0000
  21
 120.000
  31
0.0
   0
LINE
   8
LEVEL003
   6
CONTINUOUS
  62
3
  10
 70.0000
  20
 120.000
  30
0.0
  11
 69.0000
  21
 126.000
  31
0.0
   0
LINE
   8
LEVEL003
   6
CONTINUOUS
  62
3
  10
 70.0000
  20
 120.000
  30
0.0
  11
 70.0000
  21
 126.000
  31
0.0
   0
TEXT
   8
LEVEL003
  62
3
  10
 73.7333
  20
 241.500
  30
0.0
  40
 8.00000
   1
255
  50
 90.0000
  41
 0.500000
   7
STANDARD
  72
1
  11
 68.4000
  21
 247.500
  31
0.0
  73
2
   0
LINE
   8
LEVEL003
   6
CONTINUOUS
  62
3
  10
 125.500
  20
 360.000
  30
0.0
  11
 96.0000
  21
 360.000
  31
0.0
   0
LINE
   8
LEVEL003
   6
CONTINUOUS
  62
3
  10
 132.500
  20
 375.000
  30
0.0
  11
 96.0000
  21
 375.000
  31
0.0
   0
LINE
   8
LEVEL003
   6
CONTINUOUS
  62
3
  10
 100.000
  20
 360.000
  30
0.0
  11
 100.000
  21
 375.000
  31
0.0
   0
LINE
   8
LEVEL003
   6
CONTINUOUS
  62
3
  10
 101.000
  20
 366.000
  30
0.0
  11
 100.000
  21
 360.000
  31
0.0
   0
LINE
   8
LEVEL003
   6
CONTINUOUS
  62
3
  10
 100.000
  20
 360.000
  30
0.0
  11
 99.0000
  21
 366.000
  31
0.0
   0
LINE
   8
LEVEL003
   6
CONTINUOUS
  62
3
  10
 100.000
  20
 360.000
  30
0.0
  11
 100.000
  21
 366.000
  31
0.0
   0
LINE
   8
LEVEL003
   6
CONTINUOUS
  62
3
  10
 99.0000
  20
 369.000
  30
0.0
  11
 100.000
  21
 375.000
  31
0.0
   0
LINE
   8
LEVEL003
   6
CONTINUOUS
  62
3
  10
 100.000
  20
 375.000
  30
0.0
  11
 101.000
  21
 369.000
  31
0.0
   0
LINE
   8
LEVEL003
   6
CONTINUOUS
  62
3
  10
 100.000
  20
 375.000
  30
0.0
  11
 100.000
  21
 369.000
  31
0.0
   0
TEXT
   8
LEVEL003
  62
3
  10
 103.733
  20
 363.500
  30
0.0
  40
 8.00000
   1
15
  50
 90.0000
  41
 0.500000
   7
STANDARD
  72
1
  11
 98.4000
  21
 367.500
  31
0.0
  73
2
   0
LINE
   8
LEVEL003
   6
CONTINUOUS
  62
3
  10
 131.500
  20
 374.000
  30
0.0
  11
 131.500
  21
 404.000
  31
0.0
   0
LINE
   8
LEVEL003
   6
CONTINUOUS
  62
3
  10
 208.500
  20
 374.000
  30
0.0
  11
 208.500
  21
 404.000
  31
0.0
   0
LINE
   8
LEVEL003
   6
CONTINUOUS
  62
3
  10
 131.500
  20
 400.000
  30
0.0
  11
 208.500
  21
 400.000
  31
0.0
   0
LINE
   8
LEVEL003
   6
CONTINUOUS
  62
3
  10
 137.500
  20
 399.000
  30
0.0
  11
 131.500
  21
 400.000
  31
0.0
   0
LINE
   8
LEVEL003
   6
CONTINUOUS
  62
3
  10
 131.500
  20
 400.000
  30
0.0
  11
 137.500
  21
 401.000
  31
0.0
   0
LINE
   8
LEVEL003
   6
CONTINUOUS
  62
3
  10
 131.500
  20
 400.000
  30
0.0
  11
 137.500
  21
 400.000
  31
0.0
   0
LINE
   8
LEVEL003
   6
CONTINUOUS
  62
3
  10
 202.500
  20
 401.000
  30
0.0
  11
 208.500
  21
 400.000
  31
0.0
   0
LINE
   8
LEVEL003
   6
CONTINUOUS
  62
3
  10
 208.500
  20
 400.000
  30
0.0
  11
 202.500
  21
 399.000
  31
0.0
   0
LINE
   8
LEVEL003
   6
CONTINUOUS
  62
3
  10
 208.500
  20
 400.000
  30
0.0
  11
 202.500
  21
 400.000
  31
0.0
   0
TEXT
   8
LEVEL003
  62
3
  10
 162.000
  20
 396.267
  30
0.0
  40
 8.00000
   1
%%c77
   7
STANDARD
  72
1
  11
 170.000
  21
 401.600
  31
0.0
  73
2
   0
LINE
   8
LEVEL003
   6
CONTINUOUS
  62
3
  10
 106.500
  20
 121.000
  30
0.0
  11
 106.500
  21
 96.0000
  31
0.0
   0
LINE
   8
LEVEL003
   6
CONTINUOUS
  62
3
  10
 233.500
  20
 121.000
  30
0.0
  11
 233.500
  21
 96.0000
  31
0.0
   0
LINE
   8
LEVEL003
   6
CONTINUOUS
  62
3
  10
 106.500
  20
 100.000
  30
0.0
  11
 233.500
  21
 100.000
  31
0.0
   0
LINE
   8
LEVEL003
   6
CONTINUOUS
  62
3
  10
 112.500
  20
 99.0000
  30
0.0
  11
 106.500
  21
 100.000
  31
0.0
   0
LINE
   8
LEVEL003
   6
CONTINUOUS
  62
3
  10
 106.500
  20
 100.000
  30
0.0
  11
 112.500
  21
 101.000
  31
0.0
   0
LINE
   8
LEVEL003
   6
CONTINUOUS
  62
3
  10
 106.500
  20
 100.000
  30
0.0
  11
 112.500
  21
 100.000
  31
0.0
   0
LINE
   8
LEVEL003
   6
CONTINUOUS
  62
3
  10
 227.500
  20
 101.000
  30
0.0
  11
 233.500
  21
 100.000
  31
0.0
   0
LINE
   8
LEVEL003
   6
CONTINUOUS
  62
3
  10
 233.500
  20
 100.000
  30
0.0
  11
 227.500
  21
 99.0000
  31
0.0
   0
LINE
   8
LEVEL003
   6
CONTINUOUS
  62
3
  10
 233.500
  20
 100.000
  30
0.0
  11
 227.500
  21
 100.000
  31
0.0
   0
TEXT
   8
LEVEL003
  62
3
  10
 160.000
  20
 96.2667
  30
0.0
  40
 8.00000
   1
%%c127
   7
STANDARD
  72
1
  11
 170.000
  21
 101.600
  31
0.0
  73
2
   0
TEXT
   8
LEVEL020
  62
6
  10
 404.000
  20
 494.000
  30
0.0
  40
 10.0000
   1
　　　　２５０
  41
 0.700000
   7
STANDARD
   0
TEXT
   8
LEVEL020
  62
6
  10
 460.000
  20
 494.000
  30
0.0
  40
 10.0000
   1
ｋＮ
  41
 0.700000
   7
STANDARD
   0
TEXT
   8
LEVEL020
  62
6
  10
 290.000
  20
 452.000
  30
0.0
  40
 10.0000
   1
質　　　量
   7
STANDARD
   0
LINE
   8
LEVEL001
   6
DASHDOT
  62
1
  10
 461.500
  20
 369.750
  30
0.0
  11
 461.500
  21
 378.750
  31
0.0
   0
LINE
   8
LEVEL001
   6
DASHDOT
  62
1
  10
 472.000
  20
 369.750
  30
0.0
  11
 472.000
  21
 378.750
  31
0.0
   0
LINE
   8
LEVEL001
   6
DASHDOT
  62
1
  10
 508.000
  20
 369.750
  30
0.0
  11
 508.000
  21
 378.750
  31
0.0
   0
LINE
   8
LEVEL001
   6
DASHDOT
  62
1
  10
 518.500
  20
 369.750
  30
0.0
  11
 518.500
  21
 378.750
  31
0.0
   0
LINE
   8
LEVEL001
   6
DASHDOT
  62
1
  10
 442.000
  20
 116.250
  30
0.0
  11
 442.000
  21
 125.250
  31
0.0
   0
LINE
   8
LEVEL001
   6
DASHDOT
  62
1
  10
 458.000
  20
 116.250
  30
0.0
  11
 458.000
  21
 125.250
  31
0.0
   0
LINE
   8
LEVEL001
   6
DASHDOT
  62
1
  10
 474.000
  20
 116.250
  30
0.0
  11
 474.000
  21
 125.250
  31
0.0
   0
LINE
   8
LEVEL001
   6
DASHDOT
  62
1
  10
 506.000
  20
 116.250
  30
0.0
  11
 506.000
  21
 125.250
  31
0.0
   0
LINE
   8
LEVEL001
   6
DASHDOT
  62
1
  10
 522.000
  20
 116.250
  30
0.0
  11
 522.000
  21
 125.250
  31
0.0
   0
LINE
   8
LEVEL001
   6
DASHDOT
  62
1
  10
 538.000
  20
 116.250
  30
0.0
  11
 538.000
  21
 125.250
  31
0.0
   0
ARC
   8
LEVEL001
   6
CONTINUOUS
  62
7
  10
 320.000
  20
 218.000
  30
0.0
  40
 1.00000
  50
0.0
  51
 90.0000
   0
ARC
   8
LEVEL001
   6
CONTINUOUS
  62
7
  10
 320.000
  20
 198.000
  30
0.0
  40
 1.00000
  50
 270.000
  51
0.0
   0
LINE
   8
LEVEL001
   6
CONTINUOUS
  62
7
  10
 321.000
  20
 198.000
  30
0.0
  11
 321.000
  21
 218.000
  31
0.0
   0
LINE
   8
LEVEL001
   6
CONTINUOUS
  62
7
  10
 318.350
  20
 219.000
  30
0.0
  11
 320.000
  21
 219.000
  31
0.0
   0
LINE
   8
LEVEL001
   6
CONTINUOUS
  62
7
  10
 318.350
  20
 197.000
  30
0.0
  11
 320.000
  21
 197.000
  31
0.0
   0
LINE
   8
LEVEL001
   6
CONTINUOUS
  62
7
  10
 317.000
  20
 197.000
  30
0.0
  11
 317.000
  21
 219.000
  31
0.0
   0
LINE
   8
LEVEL001
   6
CONTINUOUS
  62
7
  10
 317.000
  20
 219.000
  30
0.0
  11
 317.000
  21
 225.500
  31
0.0
   0
LINE
   8
LEVEL001
   6
CONTINUOUS
  62
7
  10
 317.000
  20
 190.500
  30
0.0
  11
 317.000
  21
 197.000
  31
0.0
   0
LINE
   8
LEVEL001
   6
CONTINUOUS
  62
7
  10
 317.000
  20
 222.600
  30
0.0
  11
 318.350
  21
 222.600
  31
0.0
   0
LINE
   8
LEVEL001
   6
CONTINUOUS
  62
7
  10
 317.000
  20
 194.800
  30
0.0
  11
 318.350
  21
 194.800
  31
0.0
   0
LINE
   8
LEVEL001
   6
CONTINUOUS
  62
7
  10
 318.350
  20
 194.800
  30
0.0
  11
 318.350
  21
 222.600
  31
0.0
   0
LINE
   8
LEVEL001
   6
CONTINUOUS
  62
7
  10
 272.000
  20
 237.400
  30
0.0
  11
 313.600
  21
 237.400
  31
0.0
   0
ARC
   8
LEVEL001
   6
CONTINUOUS
  62
7
  10
 338.800
  20
 144.000
  30
0.0
  40
 4.00000
  50
 272.196
  51
 87.8041
   0
ARC
   8
LEVEL001
   6
CONTINUOUS
  62
7
  10
 312.800
  20
 126.000
  30
0.0
  40
 2.00000
  50
 270.000
  51
 0.437132E-3
   0
ARC
   8
LEVEL001
   6
CONTINUOUS
  62
7
  10
 272.800
  20
 126.000
  30
0.0
  40
 2.00000
  50
 180.000
  51
 270.000
   0
LINE
   8
LEVEL001
   6
DASHDOT
  62
1
  10
 292.800
  20
 120.000
  30
0.0
  11
 292.800
  21
 240.000
  31
0.0
   0
LINE
   8
LEVEL001
   6
DASHDOT
  62
1
  10
 267.392
  20
 182.500
  30
0.0
  11
 318.208
  21
 182.500
  31
0.0
   0
LINE
   8
LEVEL001
   6
DASHDOT
  62
1
  10
 298.142
  20
 144.000
  30
0.0
  11
 350.642
  21
 144.000
  31
0.0
   0
LINE
   8
LEVEL001
   6
CONTINUOUS
  62
7
  10
 317.000
  20
 225.500
  30
0.0
  11
 315.000
  21
 225.500
  31
0.0
   0
LINE
   8
LEVEL001
   6
CONTINUOUS
  62
7
  10
 314.500
  20
 225.500
  30
0.0
  11
 313.600
  21
 225.500
  31
0.0
   0
LINE
   8
LEVEL001
   6
CONTINUOUS
  62
7
  10
 317.000
  20
 190.500
  30
0.0
  11
 315.000
  21
 190.500
  31
0.0
   0
LINE
   8
LEVEL001
   6
CONTINUOUS
  62
7
  10
 314.500
  20
 190.500
  30
0.0
  11
 313.600
  21
 190.500
  31
0.0
   0
LINE
   8
LEVEL001
   6
CONTINUOUS
  62
7
  10
 212.500
  20
 360.000
  30
0.0
  11
 127.500
  21
 360.000
  31
0.0
   0
LINE
   8
LEVEL001
   6
CONTINUOUS
  62
7
  10
 270.500
  20
 223.000
  30
0.0
  11
 272.000
  21
 223.000
  31
0.0
   0
LINE
   8
LEVEL001
   6
CONTINUOUS
  62
7
  10
 270.500
  20
 193.000
  30
0.0
  11
 272.000
  21
 193.000
  31
0.0
   0
LINE
   8
LEVEL001
   6
CONTINUOUS
  62
7
  10
 270.500
  20
 185.000
  30
0.0
  11
 270.500
  21
 231.000
  31
0.0
   0
LINE
   8
LEVEL001
   6
CONTINUOUS
  62
7
  10
 100.500
  20
 132.000
  30
0.0
  11
 239.500
  21
 132.000
  31
0.0
   0
ARC
   8
LEVEL001
   6
DOT
  62
3
  10
 281.800
  20
 161.750
  30
0.0
  40
 2.00000
  50
 90.0000
  51
 180.000
   0
ARC
   8
LEVEL001
   6
DOT
  62
3
  10
 277.800
  20
 126.000
  30
0.0
  40
 2.00000
  50
 270.001
  51
 0.437139E-3
   0
LINE
   8
LEVEL001
   6
DOT
  62
3
  10
 279.800
  20
 126.000
  30
0.0
  11
 279.800
  21
 161.750
  31
0.0
   0
ARC
   8
LEVEL001
   6
DOT
  62
3
  10
 303.800
  20
 161.750
  30
0.0
  40
 2.00000
  50
0.0
  51
 90.0000
   0
ARC
   8
LEVEL001
   6
DOT
  62
3
  10
 307.800
  20
 126.000
  30
0.0
  40
 2.00000
  50
 180.000
  51
 270.000
   0
LINE
   8
LEVEL001
   6
DOT
  62
3
  10
 305.800
  20
 126.000
  30
0.0
  11
 305.800
  21
 161.750
  31
0.0
   0
LINE
   8
LEVEL001
   6
DOT
  62
3
  10
 281.800
  20
 163.750
  30
0.0
  11
 303.800
  21
 163.750
  31
0.0
   0
LINE
   8
LEVEL001
   6
CONTINUOUS
  62
7
  10
 272.000
  20
 182.500
  30
0.0
  11
 272.000
  21
 237.400
  31
0.0
   0
LINE
   8
LEVEL001
   6
CONTINUOUS
  62
7
  10
 314.500
  20
 197.000
  30
0.0
  11
 315.000
  21
 197.000
  31
0.0
   0
LINE
   8
LEVEL001
   6
CONTINUOUS
  62
7
  10
 314.500
  20
 219.000
  30
0.0
  11
 315.000
  21
 219.000
  31
0.0
   0
LINE
   8
LEVEL001
   6
CONTINUOUS
  62
7
  10
 315.000
  20
 225.500
  30
0.0
  11
 315.000
  21
 190.500
  31
0.0
   0
LINE
   8
LEVEL001
   6
CONTINUOUS
  62
7
  10
 314.500
  20
 225.500
  30
0.0
  11
 314.500
  21
 190.500
  31
0.0
   0
CIRCLE
   8
LEVEL001
   6
CONTINUOUS
  62
7
  10
 292.800
  20
 182.500
  30
0.0
  40
 14.7500
   0
LINE
   8
LEVEL001
   6
CONTINUOUS
  62
7
  10
 313.600
  20
 237.400
  30
0.0
  11
 313.600
  21
 182.500
  31
0.0
   0
LINE
   8
LEVEL001
   6
DASHDOT
  62
1
  10
 170.000
  20
 208.000
  30
0.0
  11
 327.500
  21
 208.000
  31
0.0
   0
ARC
   8
LEVEL001
   6
CONTINUOUS
  62
7
  10
 127.500
  20
 344.000
  30
0.0
  40
 2.00000
  50
 180.000
  51
 270.000
   0
ARC
   8
LEVEL001
   6
CONTINUOUS
  62
7
  10
 125.328
  20
 340.641
  30
0.0
  40
 2.00000
  50
 357.700
  51
 57.1066
   0
LINE
   8
LEVEL001
   6
CONTINUOUS
  62
7
  10
 127.500
  20
 342.000
  30
0.0
  11
 211.896
  21
 342.000
  31
0.0
   0
LINE
   8
LEVEL001
   6
CONTINUOUS
  62
7
  10
 211.896
  20
 343.000
  30
0.0
  11
 211.896
  21
 358.000
  31
0.0
   0
LINE
   8
LEVEL001
   6
CONTINUOUS
  62
7
  10
 215.211
  20
 277.417
  30
0.0
  11
 212.692
  21
 340.108
  31
0.0
   0
LINE
   8
LEVEL001
   6
CONTINUOUS
  62
7
  10
 105.500
  20
 153.000
  30
0.0
  11
 234.500
  21
 153.000
  31
0.0
   0
LINE
   8
LEVEL001
   6
CONTINUOUS
  62
7
  10
 194.000
  20
 145.000
  30
0.0
  11
 194.000
  21
 132.000
  31
0.0
   0
LINE
   8
LEVEL001
   6
CONTINUOUS
  62
7
  10
 146.000
  20
 145.000
  30
0.0
  11
 146.000
  21
 132.000
  31
0.0
   0
LINE
   8
LEVEL001
   6
CONTINUOUS
  62
7
  10
 104.775
  20
 132.000
  30
0.0
  11
 104.775
  21
 143.000
  31
0.0
   0
LINE
   8
LEVEL001
   6
CONTINUOUS
  62
7
  10
 110.131
  20
 132.000
  30
0.0
  11
 110.131
  21
 145.000
  31
0.0
   0
LINE
   8
LEVEL001
   6
CONTINUOUS
  62
7
  10
 110.131
  20
 145.000
  30
0.0
  11
 146.000
  21
 145.000
  31
0.0
   0
LINE
   8
LEVEL001
   6
CONTINUOUS
  62
7
  10
 235.225
  20
 132.000
  30
0.0
  11
 235.225
  21
 143.000
  31
0.0
   0
LINE
   8
LEVEL001
   6
CONTINUOUS
  62
7
  10
 229.869
  20
 132.000
  30
0.0
  11
 229.869
  21
 145.000
  31
0.0
   0
LINE
   8
LEVEL001
   6
CONTINUOUS
  62
7
  10
 194.000
  20
 145.000
  30
0.0
  11
 229.869
  21
 145.000
  31
0.0
   0
LINE
   8
LEVEL001
   6
CONTINUOUS
  62
7
  10
 110.131
  20
 143.000
  30
0.0
  11
 100.500
  21
 143.000
  31
0.0
   0
LINE
   8
LEVEL001
   6
CONTINUOUS
  62
7
  10
 239.500
  20
 143.000
  30
0.0
  11
 229.869
  21
 143.000
  31
0.0
   0
LINE
   8
LEVEL001
   6
CONTINUOUS
  62
7
  10
 194.000
  20
 143.000
  30
0.0
  11
 146.000
  21
 143.000
  31
0.0
   0
ARC
   8
LEVEL001
   6
CONTINUOUS
  62
7
  10
 174.500
  20
 340.000
  30
0.0
  40
 2.00000
  50
 90.0000
  51
 180.000
   0
ARC
   8
LEVEL001
   6
CONTINUOUS
  62
7
  10
 165.500
  20
 340.000
  30
0.0
  40
 2.00000
  50
0.0
  51
 90.0000
   0
ARC
   8
LEVEL001
   6
CONTINUOUS
  62
7
  10
 237.500
  20
 202.500
  30
0.0
  40
 3.00000
  50
 90.0000
  51
 180.000
   0
ARC
   8
LEVEL001
   6
CONTINUOUS
  62
7
  10
 237.500
  20
 213.500
  30
0.0
  40
 3.00000
  50
 180.000
  51
 270.000
   0
LINE
   8
LEVEL001
   6
CONTINUOUS
  62
7
  10
 237.500
  20
 210.500
  30
0.0
  11
 267.500
  21
 210.500
  31
0.0
   0
LINE
   8
LEVEL001
   6
CONTINUOUS
  62
7
  10
 267.500
  20
 205.500
  30
0.0
  11
 237.500
  21
 205.500
  31
0.0
   0
LINE
   8
LEVEL001
   6
CONTINUOUS
  62
7
  10
 268.505
  20
 233.139
  30
0.0
  11
 268.505
  21
 182.861
  31
0.0
   0
ARC
   8
LEVEL001
   6
CONTINUOUS
  62
7
  10
 164.500
  20
 159.000
  30
0.0
  40
 3.00000
  50
 270.000
  51
0.0
   0
LINE
   8
LEVEL001
   6
CONTINUOUS
  62
7
  10
 172.500
  20
 159.000
  30
0.0
  11
 172.500
  21
 340.000
  31
0.0
   0
ARC
   8
LEVEL001
   6
CONTINUOUS
  62
7
  10
 175.500
  20
 159.000
  30
0.0
  40
 3.00000
  50
 180.000
  51
 270.000
   0
ARC
   8
LEVEL001
   6
CONTINUOUS
  62
7
  10
 162.500
  20
 293.095
  30
0.0
  40
 5.00000
  50
 270.000
  51
 0.130276E-11
   0
ARC
   8
LEVEL001
   6
CONTINUOUS
  62
7
  10
 162.500
  20
 285.595
  30
0.0
  40
 2.50000
  50
 90.0000
  51
 180.000
   0
ARC
   8
LEVEL001
   6
CONTINUOUS
  62
7
  10
 177.500
  20
 293.095
  30
0.0
  40
 5.00000
  50
 180.000
  51
 270.000
   0
ARC
   8
LEVEL001
   6
CONTINUOUS
  62
7
  10
 177.500
  20
 285.595
  30
0.0
  40
 2.50000
  50
0.0
  51
 90.0000
   0
ARC
   8
LEVEL001
   6
CONTINUOUS
  62
7
  10
 170.000
  20
 293.999
  30
0.0
  40
 2.50000
  50
0.0
  51
 180.000
   0
LINE
   8
LEVEL001
   6
CONTINUOUS
  62
7
  10
 167.500
  20
 159.000
  30
0.0
  11
 167.500
  21
 340.000
  31
0.0
   0
ARC
   8
LEVEL001
   6
CONTINUOUS
  62
7
  10
 162.500
  20
 174.463
  30
0.0
  40
 5.00000
  50
0.0
  51
 90.0000
   0
ARC
   8
LEVEL001
   6
CONTINUOUS
  62
7
  10
 162.500
  20
 181.963
  30
0.0
  40
 2.50000
  50
 180.000
  51
 270.000
   0
ARC
   8
LEVEL001
   6
CONTINUOUS
  62
7
  10
 177.500
  20
 174.463
  30
0.0
  40
 5.00000
  50
 90.0000
  51
 180.000
   0
ARC
   8
LEVEL001
   6
CONTINUOUS
  62
7
  10
 177.500
  20
 181.963
  30
0.0
  40
 2.50000
  50
 270.000
  51
0.0
   0
ARC
   8
LEVEL001
   6
CONTINUOUS
  62
7
  10
 170.000
  20
 173.559
  30
0.0
  40
 2.50000
  50
 180.000
  51
0.0
   0
ARC
   8
LEVEL001
   6
CONTINUOUS
  62
7
  10
 185.000
  20
 286.255
  30
0.0
  40
 5.00000
  50
 90.0000
  51
 180.000
   0
ARC
   8
LEVEL001
   6
CONTINUOUS
  62
7
  10
 155.000
  20
 286.255
  30
0.0
  40
 5.00000
  50
0.0
  51
 90.0000
   0
LINE
   8
LEVEL001
   6
CONTINUOUS
  62
7
  10
 180.000
  20
 286.255
  30
0.0
  11
 180.000
  21
 181.540
  31
0.0
   0
ARC
   8
LEVEL001
   6
CONTINUOUS
  62
7
  10
 185.000
  20
 181.540
  30
0.0
  40
 5.00000
  50
 180.000
  51
 270.000
   0
LINE
   8
LEVEL001
   6
CONTINUOUS
  62
7
  10
 160.000
  20
 286.255
  30
0.0
  11
 160.000
  21
 181.540
  31
0.0
   0
ARC
   8
LEVEL001
   6
CONTINUOUS
  62
7
  10
 155.000
  20
 181.540
  30
0.0
  40
 5.00000
  50
 270.000
  51
0.0
   0
ARC
   8
LEVEL001
   6
CONTINUOUS
  62
7
  10
 103.500
  20
 198.000
  30
0.0
  40
 2.00000
  50
 0.350115E-10
  51
 60.0000
   0
LINE
   8
LEVEL001
   6
CONTINUOUS
  62
7
  10
 125.406
  20
 341.318
  30
0.0
  11
 106.644
  21
 205.707
  31
0.0
   0
ARC
   8
LEVEL001
   6
CONTINUOUS
  62
7
  10
 103.672
  20
 206.118
  30
0.0
  40
 3.00000
  50
 291.445
  51
 352.123
   0
ARC
   8
LEVEL001
   6
CONTINUOUS
  62
7
  10
 103.500
  20
 164.000
  30
0.0
  40
 2.00000
  50
 300.000
  51
 0.651378E-11
   0
LINE
   8
LEVEL001
   6
CONTINUOUS
  62
7
  10
 105.500
  20
 156.000
  30
0.0
  11
 105.500
  21
 156.536
  31
0.0
   0
ARC
   8
LEVEL001
   6
CONTINUOUS
  62
7
  10
 102.500
  20
 156.536
  30
0.0
  40
 3.00000
  50
 0.542815E-12
  51
 53.1301
   0
ARC
   8
LEVEL001
   6
CONTINUOUS
  62
7
  10
 105.500
  20
 201.464
  30
0.0
  40
 2.00000
  50
 111.445
  51
 240.000
   0
POLYLINE
   8
LEVEL001
   6
CONTINUOUS
  62
7
  66
1
  10
0.0
  20
0.0
  30
0.0
  70
0
   0
VERTEX
   8
LEVEL001
   6
CONTINUOUS
  62
7
  10
 104.493
  20
 162.391
  30
0.0
   0
VERTEX
   8
LEVEL001
   6
CONTINUOUS
  62
7
  10
 105.572
  20
 162.800
  30
0.0
   0
VERTEX
   8
LEVEL001
   6
CONTINUOUS
  62
7
  10
 106.618
  20
 163.494
  30
0.0
   0
VERTEX
   8
LEVEL001
   6
CONTINUOUS
  62
7
  10
 107.616
  20
 164.461
  30
0.0
   0
VERTEX
   8
LEVEL001
   6
CONTINUOUS
  62
7
  10
 108.549
  20
 165.686
  30
0.0
   0
VERTEX
   8
LEVEL001
   6
CONTINUOUS
  62
7
  10
 109.404
  20
 167.150
  30
0.0
   0
VERTEX
   8
LEVEL001
   6
CONTINUOUS
  62
7
  10
 110.166
  20
 168.830
  30
0.0
   0
VERTEX
   8
LEVEL001
   6
CONTINUOUS
  62
7
  10
 110.825
  20
 170.700
  30
0.0
   0
VERTEX
   8
LEVEL001
   6
CONTINUOUS
  62
7
  10
 111.369
  20
 172.731
  30
0.0
   0
VERTEX
   8
LEVEL001
   6
CONTINUOUS
  62
7
  10
 111.790
  20
 174.890
  30
0.0
   0
VERTEX
   8
LEVEL001
   6
CONTINUOUS
  62
7
  10
 112.082
  20
 177.145
  30
0.0
   0
VERTEX
   8
LEVEL001
   6
CONTINUOUS
  62
7
  10
 112.240
  20
 179.461
  30
0.0
   0
VERTEX
   8
LEVEL001
   6
CONTINUOUS
  62
7
  10
 112.262
  20
 181.800
  30
0.0
   0
VERTEX
   8
LEVEL001
   6
CONTINUOUS
  62
7
  10
 112.147
  20
 184.127
  30
0.0
   0
VERTEX
   8
LEVEL001
   6
CONTINUOUS
  62
7
  10
 111.897
  20
 186.405
  30
0.0
   0
VERTEX
   8
LEVEL001
   6
CONTINUOUS
  62
7
  10
 111.516
  20
 188.598
  30
0.0
   0
VERTEX
   8
LEVEL001
   6
CONTINUOUS
  62
7
  10
 111.010
  20
 190.674
  30
0.0
   0
VERTEX
   8
LEVEL001
   6
CONTINUOUS
  62
7
  10
 110.386
  20
 192.598
  30
0.0
   0
VERTEX
   8
LEVEL001
   6
CONTINUOUS
  62
7
  10
 109.656
  20
 194.341
  30
0.0
   0
VERTEX
   8
LEVEL001
   6
CONTINUOUS
  62
7
  10
 108.829
  20
 195.876
  30
0.0
   0
VERTEX
   8
LEVEL001
   6
CONTINUOUS
  62
7
  10
 107.919
  20
 197.179
  30
0.0
   0
VERTEX
   8
LEVEL001
   6
CONTINUOUS
  62
7
  10
 106.940
  20
 198.229
  30
0.0
   0
VERTEX
   8
LEVEL001
   6
CONTINUOUS
  62
7
  10
 105.907
  20
 199.011
  30
0.0
   0
VERTEX
   8
LEVEL001
   6
CONTINUOUS
  62
7
  10
 104.837
  20
 199.511
  30
0.0
   0
VERTEX
   8
LEVEL001
   6
CONTINUOUS
  62
7
  10
 104.794
  20
 199.525
  30
0.0
   0
SEQEND
   0
ARC
   8
LEVEL001
   6
CONTINUOUS
  62
7
  10
 105.500
  20
 160.536
  30
0.0
  40
 2.00000
  50
 118.489
  51
 233.130
   0
LINE
   8
LEVEL001
   6
CONTINUOUS
  62
7
  10
 105.500
  20
 198.000
  30
0.0
  11
 105.500
  21
 164.000
  31
0.0
   0
ARC
   8
LEVEL001
   6
CONTINUOUS
  62
7
  10
 170.000
  20
 193.000
  30
0.0
  40
 64.5000
  50
 142.979
  51
 168.659
   0
POLYLINE
   8
LEVEL001
   6
CONTINUOUS
  62
7
  66
1
  10
0.0
  20
0.0
  30
0.0
  70
0
   0
VERTEX
   8
LEVEL001
   6
CONTINUOUS
  62
7
  10
 107.052
  20
 159.089
  30
0.0
   0
VERTEX
   8
LEVEL001
   6
CONTINUOUS
  62
7
  10
 108.555
  20
 160.050
  30
0.0
   0
VERTEX
   8
LEVEL001
   6
CONTINUOUS
  62
7
  10
 109.979
  20
 161.338
  30
0.0
   0
VERTEX
   8
LEVEL001
   6
CONTINUOUS
  62
7
  10
 111.301
  20
 162.933
  30
0.0
   0
VERTEX
   8
LEVEL001
   6
CONTINUOUS
  62
7
  10
 112.503
  20
 164.810
  30
0.0
   0
VERTEX
   8
LEVEL001
   6
CONTINUOUS
  62
7
  10
 113.563
  20
 166.940
  30
0.0
   0
VERTEX
   8
LEVEL001
   6
CONTINUOUS
  62
7
  10
 114.467
  20
 169.289
  30
0.0
   0
VERTEX
   8
LEVEL001
   6
CONTINUOUS
  62
7
  10
 115.199
  20
 171.820
  30
0.0
   0
VERTEX
   8
LEVEL001
   6
CONTINUOUS
  62
7
  10
 115.749
  20
 174.495
  30
0.0
   0
VERTEX
   8
LEVEL001
   6
CONTINUOUS
  62
7
  10
 116.108
  20
 177.272
  30
0.0
   0
VERTEX
   8
LEVEL001
   6
CONTINUOUS
  62
7
  10
 116.270
  20
 180.106
  30
0.0
   0
VERTEX
   8
LEVEL001
   6
CONTINUOUS
  62
7
  10
 116.233
  20
 182.955
  30
0.0
   0
VERTEX
   8
LEVEL001
   6
CONTINUOUS
  62
7
  10
 115.997
  20
 185.773
  30
0.0
   0
VERTEX
   8
LEVEL001
   6
CONTINUOUS
  62
7
  10
 115.566
  20
 188.517
  30
0.0
   0
VERTEX
   8
LEVEL001
   6
CONTINUOUS
  62
7
  10
 114.947
  20
 191.143
  30
0.0
   0
VERTEX
   8
LEVEL001
   6
CONTINUOUS
  62
7
  10
 114.149
  20
 193.611
  30
0.0
   0
VERTEX
   8
LEVEL001
   6
CONTINUOUS
  62
7
  10
 113.185
  20
 195.882
  30
0.0
   0
VERTEX
   8
LEVEL001
   6
CONTINUOUS
  62
7
  10
 112.070
  20
 197.921
  30
0.0
   0
VERTEX
   8
LEVEL001
   6
CONTINUOUS
  62
7
  10
 110.821
  20
 199.696
  30
0.0
   0
VERTEX
   8
LEVEL001
   6
CONTINUOUS
  62
7
  10
 109.458
  20
 201.180
  30
0.0
   0
VERTEX
   8
LEVEL001
   6
CONTINUOUS
  62
7
  10
 108.002
  20
 202.348
  30
0.0
   0
VERTEX
   8
LEVEL001
   6
CONTINUOUS
  62
7
  10
 107.075
  20
 202.899
  30
0.0
   0
SEQEND
   0
ARC
   8
LEVEL001
   6
CONTINUOUS
  62
7
  10
 292.800
  20
 182.500
  30
0.0
  40
 20.8000
  50
 180.000
  51
 0.180930E-9
   0
LINE
   8
LEVEL001
   6
CONTINUOUS
  62
7
  10
 272.800
  20
 124.000
  30
0.0
  11
 277.800
  21
 124.000
  31
0.0
   0
LINE
   8
LEVEL001
   6
CONTINUOUS
  62
7
  10
 307.800
  20
 124.000
  30
0.0
  11
 312.800
  21
 124.000
  31
0.0
   0
ARC
   8
LEVEL001
   6
CONTINUOUS
  62
7
  10
 324.150
  20
 153.568
  30
0.0
  40
 5.00000
  50
 241.704
  51
 267.804
   0
LINE
   8
LEVEL001
   6
CONTINUOUS
  62
7
  10
 323.958
  20
 148.572
  30
0.0
  11
 338.953
  21
 147.997
  31
0.0
   0
LINE
   8
LEVEL001
   6
CONTINUOUS
  62
7
  10
 323.958
  20
 139.428
  30
0.0
  11
 338.953
  21
 140.003
  31
0.0
   0
ARC
   8
LEVEL001
   6
CONTINUOUS
  62
7
  10
 324.150
  20
 134.432
  30
0.0
  40
 5.00000
  50
 92.1961
  51
 118.296
   0
LINE
   8
LEVEL001
   6
CONTINUOUS
  62
7
  10
 314.800
  20
 126.000
  30
0.0
  11
 314.800
  21
 132.090
  31
0.0
   0
ARC
   8
LEVEL001
   6
CONTINUOUS
  62
7
  10
 319.800
  20
 132.090
  30
0.0
  40
 5.00000
  50
 118.296
  51
 180.000
   0
LINE
   8
LEVEL001
   6
CONTINUOUS
  62
7
  10
 317.430
  20
 136.493
  30
0.0
  11
 321.780
  21
 138.834
  31
0.0
   0
LINE
   8
LEVEL003
   6
CONTINUOUS
  62
7
  10
 501.000
  20
 182.500
  30
0.0
  11
 503.000
  21
 184.500
  31
0.0
   0
LINE
   8
LEVEL003
   6
CONTINUOUS
  62
7
  10
 503.000
  20
 184.500
  30
0.0
  11
 503.000
  21
 183.500
  31
0.0
   0
LINE
   8
LEVEL003
   6
CONTINUOUS
  62
7
  10
 503.000
  20
 183.500
  30
0.0
  11
 510.000
  21
 183.500
  31
0.0
   0
LINE
   8
LEVEL003
   6
CONTINUOUS
  62
7
  10
 510.000
  20
 183.500
  30
0.0
  11
 510.000
  21
 181.500
  31
0.0
   0
LINE
   8
LEVEL003
   6
CONTINUOUS
  62
7
  10
 510.000
  20
 181.500
  30
0.0
  11
 503.000
  21
 181.500
  31
0.0
   0
LINE
   8
LEVEL003
   6
CONTINUOUS
  62
7
  10
 503.000
  20
 181.500
  30
0.0
  11
 503.000
  21
 180.500
  31
0.0
   0
LINE
   8
LEVEL003
   6
CONTINUOUS
  62
7
  10
 503.000
  20
 180.500
  30
0.0
  11
 501.000
  21
 182.500
  31
0.0
   0
ARC
   8
LEVEL003
   6
CONTINUOUS
  62
7
  10
 508.500
  20
 172.700
  30
0.0
  40
 2.00000
  50
 90.0000
  51
 180.000
   0
LINE
   8
LEVEL003
   6
CONTINUOUS
  62
7
  10
 506.500
  20
 162.500
  30
0.0
  11
 506.500
  21
 172.700
  31
0.0
   0
LINE
   8
LEVEL001
   6
CONTINUOUS
  62
7
  10
 488.480
  20
 162.206
  30
0.0
  11
 492.714
  21
 169.540
  31
0.0
   0
LINE
   8
LEVEL001
   6
CONTINUOUS
  62
7
  10
 492.714
  20
 169.540
  30
0.0
  11
 501.182
  21
 169.540
  31
0.0
   0
LINE
   8
LEVEL001
   6
CONTINUOUS
  62
7
  10
 501.182
  20
 169.540
  30
0.0
  11
 502.144
  21
 171.206
  31
0.0
   0
LINE
   8
LEVEL001
   6
CONTINUOUS
  62
7
  10
 502.144
  20
 171.206
  30
0.0
  11
 487.010
  21
 171.206
  31
0.0
   0
LINE
   8
LEVEL001
   6
CONTINUOUS
  62
7
  10
 487.010
  20
 171.206
  30
0.0
  11
 481.813
  21
 162.206
  31
0.0
   0
LINE
   8
LEVEL001
   6
CONTINUOUS
  62
7
  10
 481.813
  20
 162.206
  30
0.0
  11
 488.480
  21
 162.206
  31
0.0
   0
LINE
   8
LEVEL003
   6
CONTINUOUS
  62
7
  10
 466.203
  20
 182.500
  30
0.0
  11
 464.203
  21
 184.500
  31
0.0
   0
LINE
   8
LEVEL003
   6
CONTINUOUS
  62
7
  10
 464.203
  20
 184.500
  30
0.0
  11
 464.203
  21
 183.500
  31
0.0
   0
LINE
   8
LEVEL003
   6
CONTINUOUS
  62
7
  10
 464.203
  20
 183.500
  30
0.0
  11
 457.203
  21
 183.500
  31
0.0
   0
LINE
   8
LEVEL003
   6
CONTINUOUS
  62
7
  10
 457.203
  20
 183.500
  30
0.0
  11
 457.203
  21
 181.500
  31
0.0
   0
LINE
   8
LEVEL003
   6
CONTINUOUS
  62
7
  10
 457.203
  20
 181.500
  30
0.0
  11
 464.203
  21
 181.500
  31
0.0
   0
LINE
   8
LEVEL003
   6
CONTINUOUS
  62
7
  10
 464.203
  20
 181.500
  30
0.0
  11
 464.203
  21
 180.500
  31
0.0
   0
LINE
   8
LEVEL003
   6
CONTINUOUS
  62
7
  10
 464.203
  20
 180.500
  30
0.0
  11
 466.203
  21
 182.500
  31
0.0
   0
ARC
   8
LEVEL003
   6
CONTINUOUS
  62
7
  10
 476.500
  20
 172.700
  30
0.0
  40
 2.00000
  50
 0.651378E-11
  51
 90.0000
   0
LINE
   8
LEVEL003
   6
CONTINUOUS
  62
7
  10
 478.500
  20
 162.500
  30
0.0
  11
 478.500
  21
 172.700
  31
0.0
   0
ARC
   8
LEVEL003
   6
CONTINUOUS
  62
7
  10
 481.500
  20
 162.500
  30
0.0
  40
 3.00000
  50
 180.000
  51
 270.000
   0
CIRCLE
   8
LEVEL001
   6
CONTINUOUS
  62
7
  10
 495.023
  20
 165.540
  30
0.0
  40
 3.33333
   0
LINE
   8
LEVEL003
   6
CONTINUOUS
  62
7
  10
 481.500
  20
 159.500
  30
0.0
  11
 503.500
  21
 159.500
  31
0.0
   0
ARC
   8
LEVEL003
   6
CONTINUOUS
  62
7
  10
 503.500
  20
 162.500
  30
0.0
  40
 3.00000
  50
 270.000
  51
0.0
   0
ARC
   8
LEVEL003
   6
CONTINUOUS
  62
7
  10
 510.560
  20
 270.000
  30
0.0
  40
 2.00000
  50
 181.558
  51
 270.000
   0
ARC
   8
LEVEL003
   6
CONTINUOUS
  62
7
  10
 509.758
  20
 265.000
  30
0.0
  40
 3.00000
  50
 90.0000
  51
 181.941
   0
LINE
   8
LEVEL003
   6
CONTINUOUS
  62
7
  10
 504.937
  20
 318.690
  30
0.0
  11
 506.591
  21
 269.879
  31
0.0
   0
ARC
   8
LEVEL003
   6
CONTINUOUS
  62
7
  10
 535.293
  20
 270.000
  30
0.0
  40
 2.00000
  50
 270.000
  51
 1.76291
   0
ARC
   8
LEVEL003
   6
CONTINUOUS
  62
7
  10
 535.293
  20
 265.000
  30
0.0
  40
 3.00000
  50
 90.0000
  51
 181.941
   0
LINE
   8
LEVEL001
   6
CONTINUOUS
  62
7
  10
 536.478
  20
 245.886
  30
0.0
  11
 535.589
  21
 268.012
  31
0.0
   0
LINE
   8
LEVEL003
   6
CONTINUOUS
  62
7
  10
 509.758
  20
 268.000
  30
0.0
  11
 535.293
  21
 268.000
  31
0.0
   0
ARC
   8
LEVEL001
   6
CONTINUOUS
  62
7
  10
 532.500
  20
 344.000
  30
0.0
  40
 2.00000
  50
 270.000
  51
0.0
   0
ARC
   8
LEVEL003
   6
CONTINUOUS
  62
7
  10
 533.200
  20
 338.000
  30
0.0
  40
 2.00000
  50
 1.76291
  51
 90.0000
   0
ARC
   8
LEVEL003
   6
CONTINUOUS
  62
7
  10
 533.200
  20
 343.000
  30
0.0
  40
 3.00000
  50
 221.038
  51
 270.000
   0
ARC
   8
LEVEL001
   6
CONTINUOUS
  62
7
  10
 534.672
  20
 340.641
  30
0.0
  40
 2.00000
  50
 122.893
  51
 160.952
   0
LINE
   8
LEVEL001
   6
CONTINUOUS
  62
7
  10
 507.000
  20
 342.000
  30
0.0
  11
 532.500
  21
 342.000
  31
0.0
   0
LINE
   8
LEVEL003
   6
CONTINUOUS
  62
7
  10
 537.292
  20
 270.062
  30
0.0
  11
 535.199
  21
 338.062
  31
0.0
   0
LINE
   8
LEVEL001
   6
CONTINUOUS
  62
7
  10
 534.334
  20
 343.202
  30
0.0
  11
 534.910
  21
 339.037
  31
0.0
   0
LINE
   8
LEVEL001
   6
CONTINUOUS
  62
7
  10
 535.243
  20
 336.630
  30
0.0
  11
 553.891
  21
 201.839
  31
0.0
   0
ARC
   8
LEVEL003
   6
CONTINUOUS
  62
7
  10
 508.710
  20
 338.000
  30
0.0
  40
 2.00000
  50
 90.0000
  51
 181.558
   0
ARC
   8
LEVEL003
   6
CONTINUOUS
  62
7
  10
 507.114
  20
 343.000
  30
0.0
  40
 3.00000
  50
 245.229
  51
 270.000
   0
LINE
   8
LEVEL003
   6
CONTINUOUS
  62
7
  10
 506.711
  20
 337.946
  30
0.0
  11
 508.561
  21
 269.946
  31
0.0
   0
LINE
   8
LEVEL003
   6
CONTINUOUS
  62
7
  10
 507.114
  20
 340.000
  30
0.0
  11
 533.200
  21
 340.000
  31
0.0
   0
TEXT
   8
LEVEL003
  62
7
  10
 453.545
  20
 186.702
  30
0.0
  40
 8.00000
   1
ＵＰ
  50
 180.000
  41
 0.875000
   7
STANDARD
   0
TEXT
   8
LEVEL003
  62
7
  10
 541.368
  20
 186.702
  30
0.0
  40
 8.00000
   1
ＤＯＷＮ
  50
 180.000
  41
 0.875000
   7
STANDARD
   0
LINE
   8
LEVEL001
   6
CONTINUOUS
  62
7
  10
 435.500
  20
 168.750
  30
0.0
  11
 435.500
  21
 196.250
  31
0.0
   0
ARC
   8
LEVEL001
   6
CONTINUOUS
  62
7
  10
 559.500
  20
 168.750
  30
0.0
  40
 1.00000
  50
 270.000
  51
0.0
   0
ARC
   8
LEVEL001
   6
CONTINUOUS
  62
7
  10
 559.500
  20
 196.250
  30
0.0
  40
 1.00000
  50
 0.325689E-11
  51
 90.0000
   0
LINE
   8
LEVEL001
   6
CONTINUOUS
  62
7
  10
 560.500
  20
 168.750
  30
0.0
  11
 560.500
  21
 196.250
  31
0.0
   0
LINE
   8
LEVEL001
   6
CONTINUOUS
  62
7
  10
 472.500
  20
 137.635
  30
0.0
  11
 472.500
  21
 179.502
  31
0.0
   0
LINE
   8
LEVEL001
   6
CONTINUOUS
  62
7
  10
 512.500
  20
 137.635
  30
0.0
  11
 512.500
  21
 179.502
  31
0.0
   0
LINE
   8
LEVEL001
   6
CONTINUOUS
  62
7
  10
 544.000
  20
 197.250
  30
0.0
  11
 559.500
  21
 197.250
  31
0.0
   0
LINE
   8
LEVEL001
   6
CONTINUOUS
  62
7
  10
 544.000
  20
 167.750
  30
0.0
  11
 559.500
  21
 167.750
  31
0.0
   0
ARC
   8
LEVEL001
   6
CONTINUOUS
  62
7
  10
 436.500
  20
 196.250
  30
0.0
  40
 1.00000
  50
 120.001
  51
 180.000
   0
ARC
   8
LEVEL001
   6
CONTINUOUS
  62
7
  10
 436.500
  20
 168.750
  30
0.0
  40
 1.00000
  50
 180.000
  51
 239.999
   0
ARC
   8
LEVEL001
   6
CONTINUOUS
  62
7
  10
 515.500
  20
 179.502
  30
0.0
  40
 3.00000
  50
 139.267
  51
 180.000
   0
ARC
   8
LEVEL001
   6
CONTINUOUS
  62
7
  10
 469.500
  20
 179.502
  30
0.0
  40
 3.00000
  50
 0.829971E-4
  51
 47.8667
   0
ARC
   8
LEVEL001
   6
CONTINUOUS
  62
7
  10
 342.800
  20
 144.000
  30
0.0
  40
 31.5202
  50
 164.180
  51
 194.939
   0
LINE
   8
LEVEL001
   6
CONTINUOUS
  62
7
  10
 322.800
  20
 147.650
  30
0.0
  11
 322.800
  21
 140.995
  31
0.0
   0
ARC
   8
LEVEL001
   6
CONTINUOUS
  62
7
  10
 314.800
  20
 155.195
  30
0.0
  40
 2.00000
  50
 180.000
  51
 241.704
   0
ARC
   8
LEVEL001
   6
CONTINUOUS
  62
7
  10
 271.800
  20
 135.297
  30
0.0
  40
 1.00000
  50
 284.302
  51
 0.232860E-3
   0
ARC
   8
LEVEL001
   6
CONTINUOUS
  62
7
  10
 271.800
  20
 133.232
  30
0.0
  40
 1.00000
  50
 104.655
  51
 180.000
   0
ARC
   8
LEVEL001
   6
CONTINUOUS
  62
7
  10
 292.800
  20
 52.9323
  30
0.0
  40
 83.9998
  50
 104.304
  51
 104.656
   0
ARC
   8
LEVEL001
   6
CONTINUOUS
  62
7
  10
 292.832
  20
 42.4219
  30
0.0
  40
 94.2131
  50
 77.8664
  51
 102.172
   0
ARC
   8
LEVEL001
   6
CONTINUOUS
  62
7
  10
 313.800
  20
 135.297
  30
0.0
  40
 1.00000
  50
 180.000
  51
 255.698
   0
ARC
   8
LEVEL001
   6
CONTINUOUS
  62
7
  10
 313.800
  20
 133.232
  30
0.0
  40
 1.00000
  50
 0.253713E-4
  51
 75.3454
   0
ARC
   8
LEVEL001
   6
CONTINUOUS
  62
7
  10
 292.800
  20
 52.9323
  30
0.0
  40
 83.9998
  50
 75.3442
  51
 75.6965
   0
ARC
   8
LEVEL001
   6
CONTINUOUS
  62
7
  10
 292.800
  20
 45.3392
  30
0.0
  40
 80.0783
  50
 79.2038
  51
 100.796
   0
ARC
   8
LEVEL001
   6
CONTINUOUS
  62
7
  10
 292.800
  20
 46.8539
  30
0.0
  40
 80.0783
  50
 75.8184
  51
 104.182
   0
LINE
   8
LEVEL001
   6
CONTINUOUS
  62
7
  10
 270.800
  20
 126.000
  30
0.0
  11
 270.800
  21
 133.245
  31
0.0
   0
ARC
   8
LEVEL001
   6
CONTINUOUS
  62
7
  10
 291.300
  20
 205.089
  30
0.0
  40
 3.00000
  50
 128.679
  51
 177.583
   0
ARC
   8
LEVEL001
   6
CONTINUOUS
  62
7
  10
 294.300
  20
 205.089
  30
0.0
  40
 3.00000
  50
 2.41742
  51
 51.3165
   0
LINE
   8
LEVEL001
   6
CONTINUOUS
  62
7
  10
 313.050
  20
 203.552
  30
0.0
  11
 272.550
  21
 203.552
  31
0.0
   0
LINE
   8
LEVEL001
   6
CONTINUOUS
  62
7
  10
 313.050
  20
 204.953
  30
0.0
  11
 272.550
  21
 204.953
  31
0.0
   0
LINE
   8
LEVEL001
   6
CONTINUOUS
  62
7
  10
 288.303
  20
 205.215
  30
0.0
  11
 297.297
  21
 205.215
  31
0.0
   0
ARC
   8
LEVEL001
   6
CONTINUOUS
  62
7
  10
 292.800
  20
 203.215
  30
0.0
  40
 5.40000
  50
 51.3161
  51
 128.681
   0
LINE
   8
LEVEL001
   6
CONTINUOUS
  62
7
  10
 313.050
  20
 237.400
  30
0.0
  11
 313.050
  21
 203.552
  31
0.0
   0
LINE
   8
LEVEL001
   6
CONTINUOUS
  62
7
  10
 272.550
  20
 237.400
  30
0.0
  11
 272.550
  21
 203.552
  31
0.0
   0
ARC
   8
LEVEL001
   6
CONTINUOUS
  62
7
  10
 445.070
  20
 203.216
  30
0.0
  40
 5.40000
  50
 53.3162
  51
 130.681
   0
ARC
   8
LEVEL001
   6
CONTINUOUS
  62
7
  10
 534.930
  20
 203.216
  30
0.0
  40
 5.40000
  50
 49.3187
  51
 126.684
   0
LINE
   8
LEVEL001
   6
CONTINUOUS
  62
7
  10
 272.800
  20
 135.297
  30
0.0
  11
 272.800
  21
 176.787
  31
0.0
   0
LINE
   8
LEVEL001
   6
CONTINUOUS
  62
7
  10
 312.800
  20
 155.195
  30
0.0
  11
 312.800
  21
 176.787
  31
0.0
   0
LINE
   8
LEVEL001
   6
CONTINUOUS
  62
7
  10
 313.852
  20
 153.434
  30
0.0
  11
 321.780
  21
 149.166
  31
0.0
   0
CIRCLE
   8
LEVEL003
   6
CONTINUOUS
  62
7
  10
 607.095
  20
 52.1622
  30
0.0
  40
 6.48000
   0
LINE
   8
LEVEL003
   6
CONTINUOUS
  62
7
  10
 619.813
  20
 58.6422
  30
0.0
  11
 611.583
  21
 44.3862
  31
0.0
   0
LINE
   8
LEVEL003
   6
CONTINUOUS
  62
7
  10
 611.583
  20
 44.3862
  30
0.0
  11
 595.122
  21
 44.3862
  31
0.0
   0
LINE
   8
LEVEL003
   6
CONTINUOUS
  62
7
  10
 593.251
  20
 41.1462
  30
0.0
  11
 622.673
  21
 41.1462
  31
0.0
   0
LINE
   8
LEVEL003
   6
CONTINUOUS
  62
7
  10
 622.673
  20
 41.1462
  30
0.0
  11
 632.773
  21
 58.6422
  31
0.0
   0
LINE
   8
LEVEL003
   6
CONTINUOUS
  62
7
  10
 632.773
  20
 58.6422
  30
0.0
  11
 619.813
  21
 58.6422
  31
0.0
   0
LINE
   8
LEVEL003
   6
CONTINUOUS
  62
7
  10
 595.122
  20
 44.3862
  30
0.0
  11
 593.251
  21
 41.1462
  31
0.0
   0
TEXT
   8
LEVEL003
  62
7
  10
 641.037
  20
 37.5041
  30
0.0
  40
 16.2000
   1
ＯＳＡＫＡ ＪＡＣＫ
   7
STANDARD
   0
TEXT
   8
LEVEL003
  62
7
  10
 641.331
  20
 69.6071
  30
0.0
  40
 10.8000
   1
Model : ＪＪ－２５１３
   7
STANDARD
   0
ENDSEC
   0
EOF
