   0
SECTION
   2
HEADER
   9
$LIMMIN
  10
0.0
  20
0.0
   9
$LIMMAX
  10
 1050.00
  20
 743.000
   9
$EXTMIN
  10
0.0
  20
0.0
   9
$EXTMAX
  10
 1050.00
  20
 743.000
   9
$LTSCALE
  40
 21.0000
   0
ENDSEC
   0
SECTION
   2
TABLES
  0
TABLE
  2
LTYPE
 70
    25
  0
LTYPE
  2
CONTINUOUS
 70
    64
  3
Solid line
 72
    65
 73
     0
 40
0.0
  0
LTYPE
  2
BORDER
 70
    64
  3
__ __ . __ __ . __ __ . __ __ . __ __ . __ __ .
 72
    65
 73
     6
 40
1.75
 49
0.5
 49
-0.25
 49
0.5
 49
-0.25
 49
0.0
 49
-0.25
  0
LTYPE
  2
BORDER2
 70
    64
  3
__.__.__.__.__.__.__.__.__.__.__.__.__.__.__.__
 72
    65
 73
     6
 40
0.875
 49
0.25
 49
-0.125
 49
0.25
 49
-0.125
 49
0.0
 49
-0.125
  0
LTYPE
  2
BORDERX2
 70
    64
  3
____  ____  .  ____  ____  .  ____  ____  .  __
 72
    65
 73
     6
 40
3.5
 49
1.0
 49
-0.5
 49
1.0
 49
-0.5
 49
0.0
 49
-0.5
  0
LTYPE
  2
CENTER
 70
    64
  3
____ _ ____ _ ____ _ ____ _ ____ _ ____ _ ____ 
 72
    65
 73
     4
 40
2.0
 49
1.25
 49
-0.25
 49
0.25
 49
-0.25
  0
LTYPE
  2
CENTER2
 70
    64
  3
___ _ ___ _ ___ _ ___ _ ___ _ ___ _ ___ _ ___ _
 72
    65
 73
     4
 40
1.125
 49
0.75
 49
-0.125
 49
0.125
 49
-0.125
  0
LTYPE
  2
CENTERX2
 70
    64
  3
________  __  ________  __  ________  __  _____
 72
    65
 73
     4
 40
4.0
 49
2.5
 49
-0.5
 49
0.5
 49
-0.5
  0
LTYPE
  2
DASHDOT
 70
    64
  3
__ . __ . __ . __ . __ . __ . __ . __ . __ . __
 72
    65
 73
     4
 40
1.0
 49
0.5
 49
-0.25
 49
0.0
 49
-0.25
  0
LTYPE
  2
DASHDOT2
 70
    64
  3
_._._._._._._._._._._._._._._._._._._._._._._._
 72
    65
 73
     4
 40
0.5
 49
0.25
 49
-0.125
 49
0.0
 49
-0.125
  0
LTYPE
  2
DASHDOTX2
 70
    64
  3
____  .  ____  .  ____  .  ____  .  ____  .  __
 72
    65
 73
     4
 40
2.0
 49
1.0
 49
-0.5
 49
0.0
 49
-0.5
  0
LTYPE
  2
DASHED
 70
    64
  3
__ __ __ __ __ __ __ __ __ __ __ __ __ __ __ __
 72
    65
 73
     2
 40
0.75
 49
0.5
 49
-0.25
  0
LTYPE
  2
DASHED2
 70
    64
  3
_ _ _ _ _ _ _ _ _ _ _ _ _ _ _ _ _ _ _ _ _ _ _ _
 72
    65
 73
     2
 40
0.375
 49
0.25
 49
-0.125
  0
LTYPE
  2
DASHEDX2
 70
    64
  3
____  ____  ____  ____  ____  ____  ____  ____ 
 72
    65
 73
     2
 40
1.5
 49
1.0
 49
-0.5
  0
LTYPE
  2
DIVIDE
 70
    64
  3
____ . . ____ . . ____ . . ____ . . ____ . . __
 72
    65
 73
     6
 40
1.25
 49
0.5
 49
-0.25
 49
0.0
 49
-0.25
 49
0.0
 49
-0.25
  0
LTYPE
  2
DIVIDE2
 70
    64
  3
__..__..__..__..__..__..__..__..__..__..__..__.
 72
    65
 73
     6
 40
0.625
 49
0.25
 49
-0.125
 49
0.0
 49
-0.125
 49
0.0
 49
-0.125
  0
LTYPE
  2
DIVIDEX2
 70
    64
  3
________  .  .  ________  .  .  ________  .  . 
 72
    65
 73
     6
 40
2.5
 49
1.0
 49
-0.5
 49
0.0
 49
-0.5
 49
0.0
 49
-0.5
  0
LTYPE
  2
DOT
 70
    64
  3
. . . . . . . . . . . . . . . . . . . . . . . .
 72
    65
 73
     2
 40
0.25
 49
0.0
 49
-0.25
  0
LTYPE
  2
DOT2
 70
    64
  3
...............................................
 72
    65
 73
     2
 40
0.125
 49
0.0
 49
-0.125
  0
LTYPE
  2
DOTX2
 70
    64
  3
.  .  .  .  .  .  .  .  .  .  .  .  .  .  .  . 
 72
    65
 73
     2
 40
0.5
 49
0.0
 49
-0.5
  0
LTYPE
  2
HIDDEN
 70
    64
  3
__ __ __ __ __ __ __ __ __ __ __ __ __ __ __ __
 72
    65
 73
     2
 40
0.375
 49
0.25
 49
-0.125
  0
LTYPE
  2
HIDDEN2
 70
    64
  3
_ _ _ _ _ _ _ _ _ _ _ _ _ _ _ _ _ _ _ _ _ _ _ _
 72
    65
 73
     2
 40
0.1875
 49
0.125
 49
-0.0625
  0
LTYPE
  2
HIDDENX2
 70
    64
  3
____ ____ ____ ____ ____ ____ ____ ____ ____ __
 72
    65
 73
     2
 40
0.75
 49
0.5
 49
-0.25
  0
LTYPE
  2
PHANTOM
 70
    64
  3
______  __  __  ______  __  __  ______  __  __ 
 72
    65
 73
     6
 40
2.5
 49
1.25
 49
-0.25
 49
0.25
 49
-0.25
 49
0.25
 49
-0.25
  0
LTYPE
  2
PHANTOM2
 70
    64
  3
___ _ _ ___ _ _ ___ _ _ ___ _ _ ___ _ _ ___ _ _
 72
    65
 73
     6
 40
1.25
 49
0.625
 49
-0.125
 49
0.125
 49
-0.125
 49
0.125
 49
-0.125
  0
LTYPE
  2
PHANTOMX2
 70
    64
  3
____________    ____    ____    ____________   
 72
    65
 73
     6
 40
5.0
 49
2.5
 49
-0.5
 49
0.5
 49
-0.5
 49
0.5
 49
-0.5
  0
ENDTAB
  0
TABLE
  2
STYLE
 70
     2
  0
STYLE
  2
STANDARD
 70
0
 40
0.0
 41
1.0
 50
0.0
 71
0
 42
0.2
  3
TXT
  4
BIGFONT
  0
STYLE
  2
STANDARD1
 70
     4
 40
0.0
 41
1.0
 50
0.0
 71
     0
 42
0.2
  3
TXT
  4
BIGFONT
  0
ENDTAB
   0
TABLE
   2
LAYER
  70
7
   0
LAYER
   2
0
  70
0
  62
7
   6
CONTINUOUS
   0
LAYER
   2
LEVEL001
  70
0
  62
7
   6
CONTINUOUS
   0
LAYER
   2
LEVEL003
  70
0
  62
7
   6
CONTINUOUS
   0
LAYER
   2
LEVEL020
  70
0
  62
7
   6
CONTINUOUS
   0
LAYER
   2
LEVEL050
  70
0
  62
7
   6
CONTINUOUS
   0
LAYER
   2
LEVEL100
  70
0
  62
-7
   6
CONTINUOUS
   0
LAYER
   2
LEVEL110
  70
0
  62
7
   6
CONTINUOUS
   0
ENDTAB
   0
ENDSEC
   0
SECTION
   2
ENTITIES
   0
LINE
   8
LEVEL100
   6
CONTINUOUS
  62
7
  10
 778.125
  20
 160.000
  30
0.0
  11
 778.125
  21
 142.500
  31
0.0
   0
LINE
   8
LEVEL100
   6
CONTINUOUS
  62
7
  10
 853.125
  20
 160.000
  30
0.0
  11
 853.125
  21
 102.500
  31
0.0
   0
LINE
   8
LEVEL100
   6
CONTINUOUS
  62
7
  10
 903.125
  20
 160.000
  30
0.0
  11
 903.125
  21
 142.500
  31
0.0
   0
LINE
   8
LEVEL100
   6
CONTINUOUS
  62
7
  10
 923.125
  20
 160.000
  30
0.0
  11
 923.125
  21
 142.500
  31
0.0
   0
LINE
   8
LEVEL100
   6
CONTINUOUS
  62
7
  10
 951.875
  20
 160.000
  30
0.0
  11
 951.875
  21
 142.500
  31
0.0
   0
LINE
   8
LEVEL100
   6
CONTINUOUS
  62
7
  10
 829.375
  20
 142.500
  30
0.0
  11
 829.375
  21
 102.500
  31
0.0
   0
LINE
   8
LEVEL100
   6
CONTINUOUS
  62
7
  10
 788.125
  20
 66.2500
  30
0.0
  11
 800.625
  21
 78.7500
  31
0.0
   0
CIRCLE
   8
LEVEL100
   6
CONTINUOUS
  62
7
  10
 770.625
  20
 28.7500
  30
0.0
  40
 1.00000
   0
CIRCLE
   8
LEVEL100
   6
CONTINUOUS
  62
7
  10
 788.125
  20
 28.7500
  30
0.0
  40
 1.00000
   0
CIRCLE
   8
LEVEL100
   6
CONTINUOUS
  62
7
  10
 770.625
  20
 28.7500
  30
0.0
  40
 0.625000
   0
CIRCLE
   8
LEVEL100
   6
CONTINUOUS
  62
7
  10
 788.125
  20
 28.7500
  30
0.0
  40
 0.625000
   0
LINE
   8
LEVEL100
   6
CONTINUOUS
  62
7
  10
 865.000
  20
 38.7500
  30
0.0
  11
 865.000
  21
 41.2500
  31
0.0
   0
LINE
   8
LEVEL100
   6
CONTINUOUS
  62
7
  10
 865.000
  20
 41.2500
  30
0.0
  11
 872.500
  21
 41.2500
  31
0.0
   0
LINE
   8
LEVEL100
   6
CONTINUOUS
  62
7
  10
 872.500
  20
 41.2500
  30
0.0
  11
 872.500
  21
 38.7500
  31
0.0
   0
LINE
   8
LEVEL100
   6
CONTINUOUS
  62
7
  10
 872.500
  20
 38.7500
  30
0.0
  11
 865.000
  21
 38.7500
  31
0.0
   0
LINE
   8
LEVEL100
   6
CONTINUOUS
  62
7
  10
 753.125
  20
 25.0000
  30
0.0
  11
 753.125
  21
 160.000
  31
0.0
   0
LINE
   8
LEVEL100
   6
CONTINUOUS
  62
7
  10
 805.625
  20
 142.500
  30
0.0
  11
 805.625
  21
 25.0000
  31
0.0
   0
LINE
   8
LEVEL100
   6
CONTINUOUS
  62
7
  10
 753.125
  20
 82.5000
  30
0.0
  11
 805.625
  21
 82.5000
  31
0.0
   0
TEXT
   8
LEVEL100
  62
7
  10
 814.375
  20
 33.7500
  30
0.0
  40
 12.5000
   1
ＯＪ
  41
 0.700000
   7
STANDARD
   0
LINE
   8
LEVEL100
   6
CONTINUOUS
  62
7
  10
 753.125
  20
 142.500
  30
0.0
  11
 1020.38
  21
 142.500
  31
0.0
   0
LINE
   8
LEVEL100
   6
CONTINUOUS
  62
7
  10
 753.125
  20
 132.500
  30
0.0
  11
 1020.38
  21
 132.500
  31
0.0
   0
LINE
   8
LEVEL100
   6
CONTINUOUS
  62
7
  10
 753.125
  20
 160.000
  30
0.0
  11
 1020.38
  21
 160.000
  31
0.0
   0
LINE
   8
LEVEL100
   6
CONTINUOUS
  62
7
  10
 817.875
  20
 657.500
  30
0.0
  11
 817.875
  21
 720.000
  31
0.0
   0
LINE
   8
LEVEL100
   6
CONTINUOUS
  62
7
  10
 817.875
  20
 707.500
  30
0.0
  11
 1020.38
  21
 707.500
  31
0.0
   0
LINE
   8
LEVEL100
   6
CONTINUOUS
  62
7
  10
 817.875
  20
 695.000
  30
0.0
  11
 1020.38
  21
 695.000
  31
0.0
   0
LINE
   8
LEVEL100
   6
CONTINUOUS
  62
7
  10
 840.375
  20
 707.500
  30
0.0
  11
 840.375
  21
 695.000
  31
0.0
   0
LINE
   8
LEVEL100
   6
CONTINUOUS
  62
7
  10
 970.375
  20
 707.500
  30
0.0
  11
 970.375
  21
 695.000
  31
0.0
   0
LINE
   8
LEVEL100
   6
CONTINUOUS
  62
7
  10
 1000.38
  20
 707.500
  30
0.0
  11
 1000.38
  21
 695.000
  31
0.0
   0
LINE
   8
LEVEL100
   6
CONTINUOUS
  62
7
  10
 753.125
  20
 102.500
  30
0.0
  11
 1020.38
  21
 102.500
  31
0.0
   0
LINE
   8
LEVEL100
   6
CONTINUOUS
  62
7
  10
 753.125
  20
 62.5000
  30
0.0
  11
 1020.38
  21
 62.5000
  31
0.0
   0
LINE
   8
LEVEL100
   6
CONTINUOUS
  62
7
  10
 950.375
  20
 62.5000
  30
0.0
  11
 950.375
  21
 25.0000
  31
0.0
   0
LINE
   8
LEVEL100
   6
CONTINUOUS
  62
7
  10
 960.375
  20
 25.0000
  30
0.0
  11
 1002.88
  21
 50.0000
  31
0.0
   0
LINE
   8
LEVEL100
   6
CONTINUOUS
  62
7
  10
 62.5000
  20
 720.000
  30
0.0
  11
 1020.38
  21
 720.000
  31
0.0
   0
LINE
   8
LEVEL100
   6
CONTINUOUS
  62
7
  10
 1020.38
  20
 720.000
  30
0.0
  11
 1020.38
  21
 25.0000
  31
0.0
   0
LINE
   8
LEVEL100
   6
CONTINUOUS
  62
7
  10
 1020.38
  20
 25.0000
  30
0.0
  11
 62.5000
  21
 25.0000
  31
0.0
   0
LINE
   8
LEVEL100
   6
CONTINUOUS
  62
7
  10
 62.5000
  20
 698.000
  30
0.0
  11
 187.875
  21
 698.000
  31
0.0
   0
LINE
   8
LEVEL100
   6
CONTINUOUS
  62
7
  10
 187.875
  20
 698.000
  30
0.0
  11
 187.875
  21
 720.000
  31
0.0
   0
TEXT
   8
LEVEL100
  62
7
  10
 185.375
  20
 715.250
  30
0.0
  40
 12.5000
   1
ＯＪ．
  50
 180.000
  41
 0.900000
   7
STANDARD
   0
LINE
   8
LEVEL100
   6
CONTINUOUS
  62
7
  10
 142.875
  20
 710.250
  30
0.0
  11
 135.375
  21
 710.250
  31
0.0
   0
LINE
   8
LEVEL100
   6
CONTINUOUS
  62
7
  10
 135.375
  20
 710.250
  30
0.0
  11
 135.375
  21
 707.750
  31
0.0
   0
LINE
   8
LEVEL100
   6
CONTINUOUS
  62
7
  10
 135.375
  20
 707.750
  30
0.0
  11
 142.875
  21
 707.750
  31
0.0
   0
LINE
   8
LEVEL100
   6
CONTINUOUS
  62
7
  10
 142.875
  20
 707.750
  30
0.0
  11
 142.875
  21
 710.250
  31
0.0
   0
TEXT
   8
LEVEL100
  62
7
  10
 780.625
  20
 145.000
  30
0.0
  40
 10.0000
   1
Ｓ．ＩＭＡＮＩＳＨＩ
  41
 0.625000
   7
STANDARD
   0
TEXT
   8
LEVEL020
  62
6
  10
 362.500
  20
 612.500
  30
0.0
  40
 12.5000
   1
ストローク
   7
STANDARD
   0
TEXT
   8
LEVEL020
  62
6
  10
 362.500
  20
 630.000
  30
0.0
  40
 12.5000
   1
揚　　　力
   7
STANDARD
   0
TEXT
   8
LEVEL020
  62
6
  10
 575.000
  20
 612.500
  30
0.0
  40
 12.5000
   1
ｍｍ
  41
 0.700000
   7
STANDARD
   0
LINE
   8
LEVEL020
   6
CONTINUOUS
  62
6
  10
 362.500
  20
 645.000
  30
0.0
  11
 612.500
  21
 645.000
  31
0.0
   0
LINE
   8
LEVEL020
   6
CONTINUOUS
  62
6
  10
 362.500
  20
 627.500
  30
0.0
  11
 612.500
  21
 627.500
  31
0.0
   0
LINE
   8
LEVEL020
   6
CONTINUOUS
  62
6
  10
 362.500
  20
 610.000
  30
0.0
  11
 612.500
  21
 610.000
  31
0.0
   0
TEXT
   8
LEVEL020
  62
6
  10
 362.500
  20
 647.500
  30
0.0
  40
 12.5000
   1
形　　　式
   7
STANDARD
   0
TEXT
   8
LEVEL020
  62
6
  10
 362.500
  20
 665.000
  30
0.0
  40
 12.5000
   1
仕　　　様
   7
STANDARD
   0
LINE
   8
LEVEL020
   6
CONTINUOUS
  62
6
  10
 362.500
  20
 662.500
  30
0.0
  11
 425.000
  21
 662.500
  31
0.0
   0
TEXT
   8
LEVEL020
  62
6
  10
 362.500
  20
 595.000
  30
0.0
  40
 12.5000
   1
最低高さ
   7
STANDARD
   0
TEXT
   8
LEVEL020
  62
6
  10
 575.000
  20
 595.000
  30
0.0
  40
 12.5000
   1
ｍｍ
  41
 0.700000
   7
STANDARD
   0
LINE
   8
LEVEL020
   6
CONTINUOUS
  62
6
  10
 362.500
  20
 592.500
  30
0.0
  11
 612.500
  21
 592.500
  31
0.0
   0
LINE
   8
LEVEL020
   6
CONTINUOUS
  62
6
  10
 362.500
  20
 575.000
  30
0.0
  11
 612.500
  21
 575.000
  31
0.0
   0
LINE
   8
LEVEL020
   6
CONTINUOUS
  62
6
  10
 362.500
  20
 557.500
  30
0.0
  11
 612.500
  21
 557.500
  31
0.0
   0
TEXT
   8
LEVEL020
  62
6
  10
 362.500
  20
 560.000
  30
0.0
  40
 12.5000
   1
付　属　品
   7
STANDARD
   0
TEXT
   8
LEVEL020
  62
6
  10
 505.000
  20
 560.000
  30
0.0
  40
 12.5000
   1
　　　　　　１
  41
 0.700000
   7
STANDARD
   0
TEXT
   8
LEVEL020
  62
6
  10
 575.000
  20
 560.000
  30
0.0
  40
 12.5000
   1
本
  41
 0.500000
   7
STANDARD
   0
TEXT
   8
LEVEL020
  62
6
  10
 575.000
  20
 577.500
  30
0.0
  40
 12.5000
   1
ｋｇ
  41
 0.700000
   7
STANDARD
   0
TEXT
   8
LEVEL020
  62
6
  10
 433.750
  20
 560.000
  30
0.0
  40
 12.5000
   1
ハンドル棒（%%c２５×７００Ｌ）
  41
 0.600000
   7
STANDARD
   0
TEXT
   8
LEVEL020
  62
6
  10
 505.000
  20
 647.500
  30
0.0
  40
 12.5000
   1
　　　ＪＪ－２５２５
  41
 0.700000
   7
STANDARD
   0
TEXT
   8
LEVEL020
  62
6
  10
 505.000
  20
 612.500
  30
0.0
  40
 12.5000
   1
　　　　２５０
  41
 0.700000
   7
STANDARD
   0
TEXT
   8
LEVEL020
  62
6
  10
 505.000
  20
 595.000
  30
0.0
  40
 12.5000
   1
　　　　３９５
  41
 0.700000
   7
STANDARD
   0
TEXT
   8
LEVEL020
  62
6
  10
 505.000
  20
 577.500
  30
0.0
  40
 12.5000
   1
　　　約　２１
  41
 0.700000
   7
STANDARD
   0
LINE
   8
LEVEL001
   6
CONTINUOUS
  62
7
  10
 520.500
  20
 97.0000
  30
0.0
  11
 520.500
  21
 108.000
  31
0.0
   0
ARC
   8
LEVEL001
   6
CONTINUOUS
  62
7
  10
 522.500
  20
 121.000
  30
0.0
  40
 3.00000
  50
 311.811
  51
 0.128215E-3
   0
LINE
   8
LEVEL001
   6
CONTINUOUS
  62
7
  10
 524.500
  20
 108.000
  30
0.0
  11
 524.500
  21
 118.764
  31
0.0
   0
ARC
   8
LEVEL001
   6
CONTINUOUS
  62
7
  10
 529.500
  20
 88.0000
  30
0.0
  40
 3.00000
  50
 180.000
  51
 270.000
   0
LINE
   8
LEVEL001
   6
CONTINUOUS
  62
7
  10
 526.500
  20
 97.0000
  30
0.0
  11
 526.500
  21
 88.0000
  31
0.0
   0
LINE
   8
LEVEL001
   6
CONTINUOUS
  62
7
  10
 659.500
  20
 97.0000
  30
0.0
  11
 659.500
  21
 108.000
  31
0.0
   0
ARC
   8
LEVEL001
   6
CONTINUOUS
  62
7
  10
 657.500
  20
 121.000
  30
0.0
  40
 3.00000
  50
 180.001
  51
 228.191
   0
LINE
   8
LEVEL001
   6
CONTINUOUS
  62
7
  10
 655.500
  20
 108.000
  30
0.0
  11
 655.500
  21
 118.764
  31
0.0
   0
ARC
   8
LEVEL001
   6
CONTINUOUS
  62
7
  10
 650.500
  20
 88.0000
  30
0.0
  40
 3.00000
  50
 270.001
  51
0.0
   0
LINE
   8
LEVEL001
   6
CONTINUOUS
  62
7
  10
 653.500
  20
 97.0000
  30
0.0
  11
 653.500
  21
 88.0000
  31
0.0
   0
LINE
   8
LEVEL001
   6
CONTINUOUS
  62
7
  10
 650.500
  20
 85.0000
  30
0.0
  11
 529.500
  21
 85.0000
  31
0.0
   0
LINE
   8
LEVEL001
   6
CONTINUOUS
  62
7
  10
 649.869
  20
 97.0000
  30
0.0
  11
 649.869
  21
 108.000
  31
0.0
   0
LINE
   8
LEVEL001
   6
CONTINUOUS
  62
7
  10
 530.131
  20
 108.000
  30
0.0
  11
 520.500
  21
 108.000
  31
0.0
   0
LINE
   8
LEVEL001
   6
CONTINUOUS
  62
7
  10
 659.500
  20
 108.000
  30
0.0
  11
 649.869
  21
 108.000
  31
0.0
   0
LINE
   8
LEVEL001
   6
CONTINUOUS
  62
7
  10
 524.775
  20
 97.0000
  30
0.0
  11
 524.775
  21
 108.000
  31
0.0
   0
LINE
   8
LEVEL001
   6
CONTINUOUS
  62
7
  10
 655.225
  20
 97.0000
  30
0.0
  11
 655.225
  21
 108.000
  31
0.0
   0
LINE
   8
LEVEL001
   6
CONTINUOUS
  62
7
  10
 530.131
  20
 97.0000
  30
0.0
  11
 530.131
  21
 110.000
  31
0.0
   0
LINE
   8
LEVEL001
   6
CONTINUOUS
  62
7
  10
 649.869
  20
 97.0000
  30
0.0
  11
 649.869
  21
 110.000
  31
0.0
   0
CIRCLE
   8
LEVEL001
   6
CONTINUOUS
  62
7
  10
 590.000
  20
 173.000
  30
0.0
  40
 11.0000
   0
LINE
   8
LEVEL001
   6
CONTINUOUS
  62
7
  10
 591.000
  20
 184.000
  30
0.0
  11
 591.000
  21
 187.600
  31
0.0
   0
CIRCLE
   8
LEVEL001
   6
CONTINUOUS
  62
7
  10
 593.000
  20
 185.600
  30
0.0
  40
 1.00000
   0
ARC
   8
LEVEL001
   6
CONTINUOUS
  62
7
  10
 597.000
  20
 184.462
  30
0.0
  40
 2.00000
  50
 180.001
  51
 240.580
   0
ARC
   8
LEVEL001
   6
CONTINUOUS
  62
7
  10
 593.000
  20
 185.600
  30
0.0
  40
 2.00000
  50
 0.328702E-3
  51
 90.0002
   0
LINE
   8
LEVEL001
   6
CONTINUOUS
  62
7
  10
 591.000
  20
 187.600
  30
0.0
  11
 593.000
  21
 187.600
  31
0.0
   0
LINE
   8
LEVEL001
   6
CONTINUOUS
  62
7
  10
 595.000
  20
 185.600
  30
0.0
  11
 595.000
  21
 184.462
  31
0.0
   0
LINE
   8
LEVEL001
   6
CONTINUOUS
  62
7
  10
 589.000
  20
 184.000
  30
0.0
  11
 589.000
  21
 187.600
  31
0.0
   0
CIRCLE
   8
LEVEL001
   6
CONTINUOUS
  62
7
  10
 587.000
  20
 185.600
  30
0.0
  40
 1.00000
   0
ARC
   8
LEVEL001
   6
CONTINUOUS
  62
7
  10
 583.000
  20
 184.462
  30
0.0
  40
 2.00000
  50
 299.420
  51
0.0
   0
ARC
   8
LEVEL001
   6
CONTINUOUS
  62
7
  10
 587.000
  20
 185.600
  30
0.0
  40
 2.00000
  50
 89.9998
  51
 180.000
   0
LINE
   8
LEVEL001
   6
CONTINUOUS
  62
7
  10
 589.000
  20
 187.600
  30
0.0
  11
 587.000
  21
 187.600
  31
0.0
   0
LINE
   8
LEVEL001
   6
CONTINUOUS
  62
7
  10
 585.000
  20
 185.600
  30
0.0
  11
 585.000
  21
 184.462
  31
0.0
   0
ARC
   8
LEVEL001
   6
CONTINUOUS
  62
7
  10
 590.000
  20
 172.050
  30
0.0
  40
 12.2500
  50
 119.421
  51
 60.5785
   0
CIRCLE
   8
LEVEL001
   6
CONTINUOUS
  62
7
  10
 590.000
  20
 173.000
  30
0.0
  40
 17.5000
   0
ARC
   8
LEVEL001
   6
CONTINUOUS
  62
7
  10
 585.500
  20
 220.789
  30
0.0
  40
 2.00000
  50
 275.379
  51
 0.766198E-4
   0
ARC
   8
LEVEL001
   6
CONTINUOUS
  62
7
  10
 594.500
  20
 220.789
  30
0.0
  40
 2.00000
  50
 180.000
  51
 264.621
   0
ARC
   8
LEVEL001
   6
CONTINUOUS
  62
7
  10
 546.231
  20
 177.500
  30
0.0
  40
 2.00000
  50
 174.130
  51
 269.999
   0
ARC
   8
LEVEL001
   6
CONTINUOUS
  62
7
  10
 633.769
  20
 177.500
  30
0.0
  40
 2.00000
  50
 270.001
  51
 5.87024
   0
ARC
   8
LEVEL001
   6
CONTINUOUS
  62
7
  10
 554.239
  20
 177.142
  30
0.0
  40
 8.00000
  50
 272.001
  51
 353.393
   0
ARC
   8
LEVEL001
   6
CONTINUOUS
  62
7
  10
 537.000
  20
 167.534
  30
0.0
  40
 1.00000
  50
 91.9990
  51
 180.002
   0
ARC
   8
LEVEL001
   6
CONTINUOUS
  62
7
  10
 537.000
  20
 127.466
  30
0.0
  40
 1.00000
  50
 180.000
  51
 268.001
   0
LINE
   8
LEVEL001
   6
CONTINUOUS
  62
7
  10
 536.000
  20
 127.466
  30
0.0
  11
 536.000
  21
 167.534
  31
0.0
   0
LINE
   8
LEVEL001
   6
CONTINUOUS
  62
7
  10
 536.965
  20
 168.534
  30
0.0
  11
 554.518
  21
 169.147
  31
0.0
   0
ARC
   8
LEVEL001
   6
CONTINUOUS
  62
7
  10
 643.000
  20
 127.466
  30
0.0
  40
 1.00000
  50
 271.999
  51
 0.114398E-3
   0
LINE
   8
LEVEL001
   6
CONTINUOUS
  62
7
  10
 644.000
  20
 127.466
  30
0.0
  11
 644.000
  21
 167.534
  31
0.0
   0
ARC
   8
LEVEL001
   6
CONTINUOUS
  62
7
  10
 643.000
  20
 167.534
  30
0.0
  40
 1.00000
  50
 359.998
  51
 88.0010
   0
LINE
   8
LEVEL001
   6
CONTINUOUS
  62
7
  10
 643.035
  20
 168.534
  30
0.0
  11
 625.482
  21
 169.147
  31
0.0
   0
ARC
   8
LEVEL001
   6
CONTINUOUS
  62
7
  10
 625.761
  20
 177.142
  30
0.0
  40
 8.00000
  50
 186.607
  51
 267.999
   0
ARC
   8
LEVEL001
   6
CONTINUOUS
  62
7
  10
 590.000
  20
 173.000
  30
0.0
  40
 28.0000
  50
 6.60600
  51
 173.394
   0
CIRCLE
   8
LEVEL001
   6
CONTINUOUS
  62
7
  10
 592.500
  20
 109.000
  30
0.0
  40
 5.00000
   0
ARC
   8
LEVEL001
   6
CONTINUOUS
  62
7
  10
 561.388
  20
 108.603
  30
0.0
  40
 5.00000
  50
 187.724
  51
 268.000
   0
ARC
   8
LEVEL001
   6
CONTINUOUS
  62
7
  10
 551.367
  20
 122.962
  30
0.0
  40
 3.00000
  50
 7.72403
  51
 88.0000
   0
LINE
   8
LEVEL001
   6
CONTINUOUS
  62
7
  10
 556.433
  20
 107.931
  30
0.0
  11
 554.340
  21
 123.365
  31
0.0
   0
LINE
   8
LEVEL001
   6
CONTINUOUS
  62
7
  10
 524.500
  20
 118.764
  30
0.0
  11
 554.964
  21
 118.764
  31
0.0
   0
LINE
   8
LEVEL001
   6
CONTINUOUS
  62
7
  10
 530.131
  20
 110.000
  30
0.0
  11
 556.153
  21
 110.000
  31
0.0
   0
LINE
   8
LEVEL001
   6
DASHDOT
  62
1
  10
 585.000
  20
 109.000
  30
0.0
  11
 600.000
  21
 109.000
  31
0.0
   0
ARC
   8
LEVEL001
   6
CONTINUOUS
  62
7
  10
 535.000
  20
 133.750
  30
0.0
  40
 1.00000
  50
 180.000
  51
 269.999
   0
ARC
   8
LEVEL001
   6
CONTINUOUS
  62
7
  10
 658.000
  20
 133.750
  30
0.0
  40
 1.00000
  50
 270.001
  51
 0.217721E-3
   0
ARC
   8
LEVEL001
   6
CONTINUOUS
  62
7
  10
 658.000
  20
 161.250
  30
0.0
  40
 1.00000
  50
0.0
  51
 89.9991
   0
LINE
   8
LEVEL001
   6
CONTINUOUS
  62
7
  10
 659.000
  20
 133.750
  30
0.0
  11
 659.000
  21
 161.250
  31
0.0
   0
ARC
   8
LEVEL001
   6
CONTINUOUS
  62
7
  10
 535.000
  20
 161.250
  30
0.0
  40
 1.00000
  50
 90.0009
  51
 180.000
   0
LINE
   8
LEVEL001
   6
CONTINUOUS
  62
7
  10
 534.000
  20
 133.750
  30
0.0
  11
 534.000
  21
 161.250
  31
0.0
   0
LINE
   8
LEVEL001
   6
DASHDOT
  62
1
  10
 530.000
  20
 147.500
  30
0.0
  11
 665.000
  21
 147.500
  31
0.0
   0
LINE
   8
LEVEL001
   6
CONTINUOUS
  62
7
  10
 535.000
  20
 132.750
  30
0.0
  11
 536.000
  21
 132.750
  31
0.0
   0
LINE
   8
LEVEL001
   6
CONTINUOUS
  62
7
  10
 644.000
  20
 132.750
  30
0.0
  11
 658.000
  21
 132.750
  31
0.0
   0
LINE
   8
LEVEL001
   6
CONTINUOUS
  62
7
  10
 535.000
  20
 162.250
  30
0.0
  11
 536.000
  21
 162.250
  31
0.0
   0
LINE
   8
LEVEL001
   6
CONTINUOUS
  62
7
  10
 644.000
  20
 162.250
  30
0.0
  11
 658.000
  21
 162.250
  31
0.0
   0
LINE
   8
LEVEL001
   6
CONTINUOUS
  62
7
  10
 654.500
  20
 121.000
  30
0.0
  11
 654.500
  21
 132.750
  31
0.0
   0
LINE
   8
LEVEL001
   6
CONTINUOUS
  62
7
  10
 537.500
  20
 168.552
  30
0.0
  11
 537.500
  21
 169.953
  31
0.0
   0
ARC
   8
LEVEL001
   6
CONTINUOUS
  62
7
  10
 554.239
  20
 177.142
  30
0.0
  40
 6.60000
  50
 272.000
  51
 353.394
   0
LINE
   8
LEVEL001
   6
CONTINUOUS
  62
7
  10
 537.500
  20
 169.953
  30
0.0
  11
 554.469
  21
 170.546
  31
0.0
   0
LINE
   8
LEVEL001
   6
CONTINUOUS
  62
7
  10
 546.231
  20
 175.500
  30
0.0
  11
 560.632
  21
 175.500
  31
0.0
   0
LINE
   8
LEVEL001
   6
DASHDOT
  62
1
  10
 545.356
  20
 160.012
  30
0.0
  11
 544.794
  21
 176.108
  31
0.0
   0
LINE
   8
LEVEL001
   6
CONTINUOUS
  62
7
  10
 544.455
  20
 171.497
  30
0.0
  11
 545.454
  21
 171.532
  31
0.0
   0
LINE
   8
LEVEL001
   6
CONTINUOUS
  62
7
  10
 544.455
  20
 171.497
  30
0.0
  11
 544.382
  21
 173.572
  31
0.0
   0
LINE
   8
LEVEL001
   6
CONTINUOUS
  62
7
  10
 545.454
  20
 171.532
  30
0.0
  11
 545.382
  21
 173.607
  31
0.0
   0
ARC
   8
LEVEL001
   6
CONTINUOUS
  62
7
  10
 590.000
  20
 173.000
  30
0.0
  40
 46.0000
  50
 95.3794
  51
 179.365
   0
ARC
   8
LEVEL001
   6
CONTINUOUS
  62
7
  10
 543.505
  20
 170.036
  30
0.0
  40
 3.00000
  50
 130.681
  51
 179.583
   0
ARC
   8
LEVEL001
   6
CONTINUOUS
  62
7
  10
 546.504
  20
 170.141
  30
0.0
  40
 3.00000
  50
 4.41705
  51
 53.3159
   0
ARC
   8
LEVEL001
   6
CONTINUOUS
  62
7
  10
 545.070
  20
 168.216
  30
0.0
  40
 5.40000
  50
 53.3164
  51
 86.6873
   0
ARC
   8
LEVEL001
   6
CONTINUOUS
  62
7
  10
 545.070
  20
 168.216
  30
0.0
  40
 5.40000
  50
 97.3129
  51
 130.681
   0
LINE
   8
LEVEL001
   6
DASHDOT
  62
1
  10
 567.500
  20
 173.000
  30
0.0
  11
 612.500
  21
 173.000
  31
0.0
   0
LINE
   8
LEVEL001
   6
CONTINUOUS
  62
7
  10
 642.500
  20
 168.552
  30
0.0
  11
 642.500
  21
 169.953
  31
0.0
   0
LINE
   8
LEVEL001
   6
CONTINUOUS
  62
7
  10
 642.500
  20
 169.953
  30
0.0
  11
 625.531
  21
 170.546
  31
0.0
   0
ARC
   8
LEVEL001
   6
CONTINUOUS
  62
7
  10
 634.930
  20
 168.216
  30
0.0
  40
 5.40000
  50
 49.3186
  51
 82.6871
   0
ARC
   8
LEVEL001
   6
CONTINUOUS
  62
7
  10
 636.495
  20
 170.036
  30
0.0
  40
 3.00000
  50
 0.417217
  51
 49.3202
   0
LINE
   8
LEVEL001
   6
CONTINUOUS
  62
7
  10
 635.545
  20
 171.497
  30
0.0
  11
 635.618
  21
 173.572
  31
0.0
   0
LINE
   8
LEVEL001
   6
DASHDOT
  62
1
  10
 634.644
  20
 160.012
  30
0.0
  11
 635.206
  21
 176.108
  31
0.0
   0
LINE
   8
LEVEL001
   6
CONTINUOUS
  62
7
  10
 634.546
  20
 171.532
  30
0.0
  11
 634.618
  21
 173.607
  31
0.0
   0
LINE
   8
LEVEL001
   6
CONTINUOUS
  62
7
  10
 635.545
  20
 171.497
  30
0.0
  11
 634.546
  21
 171.532
  31
0.0
   0
ARC
   8
LEVEL001
   6
CONTINUOUS
  62
7
  10
 633.496
  20
 170.141
  30
0.0
  40
 3.00000
  50
 126.683
  51
 175.582
   0
ARC
   8
LEVEL001
   6
CONTINUOUS
  62
7
  10
 634.930
  20
 168.216
  30
0.0
  40
 5.40000
  50
 93.3132
  51
 126.684
   0
ARC
   8
LEVEL001
   6
CONTINUOUS
  62
7
  10
 625.761
  20
 177.142
  30
0.0
  40
 6.60000
  50
 186.606
  51
 268.000
   0
ARC
   8
LEVEL001
   6
CONTINUOUS
  62
7
  10
 590.000
  20
 173.000
  30
0.0
  40
 29.4000
  50
 6.60634
  51
 173.394
   0
ARC
   8
LEVEL001
   6
CONTINUOUS
  62
7
  10
 590.000
  20
 173.000
  30
0.0
  40
 46.0000
  50
 0.635162
  51
 84.6206
   0
LINE
   8
LEVEL001
   6
CONTINUOUS
  62
7
  10
 619.368
  20
 175.500
  30
0.0
  11
 633.769
  21
 175.500
  31
0.0
   0
ARC
   8
LEVEL001
   6
CONTINUOUS
  62
7
  10
 592.500
  20
 183.000
  30
0.0
  40
 84.0000
  50
 255.696
  51
 284.304
   0
ARC
   8
LEVEL001
   6
CONTINUOUS
  62
7
  10
 571.500
  20
 102.635
  30
0.0
  40
 1.00000
  50
 270.001
  51
 0.217719E-3
   0
ARC
   8
LEVEL001
   6
CONTINUOUS
  62
7
  10
 613.500
  20
 100.635
  30
0.0
  40
 1.00000
  50
0.0
  51
 104.304
   0
ARC
   8
LEVEL001
   6
CONTINUOUS
  62
7
  10
 613.500
  20
 102.635
  30
0.0
  40
 1.00000
  50
 180.000
  51
 269.999
   0
ARC
   8
LEVEL001
   6
CONTINUOUS
  62
7
  10
 613.500
  20
 92.7006
  30
0.0
  40
 1.00000
  50
 284.653
  51
 359.998
   0
ARC
   8
LEVEL001
   6
CONTINUOUS
  62
7
  10
 592.500
  20
 173.000
  30
0.0
  40
 84.0000
  50
 255.344
  51
 284.656
   0
LINE
   8
LEVEL001
   6
CONTINUOUS
  62
7
  10
 614.500
  20
 92.7006
  30
0.0
  11
 614.500
  21
 100.635
  31
0.0
   0
LINE
   8
LEVEL001
   6
CONTINUOUS
  62
7
  10
 570.500
  20
 92.7006
  30
0.0
  11
 570.500
  21
 100.635
  31
0.0
   0
ARC
   8
LEVEL001
   6
CONTINUOUS
  62
7
  10
 571.500
  20
 92.7006
  30
0.0
  40
 1.00000
  50
 180.002
  51
 255.347
   0
ARC
   8
LEVEL001
   6
CONTINUOUS
  62
7
  10
 571.500
  20
 100.635
  30
0.0
  40
 1.00000
  50
 89.9987
  51
 180.000
   0
ARC
   8
LEVEL001
   6
CONTINUOUS
  62
7
  10
 565.500
  20
 98.4534
  30
0.0
  40
 5.00000
  50
0.0
  51
 87.9997
   0
LINE
   8
LEVEL001
   6
CONTINUOUS
  62
7
  10
 561.213
  20
 103.606
  30
0.0
  11
 565.675
  21
 103.450
  31
0.0
   0
LINE
   8
LEVEL001
   6
CONTINUOUS
  62
7
  10
 570.500
  20
 97.0000
  30
0.0
  11
 520.500
  21
 97.0000
  31
0.0
   0
LINE
   8
LEVEL001
   6
CONTINUOUS
  62
7
  10
 566.000
  20
 97.0000
  30
0.0
  11
 566.000
  21
 103.428
  31
0.0
   0
ARC
   8
LEVEL001
   6
CONTINUOUS
  62
7
  10
 569.500
  20
 122.328
  30
0.0
  40
 3.00000
  50
 0.244267E-11
  51
 87.9996
   0
LINE
   8
LEVEL001
   6
CONTINUOUS
  62
7
  10
 536.965
  20
 126.466
  30
0.0
  11
 569.605
  21
 125.327
  31
0.0
   0
ARC
   8
LEVEL001
   6
CONTINUOUS
  62
7
  10
 615.500
  20
 122.503
  30
0.0
  40
 3.00000
  50
 91.9997
  51
 180.000
   0
LINE
   8
LEVEL001
   6
CONTINUOUS
  62
7
  10
 643.035
  20
 126.466
  30
0.0
  11
 615.395
  21
 125.501
  31
0.0
   0
ARC
   8
LEVEL001
   6
CONTINUOUS
  62
7
  10
 648.418
  20
 91.8758
  30
0.0
  40
 35.0000
  50
 98.6562
  51
 165.918
   0
LINE
   8
LEVEL001
   6
CONTINUOUS
  62
7
  10
 626.012
  20
 118.764
  30
0.0
  11
 655.500
  21
 118.764
  31
0.0
   0
LINE
   8
LEVEL001
   6
CONTINUOUS
  62
7
  10
 618.476
  20
 110.000
  30
0.0
  11
 649.869
  21
 110.000
  31
0.0
   0
LINE
   8
LEVEL001
   6
CONTINUOUS
  62
7
  10
 659.500
  20
 97.0000
  30
0.0
  11
 614.500
  21
 97.0000
  31
0.0
   0
LINE
   8
LEVEL001
   6
DASHDOT
  62
1
  10
 592.500
  20
 85.0000
  30
0.0
  11
 592.500
  21
 147.500
  31
0.0
   0
LINE
   8
LEVEL001
   6
CONTINUOUS
  62
7
  10
 155.500
  20
 97.0000
  30
0.0
  11
 155.500
  21
 108.000
  31
0.0
   0
ARC
   8
LEVEL001
   6
CONTINUOUS
  62
7
  10
 164.500
  20
 88.0000
  30
0.0
  40
 3.00000
  50
 180.000
  51
 270.000
   0
LINE
   8
LEVEL001
   6
CONTINUOUS
  62
7
  10
 161.500
  20
 97.0000
  30
0.0
  11
 161.500
  21
 88.0000
  31
0.0
   0
LINE
   8
LEVEL001
   6
CONTINUOUS
  62
7
  10
 294.500
  20
 97.0000
  30
0.0
  11
 294.500
  21
 108.000
  31
0.0
   0
ARC
   8
LEVEL001
   6
CONTINUOUS
  62
7
  10
 285.500
  20
 88.0000
  30
0.0
  40
 3.00000
  50
 270.000
  51
 0.597096E-11
   0
LINE
   8
LEVEL001
   6
CONTINUOUS
  62
7
  10
 288.500
  20
 97.0000
  30
0.0
  11
 288.500
  21
 88.0000
  31
0.0
   0
LINE
   8
LEVEL001
   6
CONTINUOUS
  62
7
  10
 285.500
  20
 85.0000
  30
0.0
  11
 164.500
  21
 85.0000
  31
0.0
   0
LINE
   8
LEVEL001
   6
CONTINUOUS
  62
7
  10
 323.505
  20
 147.861
  30
0.0
  11
 325.500
  21
 150.000
  31
0.0
   0
ARC
   8
LEVEL001
   6
CONTINUOUS
  62
7
  10
 307.500
  20
 128.707
  30
0.0
  40
 18.0000
  50
 93.9726
  51
 180.000
   0
LINE
   8
LEVEL001
   6
CONTINUOUS
  62
7
  10
 323.505
  20
 147.861
  30
0.0
  11
 306.253
  21
 146.663
  31
0.0
   0
LINE
   8
LEVEL001
   6
CONTINUOUS
  62
7
  10
 323.505
  20
 198.139
  30
0.0
  11
 325.500
  21
 196.000
  31
0.0
   0
ARC
   8
LEVEL001
   6
CONTINUOUS
  62
7
  10
 303.866
  20
 211.531
  30
0.0
  40
 12.0000
  50
 199.825
  51
 266.028
   0
LINE
   8
LEVEL001
   6
CONTINUOUS
  62
7
  10
 323.505
  20
 198.139
  30
0.0
  11
 303.035
  21
 199.560
  31
0.0
   0
LINE
   8
LEVEL001
   6
DASHDOT
  62
1
  10
 217.500
  20
 173.000
  30
0.0
  11
 382.500
  21
 173.000
  31
0.0
   0
LINE
   8
LEVEL001
   6
DASHDOT
  62
1
  10
 177.000
  20
 81.2500
  30
0.0
  11
 177.000
  21
 90.2500
  31
0.0
   0
LINE
   8
LEVEL001
   6
DASHDOT
  62
1
  10
 193.000
  20
 81.2500
  30
0.0
  11
 193.000
  21
 90.2500
  31
0.0
   0
LINE
   8
LEVEL001
   6
DASHDOT
  62
1
  10
 209.000
  20
 81.2500
  30
0.0
  11
 209.000
  21
 90.2500
  31
0.0
   0
LINE
   8
LEVEL001
   6
DASHDOT
  62
1
  10
 241.000
  20
 81.2500
  30
0.0
  11
 241.000
  21
 90.2500
  31
0.0
   0
LINE
   8
LEVEL001
   6
DASHDOT
  62
1
  10
 257.000
  20
 81.2500
  30
0.0
  11
 257.000
  21
 90.2500
  31
0.0
   0
LINE
   8
LEVEL001
   6
DASHDOT
  62
1
  10
 273.000
  20
 81.2500
  30
0.0
  11
 273.000
  21
 90.2500
  31
0.0
   0
LINE
   8
LEVEL003
   6
CONTINUOUS
  62
3
  10
 161.500
  20
 85.5000
  30
0.0
  11
 161.500
  21
 57.5000
  31
0.0
   0
LINE
   8
LEVEL003
   6
CONTINUOUS
  62
3
  10
 288.500
  20
 85.5000
  30
0.0
  11
 288.500
  21
 57.5000
  31
0.0
   0
LINE
   8
LEVEL003
   6
CONTINUOUS
  62
3
  10
 161.500
  20
 62.5000
  30
0.0
  11
 288.500
  21
 62.5000
  31
0.0
   0
LINE
   8
LEVEL003
   6
CONTINUOUS
  62
3
  10
 169.000
  20
 61.2500
  30
0.0
  11
 161.500
  21
 62.5000
  31
0.0
   0
LINE
   8
LEVEL003
   6
CONTINUOUS
  62
3
  10
 161.500
  20
 62.5000
  30
0.0
  11
 169.000
  21
 63.7500
  31
0.0
   0
LINE
   8
LEVEL003
   6
CONTINUOUS
  62
3
  10
 161.500
  20
 62.5000
  30
0.0
  11
 169.000
  21
 62.5000
  31
0.0
   0
LINE
   8
LEVEL003
   6
CONTINUOUS
  62
3
  10
 281.000
  20
 63.7500
  30
0.0
  11
 288.500
  21
 62.5000
  31
0.0
   0
LINE
   8
LEVEL003
   6
CONTINUOUS
  62
3
  10
 288.500
  20
 62.5000
  30
0.0
  11
 281.000
  21
 61.2500
  31
0.0
   0
LINE
   8
LEVEL003
   6
CONTINUOUS
  62
3
  10
 288.500
  20
 62.5000
  30
0.0
  11
 281.000
  21
 62.5000
  31
0.0
   0
TEXT
   8
LEVEL003
  62
3
  10
 212.500
  20
 57.8333
  30
0.0
  40
 10.0000
   1
%%c127
   7
STANDARD
  72
1
  11
 225.000
  21
 64.5000
  31
0.0
  73
2
   0
ARC
   8
LEVEL001
   6
CONTINUOUS
  62
7
  10
 554.500
  20
 477.000
  30
0.0
  40
 3.00000
  50
 90.0001
  51
 180.001
   0
LINE
   8
LEVEL001
   6
CONTINUOUS
  62
7
  10
 551.500
  20
 465.000
  30
0.0
  11
 551.500
  21
 477.000
  31
0.0
   0
ARC
   8
LEVEL001
   6
CONTINUOUS
  62
7
  10
 625.500
  20
 477.000
  30
0.0
  40
 3.00000
  50
0.0
  51
 89.9999
   0
LINE
   8
LEVEL001
   6
CONTINUOUS
  62
7
  10
 628.500
  20
 465.000
  30
0.0
  11
 628.500
  21
 477.000
  31
0.0
   0
LINE
   8
LEVEL001
   6
CONTINUOUS
  62
7
  10
 625.500
  20
 480.000
  30
0.0
  11
 554.500
  21
 480.000
  31
0.0
   0
LINE
   8
LEVEL001
   6
CONTINUOUS
  62
7
  10
 632.500
  20
 465.000
  30
0.0
  11
 547.500
  21
 465.000
  31
0.0
   0
LINE
   8
LEVEL001
   6
DASHDOT
  62
1
  10
 590.000
  20
 77.5000
  30
0.0
  11
 590.000
  21
 487.500
  31
0.0
   0
ARC
   8
LEVEL001
   6
CONTINUOUS
  62
7
  10
 577.000
  20
 461.000
  30
0.0
  40
 2.00000
  50
 89.9998
  51
 180.001
   0
ARC
   8
LEVEL001
   6
CONTINUOUS
  62
7
  10
 603.000
  20
 461.000
  30
0.0
  40
 2.00000
  50
 359.999
  51
 90.0002
   0
LINE
   8
LEVEL001
   6
CONTINUOUS
  62
7
  10
 577.000
  20
 463.000
  30
0.0
  11
 603.000
  21
 463.000
  31
0.0
   0
LINE
   8
LEVEL001
   6
CONTINUOUS
  62
7
  10
 590.000
  20
 455.887
  30
0.0
  11
 592.500
  21
 454.443
  31
0.0
   0
LINE
   8
LEVEL001
   6
CONTINUOUS
  62
7
  10
 592.500
  20
 454.443
  30
0.0
  11
 592.500
  21
 451.557
  31
0.0
   0
LINE
   8
LEVEL001
   6
CONTINUOUS
  62
7
  10
 592.500
  20
 451.557
  30
0.0
  11
 590.000
  21
 450.113
  31
0.0
   0
LINE
   8
LEVEL001
   6
CONTINUOUS
  62
7
  10
 590.000
  20
 450.113
  30
0.0
  11
 587.500
  21
 451.557
  31
0.0
   0
LINE
   8
LEVEL001
   6
CONTINUOUS
  62
7
  10
 587.500
  20
 451.557
  30
0.0
  11
 587.500
  21
 454.443
  31
0.0
   0
LINE
   8
LEVEL001
   6
CONTINUOUS
  62
7
  10
 587.500
  20
 454.443
  30
0.0
  11
 590.000
  21
 455.887
  31
0.0
   0
CIRCLE
   8
LEVEL001
   6
CONTINUOUS
  62
7
  10
 590.000
  20
 453.000
  30
0.0
  40
 5.00000
   0
CIRCLE
   8
LEVEL001
   6
CONTINUOUS
  62
7
  10
 590.000
  20
 453.000
  30
0.0
  40
 4.48038
   0
LINE
   8
LEVEL001
   6
DASHDOT
  62
1
  10
 598.000
  20
 453.000
  30
0.0
  11
 582.000
  21
 453.000
  31
0.0
   0
ARC
   8
LEVEL001
   6
CONTINUOUS
  62
7
  10
 547.500
  20
 463.000
  30
0.0
  40
 2.00000
  50
 89.9998
  51
 179.999
   0
ARC
   8
LEVEL001
   6
CONTINUOUS
  62
7
  10
 632.500
  20
 463.000
  30
0.0
  40
 2.00000
  50
 0.875118E-3
  51
 90.0002
   0
ARC
   8
LEVEL001
   6
CONTINUOUS
  62
7
  10
 189.500
  20
 477.000
  30
0.0
  40
 3.00000
  50
 90.0001
  51
 180.001
   0
LINE
   8
LEVEL001
   6
CONTINUOUS
  62
7
  10
 186.500
  20
 465.000
  30
0.0
  11
 186.500
  21
 477.000
  31
0.0
   0
ARC
   8
LEVEL001
   6
CONTINUOUS
  62
7
  10
 260.500
  20
 477.000
  30
0.0
  40
 3.00000
  50
0.0
  51
 90.0002
   0
LINE
   8
LEVEL001
   6
CONTINUOUS
  62
7
  10
 263.500
  20
 465.000
  30
0.0
  11
 263.500
  21
 477.000
  31
0.0
   0
LINE
   8
LEVEL001
   6
DASHDOT
  62
1
  10
 225.000
  20
 77.5000
  30
0.0
  11
 225.000
  21
 487.500
  31
0.0
   0
LINE
   8
LEVEL001
   6
CONTINUOUS
  62
7
  10
 260.500
  20
 480.000
  30
0.0
  11
 189.500
  21
 480.000
  31
0.0
   0
LINE
   8
LEVEL001
   6
CONTINUOUS
  62
7
  10
 271.500
  20
 458.000
  30
0.0
  11
 271.500
  21
 448.000
  31
0.0
   0
LINE
   8
LEVEL001
   6
CONTINUOUS
  62
7
  10
 271.500
  20
 448.000
  30
0.0
  11
 277.200
  21
 448.000
  31
0.0
   0
LINE
   8
LEVEL001
   6
CONTINUOUS
  62
7
  10
 277.200
  20
 448.000
  30
0.0
  11
 277.500
  21
 448.520
  31
0.0
   0
LINE
   8
LEVEL001
   6
CONTINUOUS
  62
7
  10
 277.500
  20
 448.520
  30
0.0
  11
 277.500
  21
 457.480
  31
0.0
   0
LINE
   8
LEVEL001
   6
CONTINUOUS
  62
7
  10
 277.500
  20
 457.480
  30
0.0
  11
 277.200
  21
 458.000
  31
0.0
   0
LINE
   8
LEVEL001
   6
CONTINUOUS
  62
7
  10
 277.200
  20
 458.000
  30
0.0
  11
 271.500
  21
 458.000
  31
0.0
   0
LINE
   8
LEVEL001
   6
CONTINUOUS
  62
7
  10
 277.200
  20
 458.000
  30
0.0
  11
 277.200
  21
 448.000
  31
0.0
   0
LINE
   8
LEVEL001
   6
DASHDOT
  62
1
  10
 280.500
  20
 453.000
  30
0.0
  11
 252.500
  21
 453.000
  31
0.0
   0
ARC
   8
LEVEL001
   6
CONTINUOUS
  62
7
  10
 270.328
  20
 464.000
  30
0.0
  40
 1.00000
  50
 199.472
  51
 270.001
   0
ARC
   8
LEVEL001
   6
CONTINUOUS
  62
7
  10
 267.500
  20
 463.000
  30
0.0
  40
 2.00000
  50
 19.4718
  51
 89.9998
   0
ARC
   8
LEVEL001
   6
CONTINUOUS
  62
7
  10
 270.500
  20
 462.000
  30
0.0
  40
 1.00000
  50
 359.997
  51
 90.0002
   0
LINE
   8
LEVEL001
   6
CONTINUOUS
  62
7
  10
 270.500
  20
 463.000
  30
0.0
  11
 270.328
  21
 463.000
  31
0.0
   0
LINE
   8
LEVEL001
   6
DASHDOT
  62
1
  10
 196.500
  20
 474.750
  30
0.0
  11
 196.500
  21
 483.750
  31
0.0
   0
LINE
   8
LEVEL001
   6
DASHDOT
  62
1
  10
 207.000
  20
 474.750
  30
0.0
  11
 207.000
  21
 483.750
  31
0.0
   0
LINE
   8
LEVEL001
   6
DASHDOT
  62
1
  10
 243.000
  20
 474.750
  30
0.0
  11
 243.000
  21
 483.750
  31
0.0
   0
LINE
   8
LEVEL001
   6
DASHDOT
  62
1
  10
 253.500
  20
 474.750
  30
0.0
  11
 253.500
  21
 483.750
  31
0.0
   0
ARC
   8
LEVEL001
   6
CONTINUOUS
  62
7
  10
 182.500
  20
 463.000
  30
0.0
  40
 2.00000
  50
 89.9998
  51
 179.999
   0
LINE
   8
LEVEL003
   6
CONTINUOUS
  62
3
  10
 162.000
  20
 85.0000
  30
0.0
  11
 107.500
  21
 85.0000
  31
0.0
   0
LINE
   8
LEVEL003
   6
CONTINUOUS
  62
3
  10
 187.000
  20
 480.000
  30
0.0
  11
 107.500
  21
 480.000
  31
0.0
   0
LINE
   8
LEVEL003
   6
CONTINUOUS
  62
3
  10
 112.500
  20
 85.0000
  30
0.0
  11
 112.500
  21
 480.000
  31
0.0
   0
LINE
   8
LEVEL003
   6
CONTINUOUS
  62
3
  10
 113.750
  20
 92.5000
  30
0.0
  11
 112.500
  21
 85.0000
  31
0.0
   0
LINE
   8
LEVEL003
   6
CONTINUOUS
  62
3
  10
 112.500
  20
 85.0000
  30
0.0
  11
 111.250
  21
 92.5000
  31
0.0
   0
LINE
   8
LEVEL003
   6
CONTINUOUS
  62
3
  10
 112.500
  20
 85.0000
  30
0.0
  11
 112.500
  21
 92.5000
  31
0.0
   0
LINE
   8
LEVEL003
   6
CONTINUOUS
  62
3
  10
 111.250
  20
 472.500
  30
0.0
  11
 112.500
  21
 480.000
  31
0.0
   0
LINE
   8
LEVEL003
   6
CONTINUOUS
  62
3
  10
 112.500
  20
 480.000
  30
0.0
  11
 113.750
  21
 472.500
  31
0.0
   0
LINE
   8
LEVEL003
   6
CONTINUOUS
  62
3
  10
 112.500
  20
 480.000
  30
0.0
  11
 112.500
  21
 472.500
  31
0.0
   0
TEXT
   8
LEVEL003
  62
3
  10
 117.167
  20
 275.000
  30
0.0
  40
 10.0000
   1
395
  50
 90.0000
  41
 0.500000
   7
STANDARD
  72
1
  11
 110.500
  21
 282.500
  31
0.0
  73
2
   0
LINE
   8
LEVEL003
   6
CONTINUOUS
  62
3
  10
 186.500
  20
 479.500
  30
0.0
  11
 186.500
  21
 502.500
  31
0.0
   0
LINE
   8
LEVEL003
   6
CONTINUOUS
  62
3
  10
 263.500
  20
 479.500
  30
0.0
  11
 263.500
  21
 502.500
  31
0.0
   0
LINE
   8
LEVEL003
   6
CONTINUOUS
  62
3
  10
 186.500
  20
 497.500
  30
0.0
  11
 263.500
  21
 497.500
  31
0.0
   0
LINE
   8
LEVEL003
   6
CONTINUOUS
  62
3
  10
 194.000
  20
 496.250
  30
0.0
  11
 186.500
  21
 497.500
  31
0.0
   0
LINE
   8
LEVEL003
   6
CONTINUOUS
  62
3
  10
 186.500
  20
 497.500
  30
0.0
  11
 194.000
  21
 498.750
  31
0.0
   0
LINE
   8
LEVEL003
   6
CONTINUOUS
  62
3
  10
 186.500
  20
 497.500
  30
0.0
  11
 194.000
  21
 497.500
  31
0.0
   0
LINE
   8
LEVEL003
   6
CONTINUOUS
  62
3
  10
 256.000
  20
 498.750
  30
0.0
  11
 263.500
  21
 497.500
  31
0.0
   0
LINE
   8
LEVEL003
   6
CONTINUOUS
  62
3
  10
 263.500
  20
 497.500
  30
0.0
  11
 256.000
  21
 496.250
  31
0.0
   0
LINE
   8
LEVEL003
   6
CONTINUOUS
  62
3
  10
 263.500
  20
 497.500
  30
0.0
  11
 256.000
  21
 497.500
  31
0.0
   0
TEXT
   8
LEVEL003
  62
3
  10
 215.000
  20
 492.833
  30
0.0
  40
 10.0000
   1
%%c77
   7
STANDARD
  72
1
  11
 225.000
  21
 499.500
  31
0.0
  73
2
   0
LINE
   8
LEVEL001
   6
CONTINUOUS
  62
7
  10
 271.500
  20
 432.000
  30
0.0
  11
 271.500
  21
 422.000
  31
0.0
   0
LINE
   8
LEVEL001
   6
CONTINUOUS
  62
7
  10
 271.500
  20
 422.000
  30
0.0
  11
 277.200
  21
 422.000
  31
0.0
   0
LINE
   8
LEVEL001
   6
CONTINUOUS
  62
7
  10
 277.200
  20
 422.000
  30
0.0
  11
 277.500
  21
 422.520
  31
0.0
   0
LINE
   8
LEVEL001
   6
CONTINUOUS
  62
7
  10
 277.500
  20
 422.520
  30
0.0
  11
 277.500
  21
 431.480
  31
0.0
   0
LINE
   8
LEVEL001
   6
CONTINUOUS
  62
7
  10
 277.500
  20
 431.480
  30
0.0
  11
 277.200
  21
 432.000
  31
0.0
   0
LINE
   8
LEVEL001
   6
CONTINUOUS
  62
7
  10
 277.200
  20
 432.000
  30
0.0
  11
 271.500
  21
 432.000
  31
0.0
   0
LINE
   8
LEVEL001
   6
CONTINUOUS
  62
7
  10
 277.200
  20
 432.000
  30
0.0
  11
 277.200
  21
 422.000
  31
0.0
   0
LINE
   8
LEVEL001
   6
DASHDOT
  62
1
  10
 280.500
  20
 427.000
  30
0.0
  11
 252.500
  21
 427.000
  31
0.0
   0
ARC
   8
LEVEL001
   6
CONTINUOUS
  62
7
  10
 117.890
  20
 221.464
  30
0.0
  40
 60.0000
  50
 329.352
  51
 358.934
   0
ARC
   8
LEVEL001
   6
CONTINUOUS
  62
7
  10
 296.762
  20
 239.874
  30
0.0
  40
 25.0000
  50
 181.065
  51
 238.037
   0
ARC
   8
LEVEL001
   6
CONTINUOUS
  62
7
  10
 271.881
  20
 200.000
  30
0.0
  40
 22.0000
  50
 19.8255
  51
 58.0369
   0
LINE
   8
LEVEL001
   6
CONTINUOUS
  62
7
  10
 159.500
  20
 108.000
  30
0.0
  11
 159.500
  21
 118.000
  31
0.0
   0
LINE
   8
LEVEL001
   6
CONTINUOUS
  62
7
  10
 290.500
  20
 108.000
  30
0.0
  11
 290.500
  21
 118.000
  31
0.0
   0
ARC
   8
LEVEL001
   6
CONTINUOUS
  62
7
  10
 159.500
  20
 119.000
  30
0.0
  40
 1.00000
  50
 270.000
  51
 0.217713E-3
   0
ARC
   8
LEVEL001
   6
CONTINUOUS
  62
7
  10
 290.500
  20
 119.000
  30
0.0
  40
 1.00000
  50
 180.000
  51
 270.000
   0
ARC
   8
LEVEL001
   6
CONTINUOUS
  62
7
  10
 292.605
  20
 128.000
  30
0.0
  40
 5.00000
  50
 270.000
  51
 311.522
   0
LINE
   8
LEVEL001
   6
CONTINUOUS
  62
7
  10
 322.500
  20
 147.792
  30
0.0
  11
 295.919
  21
 124.257
  31
0.0
   0
ARC
   8
LEVEL001
   6
CONTINUOUS
  62
7
  10
 291.500
  20
 121.000
  30
0.0
  40
 2.00000
  50
 89.9998
  51
 180.000
   0
LINE
   8
LEVEL001
   6
CONTINUOUS
  62
7
  10
 291.500
  20
 123.000
  30
0.0
  11
 292.605
  21
 123.000
  31
0.0
   0
LINE
   8
LEVEL001
   6
CONTINUOUS
  62
7
  10
 289.500
  20
 119.000
  30
0.0
  11
 289.500
  21
 128.707
  31
0.0
   0
LINE
   8
LEVEL001
   6
CONTINUOUS
  62
7
  10
 271.500
  20
 462.000
  30
0.0
  11
 271.500
  21
 416.866
  31
0.0
   0
ARC
   8
LEVEL001
   6
CONTINUOUS
  62
7
  10
 270.527
  20
 413.000
  30
0.0
  40
 2.00000
  50
 104.882
  51
 180.765
   0
ARC
   8
LEVEL001
   6
CONTINUOUS
  62
7
  10
 272.150
  20
 413.870
  30
0.0
  40
 2.00000
  50
 131.492
  51
 186.598
   0
ARC
   8
LEVEL001
   6
CONTINUOUS
  62
7
  10
 269.500
  20
 416.866
  30
0.0
  40
 2.00000
  50
 311.491
  51
 0.439680E-10
   0
LINE
   8
LEVEL001
   6
CONTINUOUS
  62
7
  10
 180.500
  20
 463.000
  30
0.0
  11
 180.500
  21
 447.000
  31
0.0
   0
ARC
   8
LEVEL001
   6
CONTINUOUS
  62
7
  10
 180.035
  20
 443.850
  30
0.0
  40
 2.00000
  50
 358.936
  51
 51.9627
   0
LINE
   8
LEVEL001
   6
CONTINUOUS
  62
7
  10
 182.035
  20
 443.812
  30
0.0
  11
 177.880
  21
 220.348
  31
0.0
   0
ARC
   8
LEVEL001
   6
CONTINUOUS
  62
7
  10
 573.000
  20
 443.000
  30
0.0
  40
 2.00000
  50
0.0
  51
 90.0002
   0
LINE
   8
LEVEL001
   6
CONTINUOUS
  62
7
  10
 547.500
  20
 445.000
  30
0.0
  11
 573.000
  21
 445.000
  31
0.0
   0
ARC
   8
LEVEL001
   6
CONTINUOUS
  62
7
  10
 607.000
  20
 443.000
  30
0.0
  40
 2.00000
  50
 89.9998
  51
 180.000
   0
LINE
   8
LEVEL001
   6
CONTINUOUS
  62
7
  10
 632.500
  20
 445.000
  30
0.0
  11
 607.000
  21
 445.000
  31
0.0
   0
LINE
   8
LEVEL001
   6
CONTINUOUS
  62
7
  10
 590.000
  20
 429.887
  30
0.0
  11
 592.500
  21
 428.443
  31
0.0
   0
LINE
   8
LEVEL001
   6
CONTINUOUS
  62
7
  10
 592.500
  20
 428.443
  30
0.0
  11
 592.500
  21
 425.557
  31
0.0
   0
LINE
   8
LEVEL001
   6
CONTINUOUS
  62
7
  10
 592.500
  20
 425.557
  30
0.0
  11
 590.000
  21
 424.113
  31
0.0
   0
LINE
   8
LEVEL001
   6
CONTINUOUS
  62
7
  10
 590.000
  20
 424.113
  30
0.0
  11
 587.500
  21
 425.557
  31
0.0
   0
LINE
   8
LEVEL001
   6
CONTINUOUS
  62
7
  10
 587.500
  20
 425.557
  30
0.0
  11
 587.500
  21
 428.443
  31
0.0
   0
LINE
   8
LEVEL001
   6
CONTINUOUS
  62
7
  10
 587.500
  20
 428.443
  30
0.0
  11
 590.000
  21
 429.887
  31
0.0
   0
CIRCLE
   8
LEVEL001
   6
CONTINUOUS
  62
7
  10
 590.000
  20
 427.000
  30
0.0
  40
 5.00000
   0
CIRCLE
   8
LEVEL001
   6
CONTINUOUS
  62
7
  10
 590.000
  20
 427.000
  30
0.0
  40
 4.48038
   0
LINE
   8
LEVEL001
   6
DASHDOT
  62
1
  10
 598.000
  20
 427.000
  30
0.0
  11
 582.000
  21
 427.000
  31
0.0
   0
ARC
   8
LEVEL001
   6
CONTINUOUS
  62
7
  10
 577.000
  20
 417.000
  30
0.0
  40
 2.00000
  50
 180.000
  51
 270.000
   0
ARC
   8
LEVEL001
   6
CONTINUOUS
  62
7
  10
 603.000
  20
 417.000
  30
0.0
  40
 2.00000
  50
 270.000
  51
 0.217713E-3
   0
LINE
   8
LEVEL001
   6
CONTINUOUS
  62
7
  10
 577.000
  20
 415.000
  30
0.0
  11
 603.000
  21
 415.000
  31
0.0
   0
LINE
   8
LEVEL001
   6
CONTINUOUS
  62
7
  10
 605.000
  20
 461.000
  30
0.0
  11
 605.000
  21
 417.000
  31
0.0
   0
ARC
   8
LEVEL001
   6
CONTINUOUS
  62
7
  10
 585.500
  20
 413.000
  30
0.0
  40
 2.00000
  50
0.0
  51
 90.0002
   0
ARC
   8
LEVEL001
   6
CONTINUOUS
  62
7
  10
 594.500
  20
 413.000
  30
0.0
  40
 2.00000
  50
 89.9998
  51
 180.000
   0
LINE
   8
LEVEL001
   6
CONTINUOUS
  62
7
  10
 587.500
  20
 202.294
  30
0.0
  11
 587.500
  21
 413.000
  31
0.0
   0
LINE
   8
LEVEL001
   6
CONTINUOUS
  62
7
  10
 592.500
  20
 202.294
  30
0.0
  11
 592.500
  21
 413.000
  31
0.0
   0
LINE
   8
LEVEL001
   6
CONTINUOUS
  62
7
  10
 575.000
  20
 461.000
  30
0.0
  11
 575.000
  21
 417.000
  31
0.0
   0
ARC
   8
LEVEL001
   6
CONTINUOUS
  62
7
  10
 545.035
  20
 443.850
  30
0.0
  40
 2.00000
  50
 358.936
  51
 51.9620
   0
ARC
   8
LEVEL001
   6
CONTINUOUS
  62
7
  10
 547.500
  20
 447.000
  30
0.0
  40
 2.00000
  50
 180.000
  51
 231.962
   0
ARC
   8
LEVEL001
   6
CONTINUOUS
  62
7
  10
 482.890
  20
 221.464
  30
0.0
  40
 60.0000
  50
 329.352
  51
 358.934
   0
ARC
   8
LEVEL001
   6
CONTINUOUS
  62
7
  10
 697.110
  20
 221.464
  30
0.0
  40
 60.0000
  50
 181.066
  51
 210.648
   0
ARC
   8
LEVEL001
   6
CONTINUOUS
  62
7
  10
 634.965
  20
 443.850
  30
0.0
  40
 2.00000
  50
 128.038
  51
 181.064
   0
ARC
   8
LEVEL001
   6
CONTINUOUS
  62
7
  10
 632.500
  20
 447.000
  30
0.0
  40
 2.00000
  50
 308.038
  51
 0.472249E-10
   0
LINE
   8
LEVEL001
   6
CONTINUOUS
  62
7
  10
 545.500
  20
 463.000
  30
0.0
  11
 545.500
  21
 447.000
  31
0.0
   0
LINE
   8
LEVEL001
   6
CONTINUOUS
  62
7
  10
 634.500
  20
 463.000
  30
0.0
  11
 634.500
  21
 447.000
  31
0.0
   0
ARC
   8
LEVEL001
   6
CONTINUOUS
  62
7
  10
 590.000
  20
 158.000
  30
0.0
  40
 64.5000
  50
 149.353
  51
 180.000
   0
ARC
   8
LEVEL001
   6
CONTINUOUS
  62
7
  10
 624.188
  20
 196.531
  30
0.0
  40
 130.000
  50
 147.955
  51
 189.743
   0
ARC
   8
LEVEL001
   6
CONTINUOUS
  62
7
  10
 624.085
  20
 196.636
  30
0.0
  40
 128.000
  50
 147.711
  51
 190.007
   0
ARC
   8
LEVEL001
   6
CONTINUOUS
  62
7
  10
 329.632
  20
 247.645
  30
0.0
  40
 40.0000
  50
 186.598
  51
 225.000
   0
LINE
   8
LEVEL001
   6
CONTINUOUS
  62
7
  10
 301.348
  20
 219.361
  30
0.0
  11
 322.500
  21
 198.208
  31
0.0
   0
LINE
   8
LEVEL001
   6
CONTINUOUS
  62
7
  10
 289.897
  20
 243.048
  30
0.0
  11
 270.163
  21
 413.640
  31
0.0
   0
ARC
   8
LEVEL001
   6
CONTINUOUS
  62
7
  10
 178.565
  20
 446.284
  30
0.0
  40
 2.00000
  50
 356.991
  51
 10.3176
   0
ARC
   8
LEVEL001
   6
CONTINUOUS
  62
7
  10
 182.500
  20
 447.000
  30
0.0
  40
 2.00000
  50
 180.000
  51
 231.962
   0
ARC
   8
LEVEL001
   6
CONTINUOUS
  62
7
  10
 161.947
  20
 187.234
  30
0.0
  40
 5.00000
  50
 335.126
  51
 356.992
   0
LINE
   8
LEVEL001
   6
CONTINUOUS
  62
7
  10
 180.562
  20
 446.179
  30
0.0
  11
 166.940
  21
 186.971
  31
0.0
   0
LINE
   8
LEVEL001
   6
CONTINUOUS
  62
7
  10
 634.438
  20
 446.179
  30
0.0
  11
 648.060
  21
 186.971
  31
0.0
   0
ARC
   8
LEVEL001
   6
CONTINUOUS
  62
7
  10
 511.833
  20
 177.239
  30
0.0
  40
 16.0000
  50
 189.743
  51
 346.173
   0
ARC
   8
LEVEL001
   6
CONTINUOUS
  62
7
  10
 512.804
  20
 177.000
  30
0.0
  40
 15.0000
  50
 190.007
  51
 346.173
   0
ARC
   8
LEVEL001
   6
CONTINUOUS
  62
7
  10
 527.559
  20
 257.019
  30
0.0
  40
 16.0000
  50
 358.935
  51
 147.955
   0
ARC
   8
LEVEL001
   6
CONTINUOUS
  62
7
  10
 528.559
  20
 257.000
  30
0.0
  40
 15.0000
  50
 358.935
  51
 147.711
   0
ARC
   8
LEVEL001
   6
CONTINUOUS
  62
7
  10
 624.188
  20
 196.531
  30
0.0
  40
 135.000
  50
 147.955
  51
 189.743
   0
ARC
   8
LEVEL001
   6
CONTINUOUS
  62
7
  10
 624.188
  20
 196.531
  30
0.0
  40
 145.000
  50
 147.955
  51
 189.743
   0
ARC
   8
LEVEL001
   6
CONTINUOUS
  62
7
  10
 515.500
  20
 136.403
  30
0.0
  40
 10.0000
  50
0.0
  51
 95.1316
   0
ARC
   8
LEVEL001
   6
CONTINUOUS
  62
7
  10
 511.833
  20
 177.239
  30
0.0
  40
 31.0000
  50
 189.743
  51
 275.132
   0
ARC
   8
LEVEL001
   6
CONTINUOUS
  62
7
  10
 520.500
  20
 152.726
  30
0.0
  40
 5.00000
  50
 0.182352E-4
  51
 109.472
   0
ARC
   8
LEVEL001
   6
CONTINUOUS
  62
7
  10
 511.833
  20
 177.239
  30
0.0
  40
 21.0000
  50
 189.743
  51
 289.473
   0
LINE
   8
LEVEL001
   6
CONTINUOUS
  62
7
  10
 525.500
  20
 121.000
  30
0.0
  11
 525.500
  21
 158.000
  31
0.0
   0
ARC
   8
LEVEL001
   6
CONTINUOUS
  62
7
  10
 532.488
  20
 292.679
  30
0.0
  40
 5.00000
  50
 262.129
  51
 356.991
   0
LINE
   8
LEVEL001
   6
CONTINUOUS
  62
7
  10
 545.562
  20
 446.179
  30
0.0
  11
 537.482
  21
 292.417
  31
0.0
   0
ARC
   8
LEVEL001
   6
CONTINUOUS
  62
7
  10
 527.559
  20
 257.019
  30
0.0
  40
 31.0000
  50
 82.1294
  51
 147.955
   0
ARC
   8
LEVEL001
   6
CONTINUOUS
  62
7
  10
 538.995
  20
 280.368
  30
0.0
  40
 5.00000
  50
 243.906
  51
 358.935
   0
ARC
   8
LEVEL001
   6
CONTINUOUS
  62
7
  10
 527.559
  20
 257.019
  30
0.0
  40
 21.0000
  50
 63.9057
  51
 147.955
   0
LINE
   8
LEVEL001
   6
CONTINUOUS
  62
7
  10
 547.035
  20
 443.812
  30
0.0
  11
 542.880
  21
 220.348
  31
0.0
   0
ARC
   8
LEVEL001
   6
CONTINUOUS
  62
7
  10
 590.000
  20
 158.000
  30
0.0
  40
 64.5000
  50
 3.77795
  51
 30.6470
   0
LINE
   8
LEVEL003
   6
CONTINUOUS
  62
3
  10
 187.000
  20
 480.000
  30
0.0
  11
 145.000
  21
 480.000
  31
0.0
   0
LINE
   8
LEVEL003
   6
CONTINUOUS
  62
3
  10
 180.000
  20
 465.000
  30
0.0
  11
 145.000
  21
 465.000
  31
0.0
   0
LINE
   8
LEVEL003
   6
CONTINUOUS
  62
3
  10
 150.000
  20
 480.000
  30
0.0
  11
 150.000
  21
 465.000
  31
0.0
   0
LINE
   8
LEVEL003
   6
CONTINUOUS
  62
3
  10
 148.750
  20
 472.500
  30
0.0
  11
 150.000
  21
 480.000
  31
0.0
   0
LINE
   8
LEVEL003
   6
CONTINUOUS
  62
3
  10
 150.000
  20
 480.000
  30
0.0
  11
 151.250
  21
 472.500
  31
0.0
   0
LINE
   8
LEVEL003
   6
CONTINUOUS
  62
3
  10
 150.000
  20
 480.000
  30
0.0
  11
 150.000
  21
 472.500
  31
0.0
   0
LINE
   8
LEVEL003
   6
CONTINUOUS
  62
3
  10
 151.250
  20
 472.500
  30
0.0
  11
 150.000
  21
 465.000
  31
0.0
   0
LINE
   8
LEVEL003
   6
CONTINUOUS
  62
3
  10
 150.000
  20
 465.000
  30
0.0
  11
 148.750
  21
 472.500
  31
0.0
   0
LINE
   8
LEVEL003
   6
CONTINUOUS
  62
3
  10
 150.000
  20
 465.000
  30
0.0
  11
 150.000
  21
 472.500
  31
0.0
   0
TEXT
   8
LEVEL003
  62
3
  10
 154.562
  20
 466.968
  30
0.0
  40
 10.0000
   1
15
  50
 90.0000
  41
 0.500000
   7
STANDARD
  72
1
  11
 147.895
  21
 471.968
  31
0.0
  73
2
   0
TEXT
   8
LEVEL020
  62
6
  10
 362.500
  20
 577.500
  30
0.0
  40
 12.5000
   1
質　　　量
   7
STANDARD
   0
TEXT
   8
LEVEL020
  62
6
  10
 505.000
  20
 630.000
  30
0.0
  40
 12.5000
   1
　　　　２５０
  41
 0.700000
   7
STANDARD
   0
TEXT
   8
LEVEL020
  62
6
  10
 575.000
  20
 630.000
  30
0.0
  40
 12.5000
   1
ｋＮ
  41
 0.700000
   7
STANDARD
   0
LINE
   8
LEVEL001
   6
DASHDOT
  62
1
  10
 561.500
  20
 474.750
  30
0.0
  11
 561.500
  21
 483.750
  31
0.0
   0
LINE
   8
LEVEL001
   6
DASHDOT
  62
1
  10
 572.000
  20
 474.750
  30
0.0
  11
 572.000
  21
 483.750
  31
0.0
   0
LINE
   8
LEVEL001
   6
DASHDOT
  62
1
  10
 608.000
  20
 474.750
  30
0.0
  11
 608.000
  21
 483.750
  31
0.0
   0
LINE
   8
LEVEL001
   6
DASHDOT
  62
1
  10
 618.500
  20
 474.750
  30
0.0
  11
 618.500
  21
 483.750
  31
0.0
   0
LINE
   8
LEVEL001
   6
DASHDOT
  62
1
  10
 542.000
  20
 81.2500
  30
0.0
  11
 542.000
  21
 90.2500
  31
0.0
   0
LINE
   8
LEVEL001
   6
DASHDOT
  62
1
  10
 558.000
  20
 81.2500
  30
0.0
  11
 558.000
  21
 90.2500
  31
0.0
   0
LINE
   8
LEVEL001
   6
DASHDOT
  62
1
  10
 574.000
  20
 81.2500
  30
0.0
  11
 574.000
  21
 90.2500
  31
0.0
   0
LINE
   8
LEVEL001
   6
DASHDOT
  62
1
  10
 606.000
  20
 81.2500
  30
0.0
  11
 606.000
  21
 90.2500
  31
0.0
   0
LINE
   8
LEVEL001
   6
DASHDOT
  62
1
  10
 622.000
  20
 81.2500
  30
0.0
  11
 622.000
  21
 90.2500
  31
0.0
   0
LINE
   8
LEVEL001
   6
DASHDOT
  62
1
  10
 638.000
  20
 81.2500
  30
0.0
  11
 638.000
  21
 90.2500
  31
0.0
   0
ARC
   8
LEVEL003
   6
CONTINUOUS
  62
7
  10
 158.500
  20
 163.000
  30
0.0
  40
 2.00000
  50
 0.325689E-11
  51
 60.0000
   0
ARC
   8
LEVEL001
   6
CONTINUOUS
  62
7
  10
 157.040
  20
 172.549
  30
0.0
  40
 5.00000
  50
 299.623
  51
 347.916
   0
ARC
   8
LEVEL003
   6
CONTINUOUS
  62
7
  10
 160.500
  20
 166.464
  30
0.0
  40
 2.00000
  50
 119.623
  51
 240.000
   0
ARC
   8
LEVEL003
   6
CONTINUOUS
  62
7
  10
 158.500
  20
 129.000
  30
0.0
  40
 2.00000
  50
 300.000
  51
 0.814222E-12
   0
ARC
   8
LEVEL003
   6
CONTINUOUS
  62
7
  10
 155.500
  20
 120.637
  30
0.0
  40
 5.00000
  50
 0.977066E-12
  51
 44.4153
   0
ARC
   8
LEVEL003
   6
CONTINUOUS
  62
7
  10
 160.500
  20
 125.536
  30
0.0
  40
 2.00000
  50
 120.000
  51
 224.415
   0
LINE
   8
LEVEL001
   6
CONTINUOUS
  62
7
  10
 160.500
  20
 119.000
  30
0.0
  11
 160.500
  21
 120.643
  31
0.0
   0
ARC
   8
LEVEL001
   6
CONTINUOUS
  62
7
  10
 225.000
  20
 158.000
  30
0.0
  40
 64.5000
  50
 149.353
  51
 167.924
   0
LINE
   8
LEVEL001
   6
CONTINUOUS
  62
7
  10
 160.500
  20
 128.996
  30
0.0
  11
 160.500
  21
 163.000
  31
0.0
   0
LINE
   8
LEVEL003
   6
CONTINUOUS
  62
7
  10
 601.000
  20
 147.500
  30
0.0
  11
 603.000
  21
 149.500
  31
0.0
   0
LINE
   8
LEVEL003
   6
CONTINUOUS
  62
7
  10
 603.000
  20
 149.500
  30
0.0
  11
 603.000
  21
 148.500
  31
0.0
   0
LINE
   8
LEVEL003
   6
CONTINUOUS
  62
7
  10
 603.000
  20
 148.500
  30
0.0
  11
 610.000
  21
 148.500
  31
0.0
   0
LINE
   8
LEVEL003
   6
CONTINUOUS
  62
7
  10
 610.000
  20
 148.500
  30
0.0
  11
 610.000
  21
 146.500
  31
0.0
   0
LINE
   8
LEVEL003
   6
CONTINUOUS
  62
7
  10
 610.000
  20
 146.500
  30
0.0
  11
 603.000
  21
 146.500
  31
0.0
   0
LINE
   8
LEVEL003
   6
CONTINUOUS
  62
7
  10
 603.000
  20
 146.500
  30
0.0
  11
 603.000
  21
 145.500
  31
0.0
   0
LINE
   8
LEVEL003
   6
CONTINUOUS
  62
7
  10
 603.000
  20
 145.500
  30
0.0
  11
 601.000
  21
 147.500
  31
0.0
   0
LINE
   8
LEVEL003
   6
CONTINUOUS
  62
7
  10
 566.203
  20
 147.500
  30
0.0
  11
 564.203
  21
 149.500
  31
0.0
   0
LINE
   8
LEVEL003
   6
CONTINUOUS
  62
7
  10
 564.203
  20
 149.500
  30
0.0
  11
 564.203
  21
 148.500
  31
0.0
   0
LINE
   8
LEVEL003
   6
CONTINUOUS
  62
7
  10
 564.203
  20
 148.500
  30
0.0
  11
 557.203
  21
 148.500
  31
0.0
   0
LINE
   8
LEVEL003
   6
CONTINUOUS
  62
7
  10
 557.203
  20
 148.500
  30
0.0
  11
 557.203
  21
 146.500
  31
0.0
   0
LINE
   8
LEVEL003
   6
CONTINUOUS
  62
7
  10
 557.203
  20
 146.500
  30
0.0
  11
 564.203
  21
 146.500
  31
0.0
   0
LINE
   8
LEVEL003
   6
CONTINUOUS
  62
7
  10
 564.203
  20
 146.500
  30
0.0
  11
 564.203
  21
 145.500
  31
0.0
   0
LINE
   8
LEVEL003
   6
CONTINUOUS
  62
7
  10
 564.203
  20
 145.500
  30
0.0
  11
 566.203
  21
 147.500
  31
0.0
   0
ARC
   8
LEVEL001
   6
CONTINUOUS
  62
7
  10
 569.500
  20
 139.257
  30
0.0
  40
 3.00000
  50
 0.829971E-4
  51
 88.0004
   0
ARC
   8
LEVEL001
   6
CONTINUOUS
  62
7
  10
 615.500
  20
 139.257
  30
0.0
  40
 3.00000
  50
 91.9996
  51
 180.000
   0
ARC
   8
LEVEL003
   6
CONTINUOUS
  62
7
  10
 581.500
  20
 127.500
  30
0.0
  40
 3.00000
  50
 180.000
  51
 270.000
   0
LINE
   8
LEVEL003
   6
CONTINUOUS
  62
7
  10
 581.500
  20
 124.500
  30
0.0
  11
 603.500
  21
 124.500
  31
0.0
   0
ARC
   8
LEVEL003
   6
CONTINUOUS
  62
7
  10
 576.500
  20
 137.700
  30
0.0
  40
 2.00000
  50
0.0
  51
 90.0000
   0
LINE
   8
LEVEL003
   6
CONTINUOUS
  62
7
  10
 578.500
  20
 127.500
  30
0.0
  11
 578.500
  21
 137.700
  31
0.0
   0
ARC
   8
LEVEL003
   6
CONTINUOUS
  62
7
  10
 603.500
  20
 127.500
  30
0.0
  40
 3.00000
  50
 270.000
  51
0.0
   0
ARC
   8
LEVEL003
   6
CONTINUOUS
  62
7
  10
 608.500
  20
 137.700
  30
0.0
  40
 2.00000
  50
 90.0000
  51
 180.000
   0
LINE
   8
LEVEL003
   6
CONTINUOUS
  62
7
  10
 606.500
  20
 127.500
  30
0.0
  11
 606.500
  21
 137.700
  31
0.0
   0
CIRCLE
   8
0
   6
CONTINUOUS
  62
7
  10
 595.023
  20
 130.540
  30
0.0
  40
 3.33333
   0
LINE
   8
0
   6
CONTINUOUS
  62
7
  10
 588.480
  20
 127.206
  30
0.0
  11
 592.714
  21
 134.540
  31
0.0
   0
LINE
   8
0
   6
CONTINUOUS
  62
7
  10
 592.714
  20
 134.540
  30
0.0
  11
 601.182
  21
 134.540
  31
0.0
   0
LINE
   8
0
   6
CONTINUOUS
  62
7
  10
 601.182
  20
 134.540
  30
0.0
  11
 602.144
  21
 136.206
  31
0.0
   0
LINE
   8
0
   6
CONTINUOUS
  62
7
  10
 602.144
  20
 136.206
  30
0.0
  11
 587.010
  21
 136.206
  31
0.0
   0
LINE
   8
0
   6
CONTINUOUS
  62
7
  10
 587.010
  20
 136.206
  30
0.0
  11
 581.813
  21
 127.206
  31
0.0
   0
LINE
   8
0
   6
CONTINUOUS
  62
7
  10
 581.813
  20
 127.206
  30
0.0
  11
 588.480
  21
 127.206
  31
0.0
   0
TEXT
   8
LEVEL003
  62
7
  10
 553.545
  20
 151.702
  30
0.0
  40
 8.00000
   1
ＵＰ
  50
 180.000
  41
 0.875000
   7
STANDARD
   0
TEXT
   8
LEVEL003
  62
7
  10
 641.368
  20
 151.702
  30
0.0
  40
 8.00000
   1
ＤＯＷＮ
  50
 180.000
  41
 0.875000
   7
STANDARD
   0
LINE
   8
LEVEL001
   6
CONTINUOUS
  62
7
  10
 572.500
  20
 102.635
  30
0.0
  11
 572.500
  21
 139.257
  31
0.0
   0
LINE
   8
LEVEL001
   6
CONTINUOUS
  62
7
  10
 612.500
  20
 102.635
  30
0.0
  11
 612.500
  21
 139.257
  31
0.0
   0
ARC
   8
LEVEL003
   6
CONTINUOUS
  62
7
  10
 606.283
  20
 350.000
  30
0.0
  40
 2.00000
  50
 90.0000
  51
 180.753
   0
LINE
   8
LEVEL003
   6
CONTINUOUS
  62
7
  10
 605.217
  20
 278.974
  30
0.0
  11
 604.283
  21
 349.974
  31
0.0
   0
ARC
   8
LEVEL003
   6
CONTINUOUS
  62
7
  10
 607.217
  20
 279.000
  30
0.0
  40
 2.00000
  50
 180.753
  51
 270.000
   0
ARC
   8
LEVEL003
   6
CONTINUOUS
  62
7
  10
 634.896
  20
 279.000
  30
0.0
  40
 2.00000
  50
 270.000
  51
 0.753311
   0
LINE
   8
LEVEL003
   6
CONTINUOUS
  62
7
  10
 636.896
  20
 279.026
  30
0.0
  11
 635.962
  21
 350.026
  31
0.0
   0
ARC
   8
LEVEL003
   6
CONTINUOUS
  62
7
  10
 633.962
  20
 350.000
  30
0.0
  40
 2.00000
  50
 0.753311
  51
 90.0000
   0
ARC
   8
LEVEL003
   6
CONTINUOUS
  62
7
  10
 606.304
  20
 274.000
  30
0.0
  40
 3.00000
  50
 90.0000
  51
 180.822
   0
LINE
   8
LEVEL003
   6
CONTINUOUS
  62
7
  10
 606.304
  20
 277.000
  30
0.0
  11
 634.896
  21
 277.000
  31
0.0
   0
LINE
   8
LEVEL003
   6
CONTINUOUS
  62
7
  10
 605.142
  20
 352.000
  30
0.0
  11
 633.962
  21
 352.000
  31
0.0
   0
ARC
   8
LEVEL003
   6
CONTINUOUS
  62
7
  10
 605.142
  20
 355.000
  30
0.0
  40
 3.00000
  50
 180.822
  51
 270.000
   0
LINE
   8
LEVEL001
   6
CONTINUOUS
  62
7
  10
 632.965
  20
 443.812
  30
0.0
  11
 634.675
  21
 351.869
  31
0.0
   0
LINE
   8
LEVEL001
   6
CONTINUOUS
  62
7
  10
 636.060
  20
 277.374
  30
0.0
  11
 637.120
  21
 220.348
  31
0.0
   0
LINE
   8
LEVEL003
   6
CONTINUOUS
  62
7
  10
 602.214
  20
 349.944
  30
0.0
  11
 603.233
  21
 278.945
  31
0.0
   0
ARC
   8
LEVEL003
   6
CONTINUOUS
  62
7
  10
 634.896
  20
 274.000
  30
0.0
  40
 3.00000
  50
 90.0000
  51
 180.822
   0
ARC
   8
LEVEL003
   6
CONTINUOUS
  62
7
  10
 633.962
  20
 355.000
  30
0.0
  40
 3.00000
  50
 180.822
  51
 270.000
   0
LINE
   8
LEVEL001
   6
CONTINUOUS
  62
7
  10
 267.500
  20
 465.000
  30
0.0
  11
 182.500
  21
 465.000
  31
0.0
   0
LINE
   8
LEVEL001
   6
CONTINUOUS
  62
7
  10
 325.500
  20
 150.000
  30
0.0
  11
 325.500
  21
 196.000
  31
0.0
   0
ARC
   8
LEVEL001
   6
CONTINUOUS
  62
7
  10
 375.000
  20
 183.000
  30
0.0
  40
 1.00000
  50
 0.179129E-9
  51
 90.0000
   0
ARC
   8
LEVEL001
   6
CONTINUOUS
  62
7
  10
 375.000
  20
 163.000
  30
0.0
  40
 1.00000
  50
 270.000
  51
0.0
   0
LINE
   8
LEVEL001
   6
CONTINUOUS
  62
7
  10
 376.000
  20
 163.000
  30
0.0
  11
 376.000
  21
 183.000
  31
0.0
   0
LINE
   8
LEVEL001
   6
CONTINUOUS
  62
7
  10
 373.350
  20
 184.000
  30
0.0
  11
 375.000
  21
 184.000
  31
0.0
   0
LINE
   8
LEVEL001
   6
CONTINUOUS
  62
7
  10
 373.350
  20
 162.000
  30
0.0
  11
 375.000
  21
 162.000
  31
0.0
   0
LINE
   8
LEVEL001
   6
CONTINUOUS
  62
7
  10
 372.000
  20
 162.000
  30
0.0
  11
 372.000
  21
 184.000
  31
0.0
   0
LINE
   8
LEVEL001
   6
CONTINUOUS
  62
7
  10
 372.000
  20
 184.000
  30
0.0
  11
 372.000
  21
 190.500
  31
0.0
   0
LINE
   8
LEVEL001
   6
CONTINUOUS
  62
7
  10
 372.000
  20
 155.500
  30
0.0
  11
 372.000
  21
 162.000
  31
0.0
   0
LINE
   8
LEVEL001
   6
CONTINUOUS
  62
7
  10
 372.000
  20
 187.600
  30
0.0
  11
 373.350
  21
 187.600
  31
0.0
   0
LINE
   8
LEVEL001
   6
CONTINUOUS
  62
7
  10
 372.000
  20
 159.800
  30
0.0
  11
 373.350
  21
 159.800
  31
0.0
   0
LINE
   8
LEVEL001
   6
CONTINUOUS
  62
7
  10
 373.350
  20
 159.800
  30
0.0
  11
 373.350
  21
 187.600
  31
0.0
   0
LINE
   8
LEVEL001
   6
CONTINUOUS
  62
7
  10
 327.000
  20
 202.400
  30
0.0
  11
 368.600
  21
 202.400
  31
0.0
   0
ARC
   8
LEVEL001
   6
CONTINUOUS
  62
7
  10
 393.800
  20
 109.000
  30
0.0
  40
 4.00000
  50
 272.196
  51
 87.8041
   0
ARC
   8
LEVEL001
   6
CONTINUOUS
  62
7
  10
 367.800
  20
 91.0000
  30
0.0
  40
 2.00000
  50
 270.000
  51
 0.437132E-3
   0
ARC
   8
LEVEL001
   6
CONTINUOUS
  62
7
  10
 327.800
  20
 91.0000
  30
0.0
  40
 2.00000
  50
 180.000
  51
 270.000
   0
LINE
   8
LEVEL001
   6
DASHDOT
  62
1
  10
 347.800
  20
 85.0000
  30
0.0
  11
 347.800
  21
 205.000
  31
0.0
   0
LINE
   8
LEVEL001
   6
DASHDOT
  62
1
  10
 322.391
  20
 147.500
  30
0.0
  11
 373.208
  21
 147.500
  31
0.0
   0
LINE
   8
LEVEL001
   6
DASHDOT
  62
1
  10
 353.142
  20
 109.000
  30
0.0
  11
 405.642
  21
 109.000
  31
0.0
   0
LINE
   8
LEVEL001
   6
CONTINUOUS
  62
7
  10
 372.000
  20
 190.500
  30
0.0
  11
 370.000
  21
 190.500
  31
0.0
   0
LINE
   8
LEVEL001
   6
CONTINUOUS
  62
7
  10
 369.500
  20
 190.500
  30
0.0
  11
 368.600
  21
 190.500
  31
0.0
   0
LINE
   8
LEVEL001
   6
CONTINUOUS
  62
7
  10
 372.000
  20
 155.500
  30
0.0
  11
 370.000
  21
 155.500
  31
0.0
   0
LINE
   8
LEVEL001
   6
CONTINUOUS
  62
7
  10
 369.500
  20
 155.500
  30
0.0
  11
 368.600
  21
 155.500
  31
0.0
   0
LINE
   8
LEVEL001
   6
CONTINUOUS
  62
7
  10
 325.500
  20
 188.000
  30
0.0
  11
 327.000
  21
 188.000
  31
0.0
   0
LINE
   8
LEVEL001
   6
CONTINUOUS
  62
7
  10
 325.500
  20
 158.000
  30
0.0
  11
 327.000
  21
 158.000
  31
0.0
   0
ARC
   8
LEVEL001
   6
DOT
  62
3
  10
 336.800
  20
 126.750
  30
0.0
  40
 2.00000
  50
 90.0000
  51
 180.000
   0
ARC
   8
LEVEL001
   6
DOT
  62
3
  10
 332.800
  20
 91.0000
  30
0.0
  40
 2.00000
  50
 270.001
  51
 0.437139E-3
   0
LINE
   8
LEVEL001
   6
DOT
  62
3
  10
 334.800
  20
 91.0000
  30
0.0
  11
 334.800
  21
 126.750
  31
0.0
   0
ARC
   8
LEVEL001
   6
DOT
  62
3
  10
 358.800
  20
 126.750
  30
0.0
  40
 2.00000
  50
0.0
  51
 90.0000
   0
ARC
   8
LEVEL001
   6
DOT
  62
3
  10
 362.800
  20
 91.0000
  30
0.0
  40
 2.00000
  50
 180.000
  51
 270.000
   0
LINE
   8
LEVEL001
   6
DOT
  62
3
  10
 360.800
  20
 91.0000
  30
0.0
  11
 360.800
  21
 126.750
  31
0.0
   0
LINE
   8
LEVEL001
   6
DOT
  62
3
  10
 336.800
  20
 128.750
  30
0.0
  11
 358.800
  21
 128.750
  31
0.0
   0
LINE
   8
LEVEL001
   6
CONTINUOUS
  62
7
  10
 327.000
  20
 147.500
  30
0.0
  11
 327.000
  21
 202.400
  31
0.0
   0
LINE
   8
LEVEL001
   6
CONTINUOUS
  62
7
  10
 369.500
  20
 162.000
  30
0.0
  11
 370.000
  21
 162.000
  31
0.0
   0
LINE
   8
LEVEL001
   6
CONTINUOUS
  62
7
  10
 369.500
  20
 184.000
  30
0.0
  11
 370.000
  21
 184.000
  31
0.0
   0
LINE
   8
LEVEL001
   6
CONTINUOUS
  62
7
  10
 370.000
  20
 190.500
  30
0.0
  11
 370.000
  21
 155.500
  31
0.0
   0
LINE
   8
LEVEL001
   6
CONTINUOUS
  62
7
  10
 369.500
  20
 190.500
  30
0.0
  11
 369.500
  21
 155.500
  31
0.0
   0
CIRCLE
   8
LEVEL001
   6
CONTINUOUS
  62
7
  10
 347.800
  20
 147.500
  30
0.0
  40
 14.7500
   0
LINE
   8
LEVEL001
   6
CONTINUOUS
  62
7
  10
 368.600
  20
 202.400
  30
0.0
  11
 368.600
  21
 147.500
  31
0.0
   0
ARC
   8
LEVEL001
   6
CONTINUOUS
  62
7
  10
 347.800
  20
 147.500
  30
0.0
  40
 20.8000
  50
 180.000
  51
 0.180930E-9
   0
LINE
   8
LEVEL001
   6
CONTINUOUS
  62
7
  10
 327.800
  20
 89.0000
  30
0.0
  11
 332.800
  21
 89.0000
  31
0.0
   0
LINE
   8
LEVEL001
   6
CONTINUOUS
  62
7
  10
 362.800
  20
 89.0000
  30
0.0
  11
 367.800
  21
 89.0000
  31
0.0
   0
ARC
   8
LEVEL001
   6
CONTINUOUS
  62
7
  10
 379.150
  20
 118.568
  30
0.0
  40
 5.00000
  50
 241.704
  51
 267.804
   0
LINE
   8
LEVEL001
   6
CONTINUOUS
  62
7
  10
 378.958
  20
 113.572
  30
0.0
  11
 393.953
  21
 112.997
  31
0.0
   0
LINE
   8
LEVEL001
   6
CONTINUOUS
  62
7
  10
 378.958
  20
 104.428
  30
0.0
  11
 393.953
  21
 105.003
  31
0.0
   0
ARC
   8
LEVEL001
   6
CONTINUOUS
  62
7
  10
 379.150
  20
 99.4316
  30
0.0
  40
 5.00000
  50
 92.1961
  51
 118.296
   0
LINE
   8
LEVEL001
   6
CONTINUOUS
  62
7
  10
 369.800
  20
 91.0000
  30
0.0
  11
 369.800
  21
 97.0900
  31
0.0
   0
ARC
   8
LEVEL001
   6
CONTINUOUS
  62
7
  10
 374.800
  20
 97.0900
  30
0.0
  40
 5.00000
  50
 118.296
  51
 180.000
   0
LINE
   8
LEVEL001
   6
CONTINUOUS
  62
7
  10
 372.430
  20
 101.493
  30
0.0
  11
 376.779
  21
 103.834
  31
0.0
   0
ARC
   8
LEVEL001
   6
CONTINUOUS
  62
7
  10
 397.800
  20
 109.000
  30
0.0
  40
 31.5202
  50
 164.180
  51
 194.939
   0
LINE
   8
LEVEL001
   6
CONTINUOUS
  62
7
  10
 377.800
  20
 112.650
  30
0.0
  11
 377.800
  21
 105.995
  31
0.0
   0
ARC
   8
LEVEL001
   6
CONTINUOUS
  62
7
  10
 369.800
  20
 120.195
  30
0.0
  40
 2.00000
  50
 180.000
  51
 241.704
   0
ARC
   8
LEVEL001
   6
CONTINUOUS
  62
7
  10
 326.800
  20
 100.297
  30
0.0
  40
 1.00000
  50
 284.302
  51
 0.232860E-3
   0
ARC
   8
LEVEL001
   6
CONTINUOUS
  62
7
  10
 326.800
  20
 98.2316
  30
0.0
  40
 1.00000
  50
 104.655
  51
 180.000
   0
ARC
   8
LEVEL001
   6
CONTINUOUS
  62
7
  10
 347.800
  20
 17.9323
  30
0.0
  40
 83.9998
  50
 104.304
  51
 104.656
   0
ARC
   8
LEVEL001
   6
CONTINUOUS
  62
7
  10
 347.832
  20
 7.42191
  30
0.0
  40
 94.2131
  50
 77.8664
  51
 102.172
   0
ARC
   8
LEVEL001
   6
CONTINUOUS
  62
7
  10
 368.800
  20
 100.297
  30
0.0
  40
 1.00000
  50
 180.000
  51
 255.698
   0
ARC
   8
LEVEL001
   6
CONTINUOUS
  62
7
  10
 368.800
  20
 98.2316
  30
0.0
  40
 1.00000
  50
 0.253714E-4
  51
 75.3454
   0
ARC
   8
LEVEL001
   6
CONTINUOUS
  62
7
  10
 347.800
  20
 17.9323
  30
0.0
  40
 83.9998
  50
 75.3442
  51
 75.6965
   0
ARC
   8
LEVEL001
   6
CONTINUOUS
  62
7
  10
 347.800
  20
 10.3392
  30
0.0
  40
 80.0783
  50
 79.2038
  51
 100.796
   0
ARC
   8
LEVEL001
   6
CONTINUOUS
  62
7
  10
 347.800
  20
 11.8539
  30
0.0
  40
 80.0783
  50
 75.8184
  51
 104.182
   0
ARC
   8
LEVEL001
   6
CONTINUOUS
  62
7
  10
 346.300
  20
 170.089
  30
0.0
  40
 3.00000
  50
 128.679
  51
 177.583
   0
ARC
   8
LEVEL001
   6
CONTINUOUS
  62
7
  10
 349.300
  20
 170.089
  30
0.0
  40
 3.00000
  50
 2.41742
  51
 51.3165
   0
LINE
   8
LEVEL001
   6
CONTINUOUS
  62
7
  10
 368.050
  20
 168.552
  30
0.0
  11
 327.550
  21
 168.552
  31
0.0
   0
LINE
   8
LEVEL001
   6
CONTINUOUS
  62
7
  10
 368.050
  20
 169.953
  30
0.0
  11
 327.550
  21
 169.953
  31
0.0
   0
LINE
   8
LEVEL001
   6
CONTINUOUS
  62
7
  10
 343.303
  20
 170.215
  30
0.0
  11
 352.297
  21
 170.215
  31
0.0
   0
ARC
   8
LEVEL001
   6
CONTINUOUS
  62
7
  10
 347.800
  20
 168.215
  30
0.0
  40
 5.40000
  50
 51.3161
  51
 128.681
   0
LINE
   8
LEVEL001
   6
CONTINUOUS
  62
7
  10
 368.050
  20
 202.400
  30
0.0
  11
 368.050
  21
 168.552
  31
0.0
   0
LINE
   8
LEVEL001
   6
CONTINUOUS
  62
7
  10
 327.550
  20
 202.400
  30
0.0
  11
 327.550
  21
 168.552
  31
0.0
   0
LINE
   8
LEVEL001
   6
CONTINUOUS
  62
7
  10
 327.800
  20
 100.297
  30
0.0
  11
 327.800
  21
 141.787
  31
0.0
   0
LINE
   8
LEVEL001
   6
CONTINUOUS
  62
7
  10
 367.800
  20
 120.195
  30
0.0
  11
 367.800
  21
 141.787
  31
0.0
   0
LINE
   8
LEVEL001
   6
CONTINUOUS
  62
7
  10
 368.852
  20
 118.434
  30
0.0
  11
 376.780
  21
 114.166
  31
0.0
   0
LINE
   8
LEVEL001
   6
CONTINUOUS
  62
7
  10
 325.800
  20
 91.0000
  30
0.0
  11
 325.800
  21
 98.2451
  31
0.0
   0
ARC
   8
LEVEL001
   6
CONTINUOUS
  62
7
  10
 292.500
  20
 167.500
  30
0.0
  40
 3.00000
  50
 90.0000
  51
 180.000
   0
ARC
   8
LEVEL001
   6
CONTINUOUS
  62
7
  10
 292.500
  20
 178.500
  30
0.0
  40
 3.00000
  50
 180.000
  51
 270.000
   0
LINE
   8
LEVEL001
   6
CONTINUOUS
  62
7
  10
 292.500
  20
 175.500
  30
0.0
  11
 322.500
  21
 175.500
  31
0.0
   0
LINE
   8
LEVEL001
   6
CONTINUOUS
  62
7
  10
 322.500
  20
 170.500
  30
0.0
  11
 292.500
  21
 170.500
  31
0.0
   0
LINE
   8
LEVEL001
   6
CONTINUOUS
  62
7
  10
 323.505
  20
 198.139
  30
0.0
  11
 323.505
  21
 147.861
  31
0.0
   0
ARC
   8
LEVEL001
   6
CONTINUOUS
  62
7
  10
 225.000
  20
 285.519
  30
0.0
  40
 2.50000
  50
0.0
  51
 180.000
   0
ARC
   8
LEVEL001
   6
CONTINUOUS
  62
7
  10
 225.000
  20
 148.739
  30
0.0
  40
 2.50000
  50
 180.000
  51
0.0
   0
ARC
   8
LEVEL001
   6
CONTINUOUS
  62
7
  10
 219.500
  20
 139.403
  30
0.0
  40
 3.00000
  50
 270.000
  51
 0.434252E-11
   0
ARC
   8
LEVEL001
   6
CONTINUOUS
  62
7
  10
 230.500
  20
 139.403
  30
0.0
  40
 3.00000
  50
 180.000
  51
 270.000
   0
ARC
   8
LEVEL001
   6
CONTINUOUS
  62
7
  10
 210.000
  20
 157.726
  30
0.0
  40
 5.00000
  50
 270.000
  51
0.0
   0
ARC
   8
LEVEL001
   6
CONTINUOUS
  62
7
  10
 240.000
  20
 157.726
  30
0.0
  40
 5.00000
  50
 180.000
  51
 270.000
   0
LINE
   8
LEVEL001
   6
CONTINUOUS
  62
7
  10
 266.896
  20
 447.000
  30
0.0
  11
 266.896
  21
 463.000
  31
0.0
   0
LINE
   8
LEVEL001
   6
CONTINUOUS
  62
7
  10
 267.971
  20
 443.467
  30
0.0
  11
 271.766
  21
 239.410
  31
0.0
   0
LINE
   8
LEVEL003
   6
CONTINUOUS
  62
7
  10
 182.035
  20
 445.000
  30
0.0
  11
 266.896
  21
 445.000
  31
0.0
   0
ARC
   8
LEVEL001
   6
CONTINUOUS
  62
7
  10
 229.500
  20
 443.000
  30
0.0
  40
 2.00000
  50
 90.0000
  51
 180.000
   0
ARC
   8
LEVEL001
   6
CONTINUOUS
  62
7
  10
 220.500
  20
 443.000
  30
0.0
  40
 2.00000
  50
0.0
  51
 90.0000
   0
LINE
   8
LEVEL001
   6
CONTINUOUS
  62
7
  10
 227.500
  20
 139.403
  30
0.0
  11
 227.500
  21
 443.000
  31
0.0
   0
LINE
   8
LEVEL001
   6
CONTINUOUS
  62
7
  10
 222.500
  20
 139.403
  30
0.0
  11
 222.500
  21
 443.000
  31
0.0
   0
POLYLINE
   8
LEVEL001
   6
CONTINUOUS
  62
7
  66
1
  10
0.0
  20
0.0
  30
0.0
  70
0
   0
VERTEX
   8
LEVEL001
   6
CONTINUOUS
  62
7
  10
 159.493
  20
 127.391
  30
0.0
   0
VERTEX
   8
LEVEL001
   6
CONTINUOUS
  62
7
  10
 160.572
  20
 127.800
  30
0.0
   0
VERTEX
   8
LEVEL001
   6
CONTINUOUS
  62
7
  10
 161.618
  20
 128.494
  30
0.0
   0
VERTEX
   8
LEVEL001
   6
CONTINUOUS
  62
7
  10
 162.616
  20
 129.461
  30
0.0
   0
VERTEX
   8
LEVEL001
   6
CONTINUOUS
  62
7
  10
 163.549
  20
 130.686
  30
0.0
   0
VERTEX
   8
LEVEL001
   6
CONTINUOUS
  62
7
  10
 164.404
  20
 132.150
  30
0.0
   0
VERTEX
   8
LEVEL001
   6
CONTINUOUS
  62
7
  10
 165.166
  20
 133.830
  30
0.0
   0
VERTEX
   8
LEVEL001
   6
CONTINUOUS
  62
7
  10
 165.825
  20
 135.700
  30
0.0
   0
VERTEX
   8
LEVEL001
   6
CONTINUOUS
  62
7
  10
 166.369
  20
 137.731
  30
0.0
   0
VERTEX
   8
LEVEL001
   6
CONTINUOUS
  62
7
  10
 166.790
  20
 139.890
  30
0.0
   0
VERTEX
   8
LEVEL001
   6
CONTINUOUS
  62
7
  10
 167.082
  20
 142.145
  30
0.0
   0
VERTEX
   8
LEVEL001
   6
CONTINUOUS
  62
7
  10
 167.240
  20
 144.461
  30
0.0
   0
VERTEX
   8
LEVEL001
   6
CONTINUOUS
  62
7
  10
 167.262
  20
 146.800
  30
0.0
   0
VERTEX
   8
LEVEL001
   6
CONTINUOUS
  62
7
  10
 167.147
  20
 149.127
  30
0.0
   0
VERTEX
   8
LEVEL001
   6
CONTINUOUS
  62
7
  10
 166.897
  20
 151.405
  30
0.0
   0
VERTEX
   8
LEVEL001
   6
CONTINUOUS
  62
7
  10
 166.516
  20
 153.598
  30
0.0
   0
VERTEX
   8
LEVEL001
   6
CONTINUOUS
  62
7
  10
 166.010
  20
 155.674
  30
0.0
   0
VERTEX
   8
LEVEL001
   6
CONTINUOUS
  62
7
  10
 165.386
  20
 157.598
  30
0.0
   0
VERTEX
   8
LEVEL001
   6
CONTINUOUS
  62
7
  10
 164.656
  20
 159.341
  30
0.0
   0
VERTEX
   8
LEVEL001
   6
CONTINUOUS
  62
7
  10
 163.829
  20
 160.876
  30
0.0
   0
VERTEX
   8
LEVEL001
   6
CONTINUOUS
  62
7
  10
 162.919
  20
 162.179
  30
0.0
   0
VERTEX
   8
LEVEL001
   6
CONTINUOUS
  62
7
  10
 161.940
  20
 163.229
  30
0.0
   0
VERTEX
   8
LEVEL001
   6
CONTINUOUS
  62
7
  10
 160.907
  20
 164.011
  30
0.0
   0
VERTEX
   8
LEVEL001
   6
CONTINUOUS
  62
7
  10
 159.837
  20
 164.511
  30
0.0
   0
VERTEX
   8
LEVEL001
   6
CONTINUOUS
  62
7
  10
 159.794
  20
 164.525
  30
0.0
   0
SEQEND
   0
POLYLINE
   8
LEVEL001
   6
CONTINUOUS
  62
7
  66
1
  10
0.0
  20
0.0
  30
0.0
  70
0
   0
VERTEX
   8
LEVEL001
   6
CONTINUOUS
  62
7
  10
 162.052
  20
 124.089
  30
0.0
   0
VERTEX
   8
LEVEL001
   6
CONTINUOUS
  62
7
  10
 163.555
  20
 125.050
  30
0.0
   0
VERTEX
   8
LEVEL001
   6
CONTINUOUS
  62
7
  10
 164.978
  20
 126.338
  30
0.0
   0
VERTEX
   8
LEVEL001
   6
CONTINUOUS
  62
7
  10
 166.301
  20
 127.933
  30
0.0
   0
VERTEX
   8
LEVEL001
   6
CONTINUOUS
  62
7
  10
 167.503
  20
 129.810
  30
0.0
   0
VERTEX
   8
LEVEL001
   6
CONTINUOUS
  62
7
  10
 168.563
  20
 131.940
  30
0.0
   0
VERTEX
   8
LEVEL001
   6
CONTINUOUS
  62
7
  10
 169.467
  20
 134.289
  30
0.0
   0
VERTEX
   8
LEVEL001
   6
CONTINUOUS
  62
7
  10
 170.199
  20
 136.820
  30
0.0
   0
VERTEX
   8
LEVEL001
   6
CONTINUOUS
  62
7
  10
 170.749
  20
 139.495
  30
0.0
   0
VERTEX
   8
LEVEL001
   6
CONTINUOUS
  62
7
  10
 171.108
  20
 142.272
  30
0.0
   0
VERTEX
   8
LEVEL001
   6
CONTINUOUS
  62
7
  10
 171.270
  20
 145.106
  30
0.0
   0
VERTEX
   8
LEVEL001
   6
CONTINUOUS
  62
7
  10
 171.233
  20
 147.955
  30
0.0
   0
VERTEX
   8
LEVEL001
   6
CONTINUOUS
  62
7
  10
 170.997
  20
 150.773
  30
0.0
   0
VERTEX
   8
LEVEL001
   6
CONTINUOUS
  62
7
  10
 170.566
  20
 153.517
  30
0.0
   0
VERTEX
   8
LEVEL001
   6
CONTINUOUS
  62
7
  10
 169.947
  20
 156.143
  30
0.0
   0
VERTEX
   8
LEVEL001
   6
CONTINUOUS
  62
7
  10
 169.149
  20
 158.611
  30
0.0
   0
VERTEX
   8
LEVEL001
   6
CONTINUOUS
  62
7
  10
 168.185
  20
 160.882
  30
0.0
   0
VERTEX
   8
LEVEL001
   6
CONTINUOUS
  62
7
  10
 167.070
  20
 162.921
  30
0.0
   0
VERTEX
   8
LEVEL001
   6
CONTINUOUS
  62
7
  10
 165.821
  20
 164.696
  30
0.0
   0
VERTEX
   8
LEVEL001
   6
CONTINUOUS
  62
7
  10
 164.458
  20
 166.180
  30
0.0
   0
VERTEX
   8
LEVEL001
   6
CONTINUOUS
  62
7
  10
 163.002
  20
 167.348
  30
0.0
   0
VERTEX
   8
LEVEL001
   6
CONTINUOUS
  62
7
  10
 162.075
  20
 167.899
  30
0.0
   0
SEQEND
   0
LINE
   8
LEVEL001
   6
CONTINUOUS
  62
7
  10
 201.000
  20
 110.000
  30
0.0
  11
 201.000
  21
 97.0000
  31
0.0
   0
LINE
   8
LEVEL001
   6
CONTINUOUS
  62
7
  10
 165.131
  20
 97.0000
  30
0.0
  11
 165.131
  21
 110.000
  31
0.0
   0
LINE
   8
LEVEL001
   6
CONTINUOUS
  62
7
  10
 165.131
  20
 110.000
  30
0.0
  11
 201.000
  21
 110.000
  31
0.0
   0
LINE
   8
LEVEL001
   6
CONTINUOUS
  62
7
  10
 249.000
  20
 108.000
  30
0.0
  11
 201.000
  21
 108.000
  31
0.0
   0
LINE
   8
LEVEL001
   6
CONTINUOUS
  62
7
  10
 249.000
  20
 110.000
  30
0.0
  11
 249.000
  21
 97.0000
  31
0.0
   0
LINE
   8
LEVEL001
   6
CONTINUOUS
  62
7
  10
 249.000
  20
 110.000
  30
0.0
  11
 284.869
  21
 110.000
  31
0.0
   0
LINE
   8
LEVEL001
   6
CONTINUOUS
  62
7
  10
 284.869
  20
 97.0000
  30
0.0
  11
 284.869
  21
 110.000
  31
0.0
   0
LINE
   8
LEVEL001
   6
CONTINUOUS
  62
7
  10
 290.500
  20
 118.000
  30
0.0
  11
 159.500
  21
 118.000
  31
0.0
   0
LINE
   8
LEVEL001
   6
CONTINUOUS
  62
7
  10
 155.500
  20
 97.0000
  30
0.0
  11
 294.500
  21
 97.0000
  31
0.0
   0
LINE
   8
LEVEL001
   6
CONTINUOUS
  62
7
  10
 159.775
  20
 97.0000
  30
0.0
  11
 159.775
  21
 108.000
  31
0.0
   0
LINE
   8
LEVEL001
   6
CONTINUOUS
  62
7
  10
 290.225
  20
 97.0000
  30
0.0
  11
 290.225
  21
 108.000
  31
0.0
   0
LINE
   8
LEVEL001
   6
CONTINUOUS
  62
7
  10
 284.869
  20
 108.000
  30
0.0
  11
 294.500
  21
 108.000
  31
0.0
   0
LINE
   8
LEVEL001
   6
CONTINUOUS
  62
7
  10
 165.131
  20
 108.000
  30
0.0
  11
 155.500
  21
 108.000
  31
0.0
   0
ARC
   8
LEVEL001
   6
CONTINUOUS
  62
7
  10
 217.500
  20
 283.019
  30
0.0
  40
 5.00000
  50
 270.000
  51
0.0
   0
ARC
   8
LEVEL001
   6
CONTINUOUS
  62
7
  10
 217.500
  20
 275.519
  30
0.0
  40
 2.50000
  50
 90.0000
  51
 180.000
   0
ARC
   8
LEVEL001
   6
CONTINUOUS
  62
7
  10
 232.500
  20
 283.019
  30
0.0
  40
 5.00000
  50
 180.000
  51
 270.000
   0
ARC
   8
LEVEL001
   6
CONTINUOUS
  62
7
  10
 232.500
  20
 275.519
  30
0.0
  40
 2.50000
  50
 0.260551E-11
  51
 90.0000
   0
ARC
   8
LEVEL001
   6
CONTINUOUS
  62
7
  10
 210.000
  20
 275.276
  30
0.0
  40
 5.00000
  50
 0.390827E-11
  51
 90.0000
   0
ARC
   8
LEVEL001
   6
CONTINUOUS
  62
7
  10
 240.000
  20
 275.276
  30
0.0
  40
 5.00000
  50
 90.0000
  51
 180.000
   0
LINE
   8
LEVEL001
   6
CONTINUOUS
  62
7
  10
 235.000
  20
 275.276
  30
0.0
  11
 235.000
  21
 157.143
  31
0.0
   0
LINE
   8
LEVEL001
   6
CONTINUOUS
  62
7
  10
 215.000
  20
 275.276
  30
0.0
  11
 215.000
  21
 156.719
  31
0.0
   0
ARC
   8
LEVEL001
   6
CONTINUOUS
  62
7
  10
 217.500
  20
 151.239
  30
0.0
  40
 5.00000
  50
0.0
  51
 90.0000
   0
ARC
   8
LEVEL001
   6
CONTINUOUS
  62
7
  10
 217.500
  20
 158.739
  30
0.0
  40
 2.50000
  50
 180.000
  51
 270.000
   0
ARC
   8
LEVEL001
   6
CONTINUOUS
  62
7
  10
 232.500
  20
 151.239
  30
0.0
  40
 5.00000
  50
 90.0000
  51
 180.000
   0
ARC
   8
LEVEL001
   6
CONTINUOUS
  62
7
  10
 232.500
  20
 158.739
  30
0.0
  40
 2.50000
  50
 270.000
  51
0.0
   0
CIRCLE
   8
LEVEL003
   6
CONTINUOUS
  62
7
  10
 763.218
  20
 58.3621
  30
0.0
  40
 7.77600
   0
LINE
   8
LEVEL003
   6
CONTINUOUS
  62
7
  10
 778.480
  20
 66.1381
  30
0.0
  11
 768.604
  21
 49.0309
  31
0.0
   0
LINE
   8
LEVEL003
   6
CONTINUOUS
  62
7
  10
 768.604
  20
 49.0309
  30
0.0
  11
 748.851
  21
 49.0309
  31
0.0
   0
LINE
   8
LEVEL003
   6
CONTINUOUS
  62
7
  10
 746.606
  20
 45.1429
  30
0.0
  11
 781.912
  21
 45.1429
  31
0.0
   0
LINE
   8
LEVEL003
   6
CONTINUOUS
  62
7
  10
 781.912
  20
 45.1429
  30
0.0
  11
 794.032
  21
 66.1381
  31
0.0
   0
LINE
   8
LEVEL003
   6
CONTINUOUS
  62
7
  10
 794.032
  20
 66.1381
  30
0.0
  11
 778.480
  21
 66.1381
  31
0.0
   0
LINE
   8
LEVEL003
   6
CONTINUOUS
  62
7
  10
 748.851
  20
 49.0309
  30
0.0
  11
 746.606
  21
 45.1429
  31
0.0
   0
TEXT
   8
LEVEL003
  62
7
  10
 803.950
  20
 40.7724
  30
0.0
  40
 19.4400
   1
ＯＳＡＫＡ ＪＡＣＫ
   7
STANDARD
   0
TEXT
   8
LEVEL003
  62
7
  10
 804.302
  20
 79.2960
  30
0.0
  40
 12.9600
   1
Model : ＪＪ－２５２５
   7
STANDARD
   0
ENDSEC
   0
EOF
