   0
SECTION
   2
HEADER
   9
$LIMMIN
  10
0.0
  20
0.0
   9
$LIMMAX
  10
 1050.00
  20
 743.000
   9
$EXTMIN
  10
0.0
  20
0.0
   9
$EXTMAX
  10
 1050.00
  20
 743.000
   9
$LTSCALE
  40
 21.0000
   0
ENDSEC
   0
SECTION
   2
TABLES
  0
TABLE
  2
LTYPE
 70
    25
  0
LTYPE
  2
CONTINUOUS
 70
    64
  3
Solid line
 72
    65
 73
     0
 40
0.0
  0
LTYPE
  2
BORDER
 70
    64
  3
__ __ . __ __ . __ __ . __ __ . __ __ . __ __ .
 72
    65
 73
     6
 40
1.75
 49
0.5
 49
-0.25
 49
0.5
 49
-0.25
 49
0.0
 49
-0.25
  0
LTYPE
  2
BORDER2
 70
    64
  3
__.__.__.__.__.__.__.__.__.__.__.__.__.__.__.__
 72
    65
 73
     6
 40
0.875
 49
0.25
 49
-0.125
 49
0.25
 49
-0.125
 49
0.0
 49
-0.125
  0
LTYPE
  2
BORDERX2
 70
    64
  3
____  ____  .  ____  ____  .  ____  ____  .  __
 72
    65
 73
     6
 40
3.5
 49
1.0
 49
-0.5
 49
1.0
 49
-0.5
 49
0.0
 49
-0.5
  0
LTYPE
  2
CENTER
 70
    64
  3
____ _ ____ _ ____ _ ____ _ ____ _ ____ _ ____ 
 72
    65
 73
     4
 40
2.0
 49
1.25
 49
-0.25
 49
0.25
 49
-0.25
  0
LTYPE
  2
CENTER2
 70
    64
  3
___ _ ___ _ ___ _ ___ _ ___ _ ___ _ ___ _ ___ _
 72
    65
 73
     4
 40
1.125
 49
0.75
 49
-0.125
 49
0.125
 49
-0.125
  0
LTYPE
  2
CENTERX2
 70
    64
  3
________  __  ________  __  ________  __  _____
 72
    65
 73
     4
 40
4.0
 49
2.5
 49
-0.5
 49
0.5
 49
-0.5
  0
LTYPE
  2
DASHDOT
 70
    64
  3
__ . __ . __ . __ . __ . __ . __ . __ . __ . __
 72
    65
 73
     4
 40
1.0
 49
0.5
 49
-0.25
 49
0.0
 49
-0.25
  0
LTYPE
  2
DASHDOT2
 70
    64
  3
_._._._._._._._._._._._._._._._._._._._._._._._
 72
    65
 73
     4
 40
0.5
 49
0.25
 49
-0.125
 49
0.0
 49
-0.125
  0
LTYPE
  2
DASHDOTX2
 70
    64
  3
____  .  ____  .  ____  .  ____  .  ____  .  __
 72
    65
 73
     4
 40
2.0
 49
1.0
 49
-0.5
 49
0.0
 49
-0.5
  0
LTYPE
  2
DASHED
 70
    64
  3
__ __ __ __ __ __ __ __ __ __ __ __ __ __ __ __
 72
    65
 73
     2
 40
0.75
 49
0.5
 49
-0.25
  0
LTYPE
  2
DASHED2
 70
    64
  3
_ _ _ _ _ _ _ _ _ _ _ _ _ _ _ _ _ _ _ _ _ _ _ _
 72
    65
 73
     2
 40
0.375
 49
0.25
 49
-0.125
  0
LTYPE
  2
DASHEDX2
 70
    64
  3
____  ____  ____  ____  ____  ____  ____  ____ 
 72
    65
 73
     2
 40
1.5
 49
1.0
 49
-0.5
  0
LTYPE
  2
DIVIDE
 70
    64
  3
____ . . ____ . . ____ . . ____ . . ____ . . __
 72
    65
 73
     6
 40
1.25
 49
0.5
 49
-0.25
 49
0.0
 49
-0.25
 49
0.0
 49
-0.25
  0
LTYPE
  2
DIVIDE2
 70
    64
  3
__..__..__..__..__..__..__..__..__..__..__..__.
 72
    65
 73
     6
 40
0.625
 49
0.25
 49
-0.125
 49
0.0
 49
-0.125
 49
0.0
 49
-0.125
  0
LTYPE
  2
DIVIDEX2
 70
    64
  3
________  .  .  ________  .  .  ________  .  . 
 72
    65
 73
     6
 40
2.5
 49
1.0
 49
-0.5
 49
0.0
 49
-0.5
 49
0.0
 49
-0.5
  0
LTYPE
  2
DOT
 70
    64
  3
. . . . . . . . . . . . . . . . . . . . . . . .
 72
    65
 73
     2
 40
0.25
 49
0.0
 49
-0.25
  0
LTYPE
  2
DOT2
 70
    64
  3
...............................................
 72
    65
 73
     2
 40
0.125
 49
0.0
 49
-0.125
  0
LTYPE
  2
DOTX2
 70
    64
  3
.  .  .  .  .  .  .  .  .  .  .  .  .  .  .  . 
 72
    65
 73
     2
 40
0.5
 49
0.0
 49
-0.5
  0
LTYPE
  2
HIDDEN
 70
    64
  3
__ __ __ __ __ __ __ __ __ __ __ __ __ __ __ __
 72
    65
 73
     2
 40
0.375
 49
0.25
 49
-0.125
  0
LTYPE
  2
HIDDEN2
 70
    64
  3
_ _ _ _ _ _ _ _ _ _ _ _ _ _ _ _ _ _ _ _ _ _ _ _
 72
    65
 73
     2
 40
0.1875
 49
0.125
 49
-0.0625
  0
LTYPE
  2
HIDDENX2
 70
    64
  3
____ ____ ____ ____ ____ ____ ____ ____ ____ __
 72
    65
 73
     2
 40
0.75
 49
0.5
 49
-0.25
  0
LTYPE
  2
PHANTOM
 70
    64
  3
______  __  __  ______  __  __  ______  __  __ 
 72
    65
 73
     6
 40
2.5
 49
1.25
 49
-0.25
 49
0.25
 49
-0.25
 49
0.25
 49
-0.25
  0
LTYPE
  2
PHANTOM2
 70
    64
  3
___ _ _ ___ _ _ ___ _ _ ___ _ _ ___ _ _ ___ _ _
 72
    65
 73
     6
 40
1.25
 49
0.625
 49
-0.125
 49
0.125
 49
-0.125
 49
0.125
 49
-0.125
  0
LTYPE
  2
PHANTOMX2
 70
    64
  3
____________    ____    ____    ____________   
 72
    65
 73
     6
 40
5.0
 49
2.5
 49
-0.5
 49
0.5
 49
-0.5
 49
0.5
 49
-0.5
  0
ENDTAB
  0
TABLE
  2
STYLE
 70
     2
  0
STYLE
  2
STANDARD
 70
0
 40
0.0
 41
1.0
 50
0.0
 71
0
 42
0.2
  3
TXT
  4
BIGFONT
  0
STYLE
  2
STANDARD1
 70
     4
 40
0.0
 41
1.0
 50
0.0
 71
     0
 42
0.2
  3
TXT
  4
BIGFONT
  0
ENDTAB
   0
TABLE
   2
LAYER
  70
7
   0
LAYER
   2
0
  70
0
  62
7
   6
CONTINUOUS
   0
LAYER
   2
LEVEL001
  70
0
  62
7
   6
CONTINUOUS
   0
LAYER
   2
LEVEL003
  70
0
  62
7
   6
CONTINUOUS
   0
LAYER
   2
LEVEL020
  70
0
  62
7
   6
CONTINUOUS
   0
LAYER
   2
LEVEL050
  70
0
  62
7
   6
CONTINUOUS
   0
LAYER
   2
LEVEL100
  70
0
  62
-7
   6
CONTINUOUS
   0
LAYER
   2
LEVEL110
  70
0
  62
7
   6
CONTINUOUS
   0
ENDTAB
   0
ENDSEC
   0
SECTION
   2
ENTITIES
   0
LINE
   8
LEVEL100
   6
CONTINUOUS
  62
7
  10
 778.125
  20
 160.000
  30
0.0
  11
 778.125
  21
 142.500
  31
0.0
   0
LINE
   8
LEVEL100
   6
CONTINUOUS
  62
7
  10
 853.125
  20
 160.000
  30
0.0
  11
 853.125
  21
 102.500
  31
0.0
   0
LINE
   8
LEVEL100
   6
CONTINUOUS
  62
7
  10
 903.125
  20
 160.000
  30
0.0
  11
 903.125
  21
 142.500
  31
0.0
   0
LINE
   8
LEVEL100
   6
CONTINUOUS
  62
7
  10
 923.125
  20
 160.000
  30
0.0
  11
 923.125
  21
 142.500
  31
0.0
   0
LINE
   8
LEVEL100
   6
CONTINUOUS
  62
7
  10
 951.875
  20
 160.000
  30
0.0
  11
 951.875
  21
 142.500
  31
0.0
   0
LINE
   8
LEVEL100
   6
CONTINUOUS
  62
7
  10
 829.375
  20
 142.500
  30
0.0
  11
 829.375
  21
 102.500
  31
0.0
   0
LINE
   8
LEVEL100
   6
CONTINUOUS
  62
7
  10
 788.125
  20
 66.2500
  30
0.0
  11
 800.625
  21
 78.7500
  31
0.0
   0
CIRCLE
   8
LEVEL100
   6
CONTINUOUS
  62
7
  10
 770.625
  20
 28.7500
  30
0.0
  40
 1.00000
   0
CIRCLE
   8
LEVEL100
   6
CONTINUOUS
  62
7
  10
 788.125
  20
 28.7500
  30
0.0
  40
 1.00000
   0
CIRCLE
   8
LEVEL100
   6
CONTINUOUS
  62
7
  10
 770.625
  20
 28.7500
  30
0.0
  40
 0.625000
   0
CIRCLE
   8
LEVEL100
   6
CONTINUOUS
  62
7
  10
 788.125
  20
 28.7500
  30
0.0
  40
 0.625000
   0
LINE
   8
LEVEL100
   6
CONTINUOUS
  62
7
  10
 865.000
  20
 38.7500
  30
0.0
  11
 865.000
  21
 41.2500
  31
0.0
   0
LINE
   8
LEVEL100
   6
CONTINUOUS
  62
7
  10
 865.000
  20
 41.2500
  30
0.0
  11
 872.500
  21
 41.2500
  31
0.0
   0
LINE
   8
LEVEL100
   6
CONTINUOUS
  62
7
  10
 872.500
  20
 41.2500
  30
0.0
  11
 872.500
  21
 38.7500
  31
0.0
   0
LINE
   8
LEVEL100
   6
CONTINUOUS
  62
7
  10
 872.500
  20
 38.7500
  30
0.0
  11
 865.000
  21
 38.7500
  31
0.0
   0
LINE
   8
LEVEL100
   6
CONTINUOUS
  62
7
  10
 753.125
  20
 25.0000
  30
0.0
  11
 753.125
  21
 160.000
  31
0.0
   0
LINE
   8
LEVEL100
   6
CONTINUOUS
  62
7
  10
 805.625
  20
 142.500
  30
0.0
  11
 805.625
  21
 25.0000
  31
0.0
   0
LINE
   8
LEVEL100
   6
CONTINUOUS
  62
7
  10
 753.125
  20
 82.5000
  30
0.0
  11
 805.625
  21
 82.5000
  31
0.0
   0
TEXT
   8
LEVEL100
  62
7
  10
 814.375
  20
 33.7500
  30
0.0
  40
 12.5000
   1
ＯＪ
  41
 0.700000
   7
STANDARD
   0
LINE
   8
LEVEL100
   6
CONTINUOUS
  62
7
  10
 753.125
  20
 142.500
  30
0.0
  11
 1020.38
  21
 142.500
  31
0.0
   0
LINE
   8
LEVEL100
   6
CONTINUOUS
  62
7
  10
 753.125
  20
 132.500
  30
0.0
  11
 1020.38
  21
 132.500
  31
0.0
   0
LINE
   8
LEVEL100
   6
CONTINUOUS
  62
7
  10
 753.125
  20
 160.000
  30
0.0
  11
 1020.38
  21
 160.000
  31
0.0
   0
LINE
   8
LEVEL100
   6
CONTINUOUS
  62
7
  10
 817.875
  20
 657.500
  30
0.0
  11
 817.875
  21
 720.000
  31
0.0
   0
LINE
   8
LEVEL100
   6
CONTINUOUS
  62
7
  10
 817.875
  20
 707.500
  30
0.0
  11
 1020.38
  21
 707.500
  31
0.0
   0
LINE
   8
LEVEL100
   6
CONTINUOUS
  62
7
  10
 817.875
  20
 695.000
  30
0.0
  11
 1020.38
  21
 695.000
  31
0.0
   0
LINE
   8
LEVEL100
   6
CONTINUOUS
  62
7
  10
 840.375
  20
 707.500
  30
0.0
  11
 840.375
  21
 695.000
  31
0.0
   0
LINE
   8
LEVEL100
   6
CONTINUOUS
  62
7
  10
 970.375
  20
 707.500
  30
0.0
  11
 970.375
  21
 695.000
  31
0.0
   0
LINE
   8
LEVEL100
   6
CONTINUOUS
  62
7
  10
 1000.38
  20
 707.500
  30
0.0
  11
 1000.38
  21
 695.000
  31
0.0
   0
LINE
   8
LEVEL100
   6
CONTINUOUS
  62
7
  10
 753.125
  20
 102.500
  30
0.0
  11
 1020.38
  21
 102.500
  31
0.0
   0
LINE
   8
LEVEL100
   6
CONTINUOUS
  62
7
  10
 753.125
  20
 62.5000
  30
0.0
  11
 1020.38
  21
 62.5000
  31
0.0
   0
LINE
   8
LEVEL100
   6
CONTINUOUS
  62
7
  10
 950.375
  20
 62.5000
  30
0.0
  11
 950.375
  21
 25.0000
  31
0.0
   0
LINE
   8
LEVEL100
   6
CONTINUOUS
  62
7
  10
 960.375
  20
 25.0000
  30
0.0
  11
 1002.88
  21
 50.0000
  31
0.0
   0
LINE
   8
LEVEL100
   6
CONTINUOUS
  62
7
  10
 62.5000
  20
 720.000
  30
0.0
  11
 1020.38
  21
 720.000
  31
0.0
   0
LINE
   8
LEVEL100
   6
CONTINUOUS
  62
7
  10
 1020.38
  20
 720.000
  30
0.0
  11
 1020.38
  21
 25.0000
  31
0.0
   0
LINE
   8
LEVEL100
   6
CONTINUOUS
  62
7
  10
 1020.38
  20
 25.0000
  30
0.0
  11
 62.5000
  21
 25.0000
  31
0.0
   0
LINE
   8
LEVEL100
   6
CONTINUOUS
  62
7
  10
 62.5000
  20
 698.000
  30
0.0
  11
 187.875
  21
 698.000
  31
0.0
   0
LINE
   8
LEVEL100
   6
CONTINUOUS
  62
7
  10
 187.875
  20
 698.000
  30
0.0
  11
 187.875
  21
 720.000
  31
0.0
   0
TEXT
   8
LEVEL100
  62
7
  10
 185.375
  20
 715.250
  30
0.0
  40
 12.5000
   1
ＯＪ．
  50
 180.000
  41
 0.900000
   7
STANDARD
   0
LINE
   8
LEVEL100
   6
CONTINUOUS
  62
7
  10
 142.875
  20
 710.250
  30
0.0
  11
 135.375
  21
 710.250
  31
0.0
   0
LINE
   8
LEVEL100
   6
CONTINUOUS
  62
7
  10
 135.375
  20
 710.250
  30
0.0
  11
 135.375
  21
 707.750
  31
0.0
   0
LINE
   8
LEVEL100
   6
CONTINUOUS
  62
7
  10
 135.375
  20
 707.750
  30
0.0
  11
 142.875
  21
 707.750
  31
0.0
   0
LINE
   8
LEVEL100
   6
CONTINUOUS
  62
7
  10
 142.875
  20
 707.750
  30
0.0
  11
 142.875
  21
 710.250
  31
0.0
   0
TEXT
   8
LEVEL100
  62
7
  10
 780.625
  20
 145.000
  30
0.0
  40
 10.0000
   1
Ｓ．ＩＭＡＮＩＳＨＩ
  41
 0.625000
   7
STANDARD
   0
LINE
   8
LEVEL001
   6
CONTINUOUS
  62
7
  10
 520.500
  20
 72.0000
  30
0.0
  11
 520.500
  21
 83.0000
  31
0.0
   0
ARC
   8
LEVEL001
   6
CONTINUOUS
  62
7
  10
 522.500
  20
 96.0000
  30
0.0
  40
 3.00000
  50
 311.811
  51
 0.128215E-3
   0
LINE
   8
LEVEL001
   6
CONTINUOUS
  62
7
  10
 524.500
  20
 83.0000
  30
0.0
  11
 524.500
  21
 93.7639
  31
0.0
   0
ARC
   8
LEVEL001
   6
CONTINUOUS
  62
7
  10
 529.500
  20
 63.0000
  30
0.0
  40
 3.00000
  50
 180.000
  51
 270.000
   0
LINE
   8
LEVEL001
   6
CONTINUOUS
  62
7
  10
 526.500
  20
 72.0000
  30
0.0
  11
 526.500
  21
 63.0000
  31
0.0
   0
LINE
   8
LEVEL001
   6
CONTINUOUS
  62
7
  10
 659.500
  20
 72.0000
  30
0.0
  11
 659.500
  21
 83.0000
  31
0.0
   0
ARC
   8
LEVEL001
   6
CONTINUOUS
  62
7
  10
 657.500
  20
 96.0001
  30
0.0
  40
 3.00000
  50
 180.001
  51
 228.191
   0
LINE
   8
LEVEL001
   6
CONTINUOUS
  62
7
  10
 655.500
  20
 83.0000
  30
0.0
  11
 655.500
  21
 93.7639
  31
0.0
   0
ARC
   8
LEVEL001
   6
CONTINUOUS
  62
7
  10
 650.500
  20
 63.0000
  30
0.0
  40
 3.00000
  50
 270.001
  51
0.0
   0
LINE
   8
LEVEL001
   6
CONTINUOUS
  62
7
  10
 653.500
  20
 72.0000
  30
0.0
  11
 653.500
  21
 63.0000
  31
0.0
   0
LINE
   8
LEVEL001
   6
CONTINUOUS
  62
7
  10
 650.500
  20
 60.0000
  30
0.0
  11
 529.500
  21
 60.0000
  31
0.0
   0
LINE
   8
LEVEL001
   6
CONTINUOUS
  62
7
  10
 649.869
  20
 72.0000
  30
0.0
  11
 649.869
  21
 83.0000
  31
0.0
   0
LINE
   8
LEVEL001
   6
CONTINUOUS
  62
7
  10
 530.131
  20
 83.0000
  30
0.0
  11
 520.500
  21
 83.0000
  31
0.0
   0
LINE
   8
LEVEL001
   6
CONTINUOUS
  62
7
  10
 659.500
  20
 83.0000
  30
0.0
  11
 649.869
  21
 83.0000
  31
0.0
   0
LINE
   8
LEVEL001
   6
CONTINUOUS
  62
7
  10
 524.775
  20
 72.0000
  30
0.0
  11
 524.775
  21
 83.0000
  31
0.0
   0
LINE
   8
LEVEL001
   6
CONTINUOUS
  62
7
  10
 655.225
  20
 72.0000
  30
0.0
  11
 655.225
  21
 83.0000
  31
0.0
   0
LINE
   8
LEVEL001
   6
CONTINUOUS
  62
7
  10
 530.131
  20
 72.0000
  30
0.0
  11
 530.131
  21
 85.0000
  31
0.0
   0
LINE
   8
LEVEL001
   6
CONTINUOUS
  62
7
  10
 649.869
  20
 72.0000
  30
0.0
  11
 649.869
  21
 85.0000
  31
0.0
   0
CIRCLE
   8
LEVEL001
   6
CONTINUOUS
  62
7
  10
 590.000
  20
 148.000
  30
0.0
  40
 11.0000
   0
LINE
   8
LEVEL001
   6
CONTINUOUS
  62
7
  10
 591.000
  20
 159.000
  30
0.0
  11
 591.000
  21
 162.600
  31
0.0
   0
CIRCLE
   8
LEVEL001
   6
CONTINUOUS
  62
7
  10
 593.000
  20
 160.600
  30
0.0
  40
 1.00000
   0
ARC
   8
LEVEL001
   6
CONTINUOUS
  62
7
  10
 597.000
  20
 159.462
  30
0.0
  40
 2.00000
  50
 180.001
  51
 240.580
   0
ARC
   8
LEVEL001
   6
CONTINUOUS
  62
7
  10
 593.000
  20
 160.600
  30
0.0
  40
 2.00000
  50
 0.328703E-3
  51
 90.0002
   0
LINE
   8
LEVEL001
   6
CONTINUOUS
  62
7
  10
 591.000
  20
 162.600
  30
0.0
  11
 593.000
  21
 162.600
  31
0.0
   0
LINE
   8
LEVEL001
   6
CONTINUOUS
  62
7
  10
 595.000
  20
 160.600
  30
0.0
  11
 595.000
  21
 159.462
  31
0.0
   0
LINE
   8
LEVEL001
   6
CONTINUOUS
  62
7
  10
 589.000
  20
 159.000
  30
0.0
  11
 589.000
  21
 162.600
  31
0.0
   0
CIRCLE
   8
LEVEL001
   6
CONTINUOUS
  62
7
  10
 587.000
  20
 160.600
  30
0.0
  40
 1.00000
   0
ARC
   8
LEVEL001
   6
CONTINUOUS
  62
7
  10
 583.000
  20
 159.462
  30
0.0
  40
 2.00000
  50
 299.420
  51
0.0
   0
ARC
   8
LEVEL001
   6
CONTINUOUS
  62
7
  10
 587.000
  20
 160.600
  30
0.0
  40
 2.00000
  50
 89.9998
  51
 180.000
   0
LINE
   8
LEVEL001
   6
CONTINUOUS
  62
7
  10
 589.000
  20
 162.600
  30
0.0
  11
 587.000
  21
 162.600
  31
0.0
   0
LINE
   8
LEVEL001
   6
CONTINUOUS
  62
7
  10
 585.000
  20
 160.600
  30
0.0
  11
 585.000
  21
 159.462
  31
0.0
   0
ARC
   8
LEVEL001
   6
CONTINUOUS
  62
7
  10
 590.000
  20
 147.050
  30
0.0
  40
 12.2500
  50
 119.421
  51
 60.5785
   0
CIRCLE
   8
LEVEL001
   6
CONTINUOUS
  62
7
  10
 590.000
  20
 148.000
  30
0.0
  40
 17.5000
   0
ARC
   8
LEVEL001
   6
CONTINUOUS
  62
7
  10
 585.500
  20
 195.789
  30
0.0
  40
 2.00000
  50
 275.379
  51
 0.766201E-4
   0
ARC
   8
LEVEL001
   6
CONTINUOUS
  62
7
  10
 594.500
  20
 195.789
  30
0.0
  40
 2.00000
  50
 180.000
  51
 264.621
   0
ARC
   8
LEVEL001
   6
CONTINUOUS
  62
7
  10
 546.231
  20
 152.500
  30
0.0
  40
 2.00000
  50
 174.130
  51
 269.999
   0
ARC
   8
LEVEL001
   6
CONTINUOUS
  62
7
  10
 633.769
  20
 152.500
  30
0.0
  40
 2.00000
  50
 270.001
  51
 5.87024
   0
ARC
   8
LEVEL001
   6
CONTINUOUS
  62
7
  10
 554.239
  20
 152.142
  30
0.0
  40
 8.00000
  50
 272.001
  51
 353.393
   0
ARC
   8
LEVEL001
   6
CONTINUOUS
  62
7
  10
 537.000
  20
 142.534
  30
0.0
  40
 1.00000
  50
 91.9990
  51
 180.002
   0
ARC
   8
LEVEL001
   6
CONTINUOUS
  62
7
  10
 537.000
  20
 102.466
  30
0.0
  40
 1.00000
  50
 180.000
  51
 268.001
   0
LINE
   8
LEVEL001
   6
CONTINUOUS
  62
7
  10
 536.000
  20
 102.466
  30
0.0
  11
 536.000
  21
 142.534
  31
0.0
   0
LINE
   8
LEVEL001
   6
CONTINUOUS
  62
7
  10
 536.965
  20
 143.534
  30
0.0
  11
 554.518
  21
 144.147
  31
0.0
   0
ARC
   8
LEVEL001
   6
CONTINUOUS
  62
7
  10
 643.000
  20
 102.466
  30
0.0
  40
 1.00000
  50
 271.999
  51
 0.114398E-3
   0
LINE
   8
LEVEL001
   6
CONTINUOUS
  62
7
  10
 644.000
  20
 102.466
  30
0.0
  11
 644.000
  21
 142.534
  31
0.0
   0
ARC
   8
LEVEL001
   6
CONTINUOUS
  62
7
  10
 643.000
  20
 142.534
  30
0.0
  40
 1.00000
  50
 359.998
  51
 88.0010
   0
LINE
   8
LEVEL001
   6
CONTINUOUS
  62
7
  10
 643.035
  20
 143.534
  30
0.0
  11
 625.482
  21
 144.147
  31
0.0
   0
ARC
   8
LEVEL001
   6
CONTINUOUS
  62
7
  10
 625.761
  20
 152.142
  30
0.0
  40
 8.00000
  50
 186.607
  51
 267.999
   0
ARC
   8
LEVEL001
   6
CONTINUOUS
  62
7
  10
 590.000
  20
 148.000
  30
0.0
  40
 28.0000
  50
 6.60600
  51
 173.394
   0
CIRCLE
   8
LEVEL001
   6
CONTINUOUS
  62
7
  10
 592.500
  20
 84.0000
  30
0.0
  40
 5.00000
   0
ARC
   8
LEVEL001
   6
CONTINUOUS
  62
7
  10
 561.388
  20
 83.6031
  30
0.0
  40
 5.00000
  50
 187.724
  51
 268.000
   0
ARC
   8
LEVEL001
   6
CONTINUOUS
  62
7
  10
 551.367
  20
 97.9615
  30
0.0
  40
 3.00000
  50
 7.72403
  51
 88.0000
   0
LINE
   8
LEVEL001
   6
CONTINUOUS
  62
7
  10
 556.433
  20
 82.9310
  30
0.0
  11
 554.340
  21
 98.3648
  31
0.0
   0
LINE
   8
LEVEL001
   6
CONTINUOUS
  62
7
  10
 524.500
  20
 93.7639
  30
0.0
  11
 554.964
  21
 93.7639
  31
0.0
   0
LINE
   8
LEVEL001
   6
CONTINUOUS
  62
7
  10
 530.131
  20
 85.0000
  30
0.0
  11
 556.153
  21
 85.0000
  31
0.0
   0
LINE
   8
LEVEL001
   6
DASHDOT
  62
1
  10
 585.000
  20
 84.0000
  30
0.0
  11
 600.000
  21
 84.0000
  31
0.0
   0
ARC
   8
LEVEL001
   6
CONTINUOUS
  62
7
  10
 535.000
  20
 108.750
  30
0.0
  40
 1.00000
  50
 180.000
  51
 269.999
   0
ARC
   8
LEVEL001
   6
CONTINUOUS
  62
7
  10
 658.000
  20
 108.750
  30
0.0
  40
 1.00000
  50
 270.001
  51
 0.217721E-3
   0
ARC
   8
LEVEL001
   6
CONTINUOUS
  62
7
  10
 658.000
  20
 136.250
  30
0.0
  40
 1.00000
  50
0.0
  51
 89.9991
   0
LINE
   8
LEVEL001
   6
CONTINUOUS
  62
7
  10
 659.000
  20
 108.750
  30
0.0
  11
 659.000
  21
 136.250
  31
0.0
   0
ARC
   8
LEVEL001
   6
CONTINUOUS
  62
7
  10
 535.000
  20
 136.250
  30
0.0
  40
 1.00000
  50
 90.0009
  51
 180.000
   0
LINE
   8
LEVEL001
   6
CONTINUOUS
  62
7
  10
 534.000
  20
 108.750
  30
0.0
  11
 534.000
  21
 136.250
  31
0.0
   0
LINE
   8
LEVEL001
   6
DASHDOT
  62
1
  10
 530.000
  20
 122.500
  30
0.0
  11
 665.000
  21
 122.500
  31
0.0
   0
LINE
   8
LEVEL001
   6
CONTINUOUS
  62
7
  10
 535.000
  20
 107.750
  30
0.0
  11
 536.000
  21
 107.750
  31
0.0
   0
LINE
   8
LEVEL001
   6
CONTINUOUS
  62
7
  10
 644.000
  20
 107.750
  30
0.0
  11
 658.000
  21
 107.750
  31
0.0
   0
LINE
   8
LEVEL001
   6
CONTINUOUS
  62
7
  10
 535.000
  20
 137.250
  30
0.0
  11
 536.000
  21
 137.250
  31
0.0
   0
LINE
   8
LEVEL001
   6
CONTINUOUS
  62
7
  10
 644.000
  20
 137.250
  30
0.0
  11
 658.000
  21
 137.250
  31
0.0
   0
LINE
   8
LEVEL001
   6
CONTINUOUS
  62
7
  10
 654.500
  20
 96.0000
  30
0.0
  11
 654.500
  21
 107.750
  31
0.0
   0
LINE
   8
LEVEL001
   6
CONTINUOUS
  62
7
  10
 537.500
  20
 143.552
  30
0.0
  11
 537.500
  21
 144.953
  31
0.0
   0
ARC
   8
LEVEL001
   6
CONTINUOUS
  62
7
  10
 554.239
  20
 152.142
  30
0.0
  40
 6.60000
  50
 272.000
  51
 353.394
   0
LINE
   8
LEVEL001
   6
CONTINUOUS
  62
7
  10
 537.500
  20
 144.953
  30
0.0
  11
 554.469
  21
 145.546
  31
0.0
   0
LINE
   8
LEVEL001
   6
CONTINUOUS
  62
7
  10
 546.231
  20
 150.500
  30
0.0
  11
 560.632
  21
 150.500
  31
0.0
   0
LINE
   8
LEVEL001
   6
DASHDOT
  62
1
  10
 545.356
  20
 135.012
  30
0.0
  11
 544.794
  21
 151.108
  31
0.0
   0
LINE
   8
LEVEL001
   6
CONTINUOUS
  62
7
  10
 544.455
  20
 146.497
  30
0.0
  11
 545.454
  21
 146.532
  31
0.0
   0
LINE
   8
LEVEL001
   6
CONTINUOUS
  62
7
  10
 544.455
  20
 146.497
  30
0.0
  11
 544.382
  21
 148.572
  31
0.0
   0
LINE
   8
LEVEL001
   6
CONTINUOUS
  62
7
  10
 545.454
  20
 146.532
  30
0.0
  11
 545.382
  21
 148.607
  31
0.0
   0
ARC
   8
LEVEL001
   6
CONTINUOUS
  62
7
  10
 590.000
  20
 148.000
  30
0.0
  40
 46.0000
  50
 95.3794
  51
 179.365
   0
ARC
   8
LEVEL001
   6
CONTINUOUS
  62
7
  10
 543.505
  20
 145.036
  30
0.0
  40
 3.00000
  50
 130.681
  51
 179.583
   0
ARC
   8
LEVEL001
   6
CONTINUOUS
  62
7
  10
 546.504
  20
 145.141
  30
0.0
  40
 3.00000
  50
 4.41705
  51
 53.3159
   0
ARC
   8
LEVEL001
   6
CONTINUOUS
  62
7
  10
 545.070
  20
 143.216
  30
0.0
  40
 5.40000
  50
 53.3164
  51
 86.6873
   0
ARC
   8
LEVEL001
   6
CONTINUOUS
  62
7
  10
 545.070
  20
 143.216
  30
0.0
  40
 5.40000
  50
 97.3129
  51
 130.681
   0
LINE
   8
LEVEL001
   6
DASHDOT
  62
1
  10
 567.500
  20
 148.000
  30
0.0
  11
 612.500
  21
 148.000
  31
0.0
   0
LINE
   8
LEVEL001
   6
CONTINUOUS
  62
7
  10
 642.500
  20
 143.552
  30
0.0
  11
 642.500
  21
 144.953
  31
0.0
   0
LINE
   8
LEVEL001
   6
CONTINUOUS
  62
7
  10
 642.500
  20
 144.953
  30
0.0
  11
 625.531
  21
 145.546
  31
0.0
   0
ARC
   8
LEVEL001
   6
CONTINUOUS
  62
7
  10
 634.930
  20
 143.216
  30
0.0
  40
 5.40000
  50
 49.3186
  51
 82.6871
   0
ARC
   8
LEVEL001
   6
CONTINUOUS
  62
7
  10
 636.495
  20
 145.036
  30
0.0
  40
 3.00000
  50
 0.417217
  51
 49.3202
   0
LINE
   8
LEVEL001
   6
CONTINUOUS
  62
7
  10
 635.545
  20
 146.497
  30
0.0
  11
 635.618
  21
 148.572
  31
0.0
   0
LINE
   8
LEVEL001
   6
DASHDOT
  62
1
  10
 634.644
  20
 135.012
  30
0.0
  11
 635.206
  21
 151.108
  31
0.0
   0
LINE
   8
LEVEL001
   6
CONTINUOUS
  62
7
  10
 634.546
  20
 146.532
  30
0.0
  11
 634.618
  21
 148.607
  31
0.0
   0
LINE
   8
LEVEL001
   6
CONTINUOUS
  62
7
  10
 635.545
  20
 146.497
  30
0.0
  11
 634.546
  21
 146.532
  31
0.0
   0
ARC
   8
LEVEL001
   6
CONTINUOUS
  62
7
  10
 633.496
  20
 145.141
  30
0.0
  40
 3.00000
  50
 126.683
  51
 175.582
   0
ARC
   8
LEVEL001
   6
CONTINUOUS
  62
7
  10
 634.930
  20
 143.216
  30
0.0
  40
 5.40000
  50
 93.3132
  51
 126.684
   0
ARC
   8
LEVEL001
   6
CONTINUOUS
  62
7
  10
 625.761
  20
 152.142
  30
0.0
  40
 6.60000
  50
 186.606
  51
 268.000
   0
ARC
   8
LEVEL001
   6
CONTINUOUS
  62
7
  10
 590.000
  20
 148.000
  30
0.0
  40
 29.4000
  50
 6.60634
  51
 173.394
   0
ARC
   8
LEVEL001
   6
CONTINUOUS
  62
7
  10
 590.000
  20
 148.000
  30
0.0
  40
 46.0000
  50
 0.635162
  51
 84.6206
   0
LINE
   8
LEVEL001
   6
CONTINUOUS
  62
7
  10
 619.368
  20
 150.500
  30
0.0
  11
 633.769
  21
 150.500
  31
0.0
   0
ARC
   8
LEVEL001
   6
CONTINUOUS
  62
7
  10
 592.500
  20
 158.000
  30
0.0
  40
 84.0000
  50
 255.696
  51
 284.304
   0
ARC
   8
LEVEL001
   6
CONTINUOUS
  62
7
  10
 571.500
  20
 77.6350
  30
0.0
  40
 1.00000
  50
 270.001
  51
 0.217718E-3
   0
ARC
   8
LEVEL001
   6
CONTINUOUS
  62
7
  10
 613.500
  20
 75.6350
  30
0.0
  40
 1.00000
  50
0.0
  51
 104.304
   0
ARC
   8
LEVEL001
   6
CONTINUOUS
  62
7
  10
 613.500
  20
 77.6350
  30
0.0
  40
 1.00000
  50
 180.000
  51
 269.999
   0
ARC
   8
LEVEL001
   6
CONTINUOUS
  62
7
  10
 613.500
  20
 67.7006
  30
0.0
  40
 1.00000
  50
 284.653
  51
 359.998
   0
ARC
   8
LEVEL001
   6
CONTINUOUS
  62
7
  10
 592.500
  20
 148.000
  30
0.0
  40
 84.0000
  50
 255.344
  51
 284.656
   0
LINE
   8
LEVEL001
   6
CONTINUOUS
  62
7
  10
 614.500
  20
 67.7006
  30
0.0
  11
 614.500
  21
 75.6350
  31
0.0
   0
LINE
   8
LEVEL001
   6
CONTINUOUS
  62
7
  10
 570.500
  20
 67.7006
  30
0.0
  11
 570.500
  21
 75.6350
  31
0.0
   0
ARC
   8
LEVEL001
   6
CONTINUOUS
  62
7
  10
 571.500
  20
 67.7006
  30
0.0
  40
 1.00000
  50
 180.002
  51
 255.347
   0
ARC
   8
LEVEL001
   6
CONTINUOUS
  62
7
  10
 571.500
  20
 75.6350
  30
0.0
  40
 1.00000
  50
 89.9987
  51
 180.000
   0
ARC
   8
LEVEL001
   6
CONTINUOUS
  62
7
  10
 565.500
  20
 73.4534
  30
0.0
  40
 5.00000
  50
0.0
  51
 87.9997
   0
LINE
   8
LEVEL001
   6
CONTINUOUS
  62
7
  10
 561.213
  20
 78.6061
  30
0.0
  11
 565.675
  21
 78.4503
  31
0.0
   0
LINE
   8
LEVEL001
   6
CONTINUOUS
  62
7
  10
 570.500
  20
 72.0000
  30
0.0
  11
 520.500
  21
 72.0000
  31
0.0
   0
LINE
   8
LEVEL001
   6
CONTINUOUS
  62
7
  10
 566.000
  20
 72.0000
  30
0.0
  11
 566.000
  21
 78.4283
  31
0.0
   0
ARC
   8
LEVEL001
   6
CONTINUOUS
  62
7
  10
 569.500
  20
 97.3283
  30
0.0
  40
 3.00000
  50
 0.271407E-11
  51
 87.9996
   0
LINE
   8
LEVEL001
   6
CONTINUOUS
  62
7
  10
 536.965
  20
 101.466
  30
0.0
  11
 569.605
  21
 100.327
  31
0.0
   0
ARC
   8
LEVEL001
   6
CONTINUOUS
  62
7
  10
 615.500
  20
 97.5029
  30
0.0
  40
 3.00000
  50
 91.9997
  51
 180.000
   0
LINE
   8
LEVEL001
   6
CONTINUOUS
  62
7
  10
 643.035
  20
 101.466
  30
0.0
  11
 615.395
  21
 100.501
  31
0.0
   0
ARC
   8
LEVEL001
   6
CONTINUOUS
  62
7
  10
 648.418
  20
 66.8758
  30
0.0
  40
 35.0000
  50
 98.6562
  51
 165.918
   0
LINE
   8
LEVEL001
   6
CONTINUOUS
  62
7
  10
 626.012
  20
 93.7639
  30
0.0
  11
 655.500
  21
 93.7639
  31
0.0
   0
LINE
   8
LEVEL001
   6
CONTINUOUS
  62
7
  10
 618.476
  20
 85.0000
  30
0.0
  11
 649.869
  21
 85.0000
  31
0.0
   0
LINE
   8
LEVEL001
   6
CONTINUOUS
  62
7
  10
 659.500
  20
 72.0000
  30
0.0
  11
 614.500
  21
 72.0000
  31
0.0
   0
LINE
   8
LEVEL001
   6
DASHDOT
  62
1
  10
 592.500
  20
 60.0000
  30
0.0
  11
 592.500
  21
 122.500
  31
0.0
   0
ARC
   8
LEVEL001
   6
CONTINUOUS
  62
7
  10
 554.500
  20
 542.000
  30
0.0
  40
 3.00000
  50
 90.0001
  51
 180.001
   0
LINE
   8
LEVEL001
   6
CONTINUOUS
  62
7
  10
 551.500
  20
 530.000
  30
0.0
  11
 551.500
  21
 542.000
  31
0.0
   0
ARC
   8
LEVEL001
   6
CONTINUOUS
  62
7
  10
 625.500
  20
 542.000
  30
0.0
  40
 3.00000
  50
0.0
  51
 89.9999
   0
LINE
   8
LEVEL001
   6
CONTINUOUS
  62
7
  10
 628.500
  20
 530.000
  30
0.0
  11
 628.500
  21
 542.000
  31
0.0
   0
LINE
   8
LEVEL001
   6
CONTINUOUS
  62
7
  10
 625.500
  20
 545.000
  30
0.0
  11
 554.500
  21
 545.000
  31
0.0
   0
LINE
   8
LEVEL001
   6
CONTINUOUS
  62
7
  10
 632.500
  20
 530.000
  30
0.0
  11
 547.500
  21
 530.000
  31
0.0
   0
LINE
   8
LEVEL001
   6
DASHDOT
  62
1
  10
 590.000
  20
 52.5000
  30
0.0
  11
 590.000
  21
 552.500
  31
0.0
   0
ARC
   8
LEVEL001
   6
CONTINUOUS
  62
7
  10
 577.000
  20
 526.000
  30
0.0
  40
 2.00000
  50
 89.9998
  51
 180.001
   0
ARC
   8
LEVEL001
   6
CONTINUOUS
  62
7
  10
 603.000
  20
 526.000
  30
0.0
  40
 2.00000
  50
 359.999
  51
 90.0002
   0
LINE
   8
LEVEL001
   6
CONTINUOUS
  62
7
  10
 577.000
  20
 528.000
  30
0.0
  11
 603.000
  21
 528.000
  31
0.0
   0
LINE
   8
LEVEL001
   6
CONTINUOUS
  62
7
  10
 590.000
  20
 520.887
  30
0.0
  11
 592.500
  21
 519.443
  31
0.0
   0
LINE
   8
LEVEL001
   6
CONTINUOUS
  62
7
  10
 592.500
  20
 519.443
  30
0.0
  11
 592.500
  21
 516.557
  31
0.0
   0
LINE
   8
LEVEL001
   6
CONTINUOUS
  62
7
  10
 592.500
  20
 516.557
  30
0.0
  11
 590.000
  21
 515.113
  31
0.0
   0
LINE
   8
LEVEL001
   6
CONTINUOUS
  62
7
  10
 590.000
  20
 515.113
  30
0.0
  11
 587.500
  21
 516.557
  31
0.0
   0
LINE
   8
LEVEL001
   6
CONTINUOUS
  62
7
  10
 587.500
  20
 516.557
  30
0.0
  11
 587.500
  21
 519.443
  31
0.0
   0
LINE
   8
LEVEL001
   6
CONTINUOUS
  62
7
  10
 587.500
  20
 519.443
  30
0.0
  11
 590.000
  21
 520.887
  31
0.0
   0
CIRCLE
   8
LEVEL001
   6
CONTINUOUS
  62
7
  10
 590.000
  20
 518.000
  30
0.0
  40
 5.00000
   0
CIRCLE
   8
LEVEL001
   6
CONTINUOUS
  62
7
  10
 590.000
  20
 518.000
  30
0.0
  40
 4.48038
   0
LINE
   8
LEVEL001
   6
DASHDOT
  62
1
  10
 598.000
  20
 518.000
  30
0.0
  11
 582.000
  21
 518.000
  31
0.0
   0
ARC
   8
LEVEL001
   6
CONTINUOUS
  62
7
  10
 577.000
  20
 472.000
  30
0.0
  40
 2.00000
  50
 180.000
  51
 270.000
   0
ARC
   8
LEVEL001
   6
CONTINUOUS
  62
7
  10
 603.000
  20
 472.000
  30
0.0
  40
 2.00000
  50
 270.000
  51
 0.217713E-3
   0
LINE
   8
LEVEL001
   6
CONTINUOUS
  62
7
  10
 577.000
  20
 470.000
  30
0.0
  11
 603.000
  21
 470.000
  31
0.0
   0
LINE
   8
LEVEL001
   6
CONTINUOUS
  62
7
  10
 605.000
  20
 526.000
  30
0.0
  11
 605.000
  21
 472.000
  31
0.0
   0
ARC
   8
LEVEL001
   6
CONTINUOUS
  62
7
  10
 585.500
  20
 468.000
  30
0.0
  40
 2.00000
  50
0.0
  51
 90.0002
   0
ARC
   8
LEVEL001
   6
CONTINUOUS
  62
7
  10
 594.500
  20
 468.000
  30
0.0
  40
 2.00000
  50
 89.9998
  51
 180.000
   0
LINE
   8
LEVEL001
   6
CONTINUOUS
  62
7
  10
 590.000
  20
 484.887
  30
0.0
  11
 592.500
  21
 483.443
  31
0.0
   0
LINE
   8
LEVEL001
   6
CONTINUOUS
  62
7
  10
 592.500
  20
 483.443
  30
0.0
  11
 592.500
  21
 480.557
  31
0.0
   0
LINE
   8
LEVEL001
   6
CONTINUOUS
  62
7
  10
 592.500
  20
 480.557
  30
0.0
  11
 590.000
  21
 479.113
  31
0.0
   0
LINE
   8
LEVEL001
   6
CONTINUOUS
  62
7
  10
 590.000
  20
 479.113
  30
0.0
  11
 587.500
  21
 480.557
  31
0.0
   0
LINE
   8
LEVEL001
   6
CONTINUOUS
  62
7
  10
 587.500
  20
 480.557
  30
0.0
  11
 587.500
  21
 483.443
  31
0.0
   0
LINE
   8
LEVEL001
   6
CONTINUOUS
  62
7
  10
 587.500
  20
 483.443
  30
0.0
  11
 590.000
  21
 484.887
  31
0.0
   0
CIRCLE
   8
LEVEL001
   6
CONTINUOUS
  62
7
  10
 590.000
  20
 482.000
  30
0.0
  40
 5.00000
   0
CIRCLE
   8
LEVEL001
   6
CONTINUOUS
  62
7
  10
 590.000
  20
 482.000
  30
0.0
  40
 4.48038
   0
LINE
   8
LEVEL001
   6
DASHDOT
  62
1
  10
 598.000
  20
 482.000
  30
0.0
  11
 582.000
  21
 482.000
  31
0.0
   0
LINE
   8
LEVEL001
   6
CONTINUOUS
  62
7
  10
 587.500
  20
 177.294
  30
0.0
  11
 587.500
  21
 468.000
  31
0.0
   0
LINE
   8
LEVEL001
   6
CONTINUOUS
  62
7
  10
 592.500
  20
 177.294
  30
0.0
  11
 592.500
  21
 468.000
  31
0.0
   0
ARC
   8
LEVEL001
   6
CONTINUOUS
  62
7
  10
 547.500
  20
 528.000
  30
0.0
  40
 2.00000
  50
 89.9998
  51
 179.999
   0
LINE
   8
LEVEL001
   6
CONTINUOUS
  62
7
  10
 545.500
  20
 528.000
  30
0.0
  11
 545.500
  21
 507.000
  31
0.0
   0
ARC
   8
LEVEL001
   6
CONTINUOUS
  62
7
  10
 544.952
  20
 503.916
  30
0.0
  40
 2.00000
  50
 359.234
  51
 50.4358
   0
ARC
   8
LEVEL001
   6
CONTINUOUS
  62
7
  10
 547.500
  20
 507.000
  30
0.0
  40
 2.00000
  50
 180.000
  51
 230.436
   0
ARC
   8
LEVEL001
   6
CONTINUOUS
  62
7
  10
 573.000
  20
 503.000
  30
0.0
  40
 2.00000
  50
0.0
  51
 90.0002
   0
LINE
   8
LEVEL001
   6
CONTINUOUS
  62
7
  10
 547.500
  20
 505.000
  30
0.0
  11
 573.000
  21
 505.000
  31
0.0
   0
LINE
   8
LEVEL001
   6
CONTINUOUS
  62
7
  10
 575.000
  20
 526.000
  30
0.0
  11
 575.000
  21
 472.000
  31
0.0
   0
LINE
   8
LEVEL001
   6
CONTINUOUS
  62
7
  10
 637.165
  20
 195.580
  30
0.0
  11
 633.048
  21
 503.890
  31
0.0
   0
ARC
   8
LEVEL001
   6
CONTINUOUS
  62
7
  10
 632.500
  20
 528.000
  30
0.0
  40
 2.00000
  50
 0.875118E-3
  51
 90.0002
   0
LINE
   8
LEVEL001
   6
CONTINUOUS
  62
7
  10
 634.500
  20
 528.000
  30
0.0
  11
 634.500
  21
 507.000
  31
0.0
   0
ARC
   8
LEVEL001
   6
CONTINUOUS
  62
7
  10
 635.048
  20
 503.916
  30
0.0
  40
 2.00000
  50
 129.564
  51
 180.766
   0
ARC
   8
LEVEL001
   6
CONTINUOUS
  62
7
  10
 632.500
  20
 507.000
  30
0.0
  40
 2.00000
  50
 309.564
  51
0.0
   0
ARC
   8
LEVEL001
   6
CONTINUOUS
  62
7
  10
 607.000
  20
 503.000
  30
0.0
  40
 2.00000
  50
 89.9998
  51
 180.000
   0
LINE
   8
LEVEL001
   6
CONTINUOUS
  62
7
  10
 632.500
  20
 505.000
  30
0.0
  11
 607.000
  21
 505.000
  31
0.0
   0
ARC
   8
LEVEL001
   6
CONTINUOUS
  62
7
  10
 697.159
  20
 196.381
  30
0.0
  40
 60.0000
  50
 180.765
  51
 210.602
   0
ARC
   8
LEVEL001
   6
CONTINUOUS
  62
7
  10
 590.000
  20
 133.000
  30
0.0
  40
 64.5000
  50
 3.77803
  51
 30.6027
   0
LINE
   8
LEVEL001
   6
CONTINUOUS
  62
7
  10
 155.500
  20
 72.0000
  30
0.0
  11
 155.500
  21
 83.0000
  31
0.0
   0
ARC
   8
LEVEL001
   6
CONTINUOUS
  62
7
  10
 157.500
  20
 96.0000
  30
0.0
  40
 3.00000
  50
 311.810
  51
 0.488533E-11
   0
LINE
   8
LEVEL001
   6
CONTINUOUS
  62
7
  10
 159.500
  20
 83.0000
  30
0.0
  11
 159.500
  21
 93.7639
  31
0.0
   0
ARC
   8
LEVEL001
   6
CONTINUOUS
  62
7
  10
 164.500
  20
 63.0000
  30
0.0
  40
 3.00000
  50
 180.000
  51
 270.000
   0
LINE
   8
LEVEL001
   6
CONTINUOUS
  62
7
  10
 161.500
  20
 72.0000
  30
0.0
  11
 161.500
  21
 63.0000
  31
0.0
   0
LINE
   8
LEVEL001
   6
CONTINUOUS
  62
7
  10
 294.500
  20
 72.0000
  30
0.0
  11
 294.500
  21
 83.0000
  31
0.0
   0
ARC
   8
LEVEL001
   6
CONTINUOUS
  62
7
  10
 292.500
  20
 96.0000
  30
0.0
  40
 3.00000
  50
 180.000
  51
 228.190
   0
LINE
   8
LEVEL001
   6
CONTINUOUS
  62
7
  10
 290.500
  20
 83.0000
  30
0.0
  11
 290.500
  21
 93.7639
  31
0.0
   0
ARC
   8
LEVEL001
   6
CONTINUOUS
  62
7
  10
 285.500
  20
 63.0000
  30
0.0
  40
 3.00000
  50
 270.000
  51
 0.529244E-11
   0
LINE
   8
LEVEL001
   6
CONTINUOUS
  62
7
  10
 288.500
  20
 72.0000
  30
0.0
  11
 288.500
  21
 63.0000
  31
0.0
   0
LINE
   8
LEVEL001
   6
CONTINUOUS
  62
7
  10
 285.500
  20
 60.0000
  30
0.0
  11
 164.500
  21
 60.0000
  31
0.0
   0
LINE
   8
LEVEL001
   6
CONTINUOUS
  62
7
  10
 323.505
  20
 122.861
  30
0.0
  11
 325.500
  21
 125.000
  31
0.0
   0
ARC
   8
LEVEL001
   6
CONTINUOUS
  62
7
  10
 307.500
  20
 103.707
  30
0.0
  40
 18.0000
  50
 93.9726
  51
 180.000
   0
LINE
   8
LEVEL001
   6
CONTINUOUS
  62
7
  10
 289.500
  20
 96.0000
  30
0.0
  11
 289.500
  21
 103.707
  31
0.0
   0
LINE
   8
LEVEL001
   6
CONTINUOUS
  62
7
  10
 323.505
  20
 122.861
  30
0.0
  11
 306.253
  21
 121.663
  31
0.0
   0
LINE
   8
LEVEL001
   6
CONTINUOUS
  62
7
  10
 323.505
  20
 173.139
  30
0.0
  11
 325.500
  21
 171.000
  31
0.0
   0
ARC
   8
LEVEL001
   6
CONTINUOUS
  62
7
  10
 303.866
  20
 186.531
  30
0.0
  40
 12.0000
  50
 199.825
  51
 266.028
   0
LINE
   8
LEVEL001
   6
CONTINUOUS
  62
7
  10
 323.505
  20
 173.139
  30
0.0
  11
 303.035
  21
 174.560
  31
0.0
   0
LINE
   8
LEVEL001
   6
DASHDOT
  62
1
  10
 217.500
  20
 148.000
  30
0.0
  11
 382.500
  21
 148.000
  31
0.0
   0
ARC
   8
LEVEL001
   6
CONTINUOUS
  62
7
  10
 291.500
  20
 96.0247
  30
0.0
  40
 2.00000
  50
 128.010
  51
 180.000
   0
ARC
   8
LEVEL001
   6
CONTINUOUS
  62
7
  10
 323.249
  20
 120.839
  30
0.0
  40
 2.00000
  50
 93.9730
  51
 128.010
   0
LINE
   8
LEVEL001
   6
CONTINUOUS
  62
7
  10
 322.018
  20
 122.415
  30
0.0
  11
 290.268
  21
 97.6006
  31
0.0
   0
LINE
   8
LEVEL001
   6
DASHDOT
  62
1
  10
 177.000
  20
 56.2500
  30
0.0
  11
 177.000
  21
 65.2500
  31
0.0
   0
LINE
   8
LEVEL001
   6
DASHDOT
  62
1
  10
 193.000
  20
 56.2500
  30
0.0
  11
 193.000
  21
 65.2500
  31
0.0
   0
LINE
   8
LEVEL001
   6
DASHDOT
  62
1
  10
 209.000
  20
 56.2500
  30
0.0
  11
 209.000
  21
 65.2500
  31
0.0
   0
LINE
   8
LEVEL001
   6
DASHDOT
  62
1
  10
 241.000
  20
 56.2500
  30
0.0
  11
 241.000
  21
 65.2500
  31
0.0
   0
LINE
   8
LEVEL001
   6
DASHDOT
  62
1
  10
 257.000
  20
 56.2500
  30
0.0
  11
 257.000
  21
 65.2500
  31
0.0
   0
LINE
   8
LEVEL001
   6
DASHDOT
  62
1
  10
 273.000
  20
 56.2500
  30
0.0
  11
 273.000
  21
 65.2500
  31
0.0
   0
LINE
   8
LEVEL001
   6
DASHDOT
  62
1
  10
 277.500
  20
 77.5000
  30
0.0
  11
 297.500
  21
 77.5000
  31
0.0
   0
ARC
   8
LEVEL001
   6
CONTINUOUS
  62
7
  10
 189.500
  20
 542.000
  30
0.0
  40
 3.00000
  50
 90.0001
  51
 180.001
   0
LINE
   8
LEVEL001
   6
CONTINUOUS
  62
7
  10
 186.500
  20
 530.000
  30
0.0
  11
 186.500
  21
 542.000
  31
0.0
   0
ARC
   8
LEVEL001
   6
CONTINUOUS
  62
7
  10
 260.500
  20
 542.000
  30
0.0
  40
 3.00000
  50
0.0
  51
 90.0002
   0
LINE
   8
LEVEL001
   6
CONTINUOUS
  62
7
  10
 263.500
  20
 530.000
  30
0.0
  11
 263.500
  21
 542.000
  31
0.0
   0
LINE
   8
LEVEL001
   6
DASHDOT
  62
1
  10
 225.000
  20
 52.5000
  30
0.0
  11
 225.000
  21
 552.500
  31
0.0
   0
LINE
   8
LEVEL001
   6
CONTINUOUS
  62
7
  10
 260.500
  20
 545.000
  30
0.0
  11
 189.500
  21
 545.000
  31
0.0
   0
LINE
   8
LEVEL001
   6
CONTINUOUS
  62
7
  10
 271.500
  20
 523.000
  30
0.0
  11
 271.500
  21
 513.000
  31
0.0
   0
LINE
   8
LEVEL001
   6
CONTINUOUS
  62
7
  10
 271.500
  20
 513.000
  30
0.0
  11
 277.200
  21
 513.000
  31
0.0
   0
LINE
   8
LEVEL001
   6
CONTINUOUS
  62
7
  10
 277.200
  20
 513.000
  30
0.0
  11
 277.500
  21
 513.520
  31
0.0
   0
LINE
   8
LEVEL001
   6
CONTINUOUS
  62
7
  10
 277.500
  20
 513.520
  30
0.0
  11
 277.500
  21
 522.480
  31
0.0
   0
LINE
   8
LEVEL001
   6
CONTINUOUS
  62
7
  10
 277.500
  20
 522.480
  30
0.0
  11
 277.200
  21
 523.000
  31
0.0
   0
LINE
   8
LEVEL001
   6
CONTINUOUS
  62
7
  10
 277.200
  20
 523.000
  30
0.0
  11
 271.500
  21
 523.000
  31
0.0
   0
LINE
   8
LEVEL001
   6
CONTINUOUS
  62
7
  10
 277.200
  20
 523.000
  30
0.0
  11
 277.200
  21
 513.000
  31
0.0
   0
LINE
   8
LEVEL001
   6
DASHDOT
  62
1
  10
 280.500
  20
 518.000
  30
0.0
  11
 252.500
  21
 518.000
  31
0.0
   0
ARC
   8
LEVEL001
   6
CONTINUOUS
  62
7
  10
 270.328
  20
 529.000
  30
0.0
  40
 1.00000
  50
 199.472
  51
 270.001
   0
ARC
   8
LEVEL001
   6
CONTINUOUS
  62
7
  10
 267.500
  20
 528.000
  30
0.0
  40
 2.00000
  50
 19.4718
  51
 89.9998
   0
ARC
   8
LEVEL001
   6
CONTINUOUS
  62
7
  10
 270.500
  20
 527.000
  30
0.0
  40
 1.00000
  50
 359.997
  51
 90.0002
   0
LINE
   8
LEVEL001
   6
CONTINUOUS
  62
7
  10
 270.500
  20
 528.000
  30
0.0
  11
 270.328
  21
 528.000
  31
0.0
   0
LINE
   8
LEVEL001
   6
DASHDOT
  62
1
  10
 196.500
  20
 539.750
  30
0.0
  11
 196.500
  21
 548.750
  31
0.0
   0
LINE
   8
LEVEL001
   6
DASHDOT
  62
1
  10
 207.000
  20
 539.750
  30
0.0
  11
 207.000
  21
 548.750
  31
0.0
   0
LINE
   8
LEVEL001
   6
DASHDOT
  62
1
  10
 243.000
  20
 539.750
  30
0.0
  11
 243.000
  21
 548.750
  31
0.0
   0
LINE
   8
LEVEL001
   6
DASHDOT
  62
1
  10
 253.500
  20
 539.750
  30
0.0
  11
 253.500
  21
 548.750
  31
0.0
   0
LINE
   8
LEVEL001
   6
CONTINUOUS
  62
7
  10
 271.500
  20
 487.000
  30
0.0
  11
 271.500
  21
 477.000
  31
0.0
   0
LINE
   8
LEVEL001
   6
CONTINUOUS
  62
7
  10
 271.500
  20
 477.000
  30
0.0
  11
 277.200
  21
 477.000
  31
0.0
   0
LINE
   8
LEVEL001
   6
CONTINUOUS
  62
7
  10
 277.200
  20
 477.000
  30
0.0
  11
 277.500
  21
 477.520
  31
0.0
   0
LINE
   8
LEVEL001
   6
CONTINUOUS
  62
7
  10
 277.500
  20
 477.520
  30
0.0
  11
 277.500
  21
 486.480
  31
0.0
   0
LINE
   8
LEVEL001
   6
CONTINUOUS
  62
7
  10
 277.500
  20
 486.480
  30
0.0
  11
 277.200
  21
 487.000
  31
0.0
   0
LINE
   8
LEVEL001
   6
CONTINUOUS
  62
7
  10
 277.200
  20
 487.000
  30
0.0
  11
 271.500
  21
 487.000
  31
0.0
   0
LINE
   8
LEVEL001
   6
CONTINUOUS
  62
7
  10
 277.200
  20
 487.000
  30
0.0
  11
 277.200
  21
 477.000
  31
0.0
   0
LINE
   8
LEVEL001
   6
DASHDOT
  62
1
  10
 280.500
  20
 482.000
  30
0.0
  11
 252.500
  21
 482.000
  31
0.0
   0
ARC
   8
LEVEL001
   6
CONTINUOUS
  62
7
  10
 182.500
  20
 528.000
  30
0.0
  40
 2.00000
  50
 89.9998
  51
 179.999
   0
LINE
   8
LEVEL001
   6
CONTINUOUS
  62
7
  10
 180.500
  20
 528.000
  30
0.0
  11
 180.500
  21
 507.000
  31
0.0
   0
ARC
   8
LEVEL001
   6
CONTINUOUS
  62
7
  10
 179.952
  20
 503.916
  30
0.0
  40
 2.00000
  50
 359.233
  51
 50.4351
   0
ARC
   8
LEVEL001
   6
CONTINUOUS
  62
7
  10
 182.500
  20
 507.000
  30
0.0
  40
 2.00000
  50
 180.001
  51
 230.437
   0
LINE
   8
LEVEL001
   6
CONTINUOUS
  62
7
  10
 271.500
  20
 527.000
  30
0.0
  11
 271.500
  21
 470.000
  31
0.0
   0
ARC
   8
LEVEL001
   6
CONTINUOUS
  62
7
  10
 117.841
  20
 196.381
  30
0.0
  40
 60.0000
  50
 329.398
  51
 359.235
   0
LINE
   8
LEVEL001
   6
CONTINUOUS
  62
7
  10
 177.835
  20
 195.580
  30
0.0
  11
 181.952
  21
 503.890
  31
0.0
   0
ARC
   8
LEVEL001
   6
CONTINUOUS
  62
7
  10
 296.911
  20
 214.781
  30
0.0
  40
 25.0000
  50
 180.765
  51
 237.822
   0
ARC
   8
LEVEL001
   6
CONTINUOUS
  62
7
  10
 271.881
  20
 175.000
  30
0.0
  40
 22.0000
  50
 19.8255
  51
 57.8226
   0
ARC
   8
LEVEL001
   6
CONTINUOUS
  62
7
  10
 344.494
  20
 229.032
  30
0.0
  40
 60.0000
  50
 183.092
  51
 249.417
   0
LINE
   8
LEVEL001
   6
CONTINUOUS
  62
7
  10
 271.391
  20
 469.994
  30
0.0
  11
 284.582
  21
 225.795
  31
0.0
   0
ARC
   8
LEVEL001
   6
CONTINUOUS
  62
7
  10
 270.527
  20
 468.000
  30
0.0
  40
 2.00000
  50
 89.9996
  51
 180.765
   0
LINE
   8
LEVEL001
   6
CONTINUOUS
  62
7
  10
 270.527
  20
 470.000
  30
0.0
  11
 271.500
  21
 470.000
  31
0.0
   0
LINE
   8
LEVEL003
   6
CONTINUOUS
  62
3
  10
 162.000
  20
 60.0000
  30
0.0
  11
 107.500
  21
 60.0000
  31
0.0
   0
LINE
   8
LEVEL003
   6
CONTINUOUS
  62
3
  10
 187.000
  20
 545.000
  30
0.0
  11
 107.500
  21
 545.000
  31
0.0
   0
LINE
   8
LEVEL003
   6
CONTINUOUS
  62
3
  10
 112.500
  20
 60.0000
  30
0.0
  11
 112.500
  21
 545.000
  31
0.0
   0
LINE
   8
LEVEL003
   6
CONTINUOUS
  62
3
  10
 113.750
  20
 67.5000
  30
0.0
  11
 112.500
  21
 60.0000
  31
0.0
   0
LINE
   8
LEVEL003
   6
CONTINUOUS
  62
3
  10
 112.500
  20
 60.0000
  30
0.0
  11
 111.250
  21
 67.5000
  31
0.0
   0
LINE
   8
LEVEL003
   6
CONTINUOUS
  62
3
  10
 112.500
  20
 60.0000
  30
0.0
  11
 112.500
  21
 67.5000
  31
0.0
   0
LINE
   8
LEVEL003
   6
CONTINUOUS
  62
3
  10
 111.250
  20
 537.500
  30
0.0
  11
 112.500
  21
 545.000
  31
0.0
   0
LINE
   8
LEVEL003
   6
CONTINUOUS
  62
3
  10
 112.500
  20
 545.000
  30
0.0
  11
 113.750
  21
 537.500
  31
0.0
   0
LINE
   8
LEVEL003
   6
CONTINUOUS
  62
3
  10
 112.500
  20
 545.000
  30
0.0
  11
 112.500
  21
 537.500
  31
0.0
   0
TEXT
   8
LEVEL003
  62
3
  10
 117.167
  20
 295.000
  30
0.0
  40
 10.0000
   1
485
  50
 90.0000
  41
 0.500000
   7
STANDARD
  72
1
  11
 110.500
  21
 302.500
  31
0.0
  73
2
   0
LINE
   8
LEVEL003
   6
CONTINUOUS
  62
3
  10
 186.500
  20
 544.500
  30
0.0
  11
 186.500
  21
 567.500
  31
0.0
   0
LINE
   8
LEVEL003
   6
CONTINUOUS
  62
3
  10
 263.500
  20
 544.500
  30
0.0
  11
 263.500
  21
 567.500
  31
0.0
   0
LINE
   8
LEVEL003
   6
CONTINUOUS
  62
3
  10
 186.500
  20
 562.500
  30
0.0
  11
 263.500
  21
 562.500
  31
0.0
   0
LINE
   8
LEVEL003
   6
CONTINUOUS
  62
3
  10
 194.000
  20
 561.250
  30
0.0
  11
 186.500
  21
 562.500
  31
0.0
   0
LINE
   8
LEVEL003
   6
CONTINUOUS
  62
3
  10
 186.500
  20
 562.500
  30
0.0
  11
 194.000
  21
 563.750
  31
0.0
   0
LINE
   8
LEVEL003
   6
CONTINUOUS
  62
3
  10
 186.500
  20
 562.500
  30
0.0
  11
 194.000
  21
 562.500
  31
0.0
   0
LINE
   8
LEVEL003
   6
CONTINUOUS
  62
3
  10
 256.000
  20
 563.750
  30
0.0
  11
 263.500
  21
 562.500
  31
0.0
   0
LINE
   8
LEVEL003
   6
CONTINUOUS
  62
3
  10
 263.500
  20
 562.500
  30
0.0
  11
 256.000
  21
 561.250
  31
0.0
   0
LINE
   8
LEVEL003
   6
CONTINUOUS
  62
3
  10
 263.500
  20
 562.500
  30
0.0
  11
 256.000
  21
 562.500
  31
0.0
   0
TEXT
   8
LEVEL003
  62
3
  10
 215.000
  20
 557.833
  30
0.0
  40
 10.0000
   1
%%c77
   7
STANDARD
  72
1
  11
 225.000
  21
 564.500
  31
0.0
  73
2
   0
LINE
   8
LEVEL003
   6
CONTINUOUS
  62
3
  10
 161.500
  20
 60.5000
  30
0.0
  11
 161.500
  21
 32.5000
  31
0.0
   0
LINE
   8
LEVEL003
   6
CONTINUOUS
  62
3
  10
 288.500
  20
 60.5000
  30
0.0
  11
 288.500
  21
 32.5000
  31
0.0
   0
LINE
   8
LEVEL003
   6
CONTINUOUS
  62
3
  10
 161.500
  20
 37.5000
  30
0.0
  11
 288.500
  21
 37.5000
  31
0.0
   0
LINE
   8
LEVEL003
   6
CONTINUOUS
  62
3
  10
 169.000
  20
 36.2500
  30
0.0
  11
 161.500
  21
 37.5000
  31
0.0
   0
LINE
   8
LEVEL003
   6
CONTINUOUS
  62
3
  10
 161.500
  20
 37.5000
  30
0.0
  11
 169.000
  21
 38.7500
  31
0.0
   0
LINE
   8
LEVEL003
   6
CONTINUOUS
  62
3
  10
 161.500
  20
 37.5000
  30
0.0
  11
 169.000
  21
 37.5000
  31
0.0
   0
LINE
   8
LEVEL003
   6
CONTINUOUS
  62
3
  10
 281.000
  20
 38.7500
  30
0.0
  11
 288.500
  21
 37.5000
  31
0.0
   0
LINE
   8
LEVEL003
   6
CONTINUOUS
  62
3
  10
 288.500
  20
 37.5000
  30
0.0
  11
 281.000
  21
 36.2500
  31
0.0
   0
LINE
   8
LEVEL003
   6
CONTINUOUS
  62
3
  10
 288.500
  20
 37.5000
  30
0.0
  11
 281.000
  21
 37.5000
  31
0.0
   0
TEXT
   8
LEVEL003
  62
3
  10
 212.500
  20
 32.8333
  30
0.0
  40
 10.0000
   1
%%c127
   7
STANDARD
  72
1
  11
 225.000
  21
 39.5000
  31
0.0
  73
2
   0
LINE
   8
LEVEL001
   6
CONTINUOUS
  62
7
  10
 634.392
  20
 506.994
  30
0.0
  11
 654.406
  21
 136.479
  31
0.0
   0
ARC
   8
LEVEL001
   6
CONTINUOUS
  62
7
  10
 520.723
  20
 172.000
  30
0.0
  40
 15.0000
  50
 194.843
  51
 335.869
   0
ARC
   8
LEVEL001
   6
CONTINUOUS
  62
7
  10
 631.886
  20
 201.459
  30
0.0
  40
 146.000
  50
 153.929
  51
 194.843
   0
ARC
   8
LEVEL001
   6
CONTINUOUS
  62
7
  10
 631.886
  20
 201.459
  30
0.0
  40
 136.000
  50
 153.929
  51
 194.843
   0
ARC
   8
LEVEL001
   6
CONTINUOUS
  62
7
  10
 631.886
  20
 201.459
  30
0.0
  40
 130.000
  50
 153.929
  51
 194.843
   0
ARC
   8
LEVEL001
   6
CONTINUOUS
  62
7
  10
 528.587
  20
 252.000
  30
0.0
  40
 15.0000
  50
 359.235
  51
 153.929
   0
ARC
   8
LEVEL001
   6
CONTINUOUS
  62
7
  10
 528.771
  20
 288.000
  30
0.0
  40
 5.00000
  50
 269.707
  51
 356.908
   0
LINE
   8
LEVEL001
   6
CONTINUOUS
  62
7
  10
 545.608
  20
 506.994
  30
0.0
  11
 533.764
  21
 287.730
  31
0.0
   0
ARC
   8
LEVEL001
   6
CONTINUOUS
  62
7
  10
 528.587
  20
 252.000
  30
0.0
  40
 31.0000
  50
 89.7074
  51
 153.929
   0
ARC
   8
LEVEL001
   6
CONTINUOUS
  62
7
  10
 538.907
  20
 275.864
  30
0.0
  40
 5.00000
  50
 246.615
  51
 359.235
   0
ARC
   8
LEVEL001
   6
CONTINUOUS
  62
7
  10
 528.587
  20
 252.000
  30
0.0
  40
 21.0000
  50
 66.6153
  51
 153.929
   0
LINE
   8
LEVEL001
   6
CONTINUOUS
  62
7
  10
 542.835
  20
 195.580
  30
0.0
  11
 546.952
  21
 503.890
  31
0.0
   0
ARC
   8
LEVEL001
   6
CONTINUOUS
  62
7
  10
 515.500
  20
 131.334
  30
0.0
  40
 10.0000
  50
 0.977066E-12
  51
 82.6807
   0
LINE
   8
LEVEL001
   6
CONTINUOUS
  62
7
  10
 525.500
  20
 96.0000
  30
0.0
  11
 525.500
  21
 131.334
  31
0.0
   0
ARC
   8
LEVEL001
   6
CONTINUOUS
  62
7
  10
 520.723
  20
 172.000
  30
0.0
  40
 31.0000
  50
 194.843
  51
 262.681
   0
ARC
   8
LEVEL001
   6
CONTINUOUS
  62
7
  10
 521.730
  20
 146.020
  30
0.0
  40
 5.00000
  50
 349.203
  51
 92.2196
   0
ARC
   8
LEVEL001
   6
CONTINUOUS
  62
7
  10
 520.723
  20
 172.000
  30
0.0
  40
 21.0000
  50
 194.843
  51
 272.220
   0
ARC
   8
LEVEL001
   6
CONTINUOUS
  62
7
  10
 590.000
  20
 133.000
  30
0.0
  40
 64.5000
  50
 149.405
  51
 180.000
   0
ARC
   8
LEVEL001
   6
CONTINUOUS
  62
7
  10
 521.055
  20
 170.775
  30
0.0
  40
 14.0000
  50
 195.475
  51
 326.176
   0
ARC
   8
LEVEL001
   6
CONTINUOUS
  62
7
  10
 482.840
  20
 196.381
  30
0.0
  40
 60.0000
  50
 326.176
  51
 359.235
   0
ARC
   8
LEVEL001
   6
CONTINUOUS
  62
7
  10
 529.086
  20
 251.883
  30
0.0
  40
 14.5000
  50
 359.672
  51
 154.379
   0
ARC
   8
LEVEL001
   6
CONTINUOUS
  62
7
  10
 631.886
  20
 201.459
  30
0.0
  40
 129.000
  50
 153.929
  51
 195.475
   0
TEXT
   8
LEVEL020
  62
6
  10
 362.500
  20
 637.500
  30
0.0
  40
 12.5000
   1
ストローク
   7
STANDARD
   0
TEXT
   8
LEVEL020
  62
6
  10
 362.500
  20
 655.000
  30
0.0
  40
 12.5000
   1
揚　　　力
   7
STANDARD
   0
TEXT
   8
LEVEL020
  62
6
  10
 575.000
  20
 637.500
  30
0.0
  40
 12.5000
   1
ｍｍ
  41
 0.700000
   7
STANDARD
   0
LINE
   8
LEVEL020
   6
CONTINUOUS
  62
6
  10
 362.500
  20
 670.000
  30
0.0
  11
 612.500
  21
 670.000
  31
0.0
   0
LINE
   8
LEVEL020
   6
CONTINUOUS
  62
6
  10
 362.500
  20
 652.500
  30
0.0
  11
 612.500
  21
 652.500
  31
0.0
   0
LINE
   8
LEVEL020
   6
CONTINUOUS
  62
6
  10
 362.500
  20
 635.000
  30
0.0
  11
 612.500
  21
 635.000
  31
0.0
   0
TEXT
   8
LEVEL020
  62
6
  10
 362.500
  20
 672.500
  30
0.0
  40
 12.5000
   1
形　　　式
   7
STANDARD
   0
TEXT
   8
LEVEL020
  62
6
  10
 362.500
  20
 690.000
  30
0.0
  40
 12.5000
   1
仕　　　様
   7
STANDARD
   0
LINE
   8
LEVEL020
   6
CONTINUOUS
  62
6
  10
 362.500
  20
 687.500
  30
0.0
  11
 425.000
  21
 687.500
  31
0.0
   0
TEXT
   8
LEVEL020
  62
6
  10
 362.500
  20
 620.000
  30
0.0
  40
 12.5000
   1
最低高さ
   7
STANDARD
   0
TEXT
   8
LEVEL020
  62
6
  10
 575.000
  20
 620.000
  30
0.0
  40
 12.5000
   1
ｍｍ
  41
 0.700000
   7
STANDARD
   0
LINE
   8
LEVEL020
   6
CONTINUOUS
  62
6
  10
 362.500
  20
 617.500
  30
0.0
  11
 612.500
  21
 617.500
  31
0.0
   0
LINE
   8
LEVEL020
   6
CONTINUOUS
  62
6
  10
 362.500
  20
 600.000
  30
0.0
  11
 612.500
  21
 600.000
  31
0.0
   0
LINE
   8
LEVEL020
   6
CONTINUOUS
  62
6
  10
 362.500
  20
 582.500
  30
0.0
  11
 612.500
  21
 582.500
  31
0.0
   0
TEXT
   8
LEVEL020
  62
6
  10
 362.500
  20
 585.000
  30
0.0
  40
 12.5000
   1
付　属　品
   7
STANDARD
   0
TEXT
   8
LEVEL020
  62
6
  10
 505.000
  20
 585.000
  30
0.0
  40
 12.5000
   1
　　　　　　１
  41
 0.700000
   7
STANDARD
   0
TEXT
   8
LEVEL020
  62
6
  10
 575.000
  20
 585.000
  30
0.0
  40
 12.5000
   1
本
  41
 0.500000
   7
STANDARD
   0
TEXT
   8
LEVEL020
  62
6
  10
 575.000
  20
 602.500
  30
0.0
  40
 12.5000
   1
ｋｇ
  41
 0.700000
   7
STANDARD
   0
TEXT
   8
LEVEL020
  62
6
  10
 505.000
  20
 672.500
  30
0.0
  40
 12.5000
   1
　　　ＪＪ－２５３３
  41
 0.700000
   7
STANDARD
   0
TEXT
   8
LEVEL020
  62
6
  10
 505.000
  20
 637.500
  30
0.0
  40
 12.5000
   1
　　　　３３０
  41
 0.700000
   7
STANDARD
   0
TEXT
   8
LEVEL020
  62
6
  10
 505.000
  20
 620.000
  30
0.0
  40
 12.5000
   1
　　　　４８５
  41
 0.700000
   7
STANDARD
   0
TEXT
   8
LEVEL020
  62
6
  10
 505.000
  20
 602.500
  30
0.0
  40
 12.5000
   1
　　　約　２５
  41
 0.700000
   7
STANDARD
   0
TEXT
   8
LEVEL020
  62
6
  10
 433.750
  20
 585.000
  30
0.0
  40
 12.5000
   1
ハンドル棒（%%c２５×７００Ｌ）
  41
 0.600000
   7
STANDARD
   0
LINE
   8
LEVEL003
   6
CONTINUOUS
  62
3
  10
 187.000
  20
 545.000
  30
0.0
  11
 145.000
  21
 545.000
  31
0.0
   0
LINE
   8
LEVEL003
   6
CONTINUOUS
  62
3
  10
 180.000
  20
 530.000
  30
0.0
  11
 145.000
  21
 530.000
  31
0.0
   0
LINE
   8
LEVEL003
   6
CONTINUOUS
  62
3
  10
 150.000
  20
 545.000
  30
0.0
  11
 150.000
  21
 530.000
  31
0.0
   0
LINE
   8
LEVEL003
   6
CONTINUOUS
  62
3
  10
 148.750
  20
 537.500
  30
0.0
  11
 150.000
  21
 545.000
  31
0.0
   0
LINE
   8
LEVEL003
   6
CONTINUOUS
  62
3
  10
 150.000
  20
 545.000
  30
0.0
  11
 151.250
  21
 537.500
  31
0.0
   0
LINE
   8
LEVEL003
   6
CONTINUOUS
  62
3
  10
 150.000
  20
 545.000
  30
0.0
  11
 150.000
  21
 537.500
  31
0.0
   0
LINE
   8
LEVEL003
   6
CONTINUOUS
  62
3
  10
 151.250
  20
 537.500
  30
0.0
  11
 150.000
  21
 530.000
  31
0.0
   0
LINE
   8
LEVEL003
   6
CONTINUOUS
  62
3
  10
 150.000
  20
 530.000
  30
0.0
  11
 148.750
  21
 537.500
  31
0.0
   0
LINE
   8
LEVEL003
   6
CONTINUOUS
  62
3
  10
 150.000
  20
 530.000
  30
0.0
  11
 150.000
  21
 537.500
  31
0.0
   0
TEXT
   8
LEVEL003
  62
3
  10
 154.667
  20
 532.500
  30
0.0
  40
 10.0000
   1
15
  50
 90.0000
  41
 0.500000
   7
STANDARD
  72
1
  11
 148.000
  21
 537.500
  31
0.0
  73
2
   0
TEXT
   8
LEVEL020
  62
6
  10
 505.000
  20
 655.000
  30
0.0
  40
 12.5000
   1
　　　　２５０
  41
 0.700000
   7
STANDARD
   0
TEXT
   8
LEVEL020
  62
6
  10
 575.000
  20
 655.000
  30
0.0
  40
 12.5000
   1
ｋＮ
  41
 0.700000
   7
STANDARD
   0
TEXT
   8
LEVEL020
  62
6
  10
 362.500
  20
 602.500
  30
0.0
  40
 12.5000
   1
質　　　量
   7
STANDARD
   0
LINE
   8
LEVEL001
   6
DASHDOT
  62
1
  10
 561.500
  20
 539.750
  30
0.0
  11
 561.500
  21
 548.750
  31
0.0
   0
LINE
   8
LEVEL001
   6
DASHDOT
  62
1
  10
 572.000
  20
 539.750
  30
0.0
  11
 572.000
  21
 548.750
  31
0.0
   0
LINE
   8
LEVEL001
   6
DASHDOT
  62
1
  10
 608.000
  20
 539.750
  30
0.0
  11
 608.000
  21
 548.750
  31
0.0
   0
LINE
   8
LEVEL001
   6
DASHDOT
  62
1
  10
 618.500
  20
 539.750
  30
0.0
  11
 618.500
  21
 548.750
  31
0.0
   0
LINE
   8
LEVEL001
   6
DASHDOT
  62
1
  10
 542.000
  20
 56.2500
  30
0.0
  11
 542.000
  21
 65.2500
  31
0.0
   0
LINE
   8
LEVEL001
   6
DASHDOT
  62
1
  10
 558.000
  20
 56.2500
  30
0.0
  11
 558.000
  21
 65.2500
  31
0.0
   0
LINE
   8
LEVEL001
   6
DASHDOT
  62
1
  10
 574.000
  20
 56.2500
  30
0.0
  11
 574.000
  21
 65.2500
  31
0.0
   0
LINE
   8
LEVEL001
   6
DASHDOT
  62
1
  10
 606.000
  20
 56.2500
  30
0.0
  11
 606.000
  21
 65.2500
  31
0.0
   0
LINE
   8
LEVEL001
   6
DASHDOT
  62
1
  10
 622.000
  20
 56.2500
  30
0.0
  11
 622.000
  21
 65.2500
  31
0.0
   0
LINE
   8
LEVEL001
   6
DASHDOT
  62
1
  10
 638.000
  20
 56.2500
  30
0.0
  11
 638.000
  21
 65.2500
  31
0.0
   0
ARC
   8
LEVEL003
   6
CONTINUOUS
  62
7
  10
 158.500
  20
 104.000
  30
0.0
  40
 2.00000
  50
 300.000
  51
 0.814222E-11
   0
ARC
   8
LEVEL003
   6
CONTINUOUS
  62
7
  10
 155.500
  20
 95.6369
  30
0.0
  40
 5.00000
  50
 0.113991E-11
  51
 44.4153
   0
ARC
   8
LEVEL003
   6
CONTINUOUS
  62
7
  10
 160.500
  20
 100.536
  30
0.0
  40
 2.00000
  50
 120.000
  51
 224.415
   0
ARC
   8
LEVEL003
   6
CONTINUOUS
  62
7
  10
 158.500
  20
 138.000
  30
0.0
  40
 2.00000
  50
 0.244267E-11
  51
 60.0000
   0
ARC
   8
LEVEL001
   6
CONTINUOUS
  62
7
  10
 157.040
  20
 147.549
  30
0.0
  40
 5.00000
  50
 299.623
  51
 347.916
   0
ARC
   8
LEVEL003
   6
CONTINUOUS
  62
7
  10
 160.500
  20
 141.464
  30
0.0
  40
 2.00000
  50
 119.623
  51
 240.000
   0
ARC
   8
LEVEL001
   6
CONTINUOUS
  62
7
  10
 225.000
  20
 133.000
  30
0.0
  40
 64.5000
  50
 149.397
  51
 167.924
   0
LINE
   8
LEVEL001
   6
CONTINUOUS
  62
7
  10
 180.608
  20
 506.994
  30
0.0
  11
 161.029
  21
 144.535
  31
0.0
   0
LINE
   8
LEVEL001
   6
CONTINUOUS
  62
7
  10
 160.595
  20
 136.508
  30
0.0
  11
 160.594
  21
 136.479
  31
0.0
   0
LINE
   8
LEVEL001
   6
CONTINUOUS
  62
7
  10
 160.500
  20
 103.996
  30
0.0
  11
 160.500
  21
 138.000
  31
0.0
   0
LINE
   8
LEVEL003
   6
CONTINUOUS
  62
7
  10
 601.000
  20
 122.500
  30
0.0
  11
 603.000
  21
 124.500
  31
0.0
   0
LINE
   8
LEVEL003
   6
CONTINUOUS
  62
7
  10
 603.000
  20
 124.500
  30
0.0
  11
 603.000
  21
 123.500
  31
0.0
   0
LINE
   8
LEVEL003
   6
CONTINUOUS
  62
7
  10
 603.000
  20
 123.500
  30
0.0
  11
 610.000
  21
 123.500
  31
0.0
   0
LINE
   8
LEVEL003
   6
CONTINUOUS
  62
7
  10
 610.000
  20
 123.500
  30
0.0
  11
 610.000
  21
 121.500
  31
0.0
   0
LINE
   8
LEVEL003
   6
CONTINUOUS
  62
7
  10
 610.000
  20
 121.500
  30
0.0
  11
 603.000
  21
 121.500
  31
0.0
   0
LINE
   8
LEVEL003
   6
CONTINUOUS
  62
7
  10
 603.000
  20
 121.500
  30
0.0
  11
 603.000
  21
 120.500
  31
0.0
   0
LINE
   8
LEVEL003
   6
CONTINUOUS
  62
7
  10
 603.000
  20
 120.500
  30
0.0
  11
 601.000
  21
 122.500
  31
0.0
   0
LINE
   8
LEVEL003
   6
CONTINUOUS
  62
7
  10
 566.203
  20
 122.500
  30
0.0
  11
 564.203
  21
 124.500
  31
0.0
   0
LINE
   8
LEVEL003
   6
CONTINUOUS
  62
7
  10
 564.203
  20
 124.500
  30
0.0
  11
 564.203
  21
 123.500
  31
0.0
   0
LINE
   8
LEVEL003
   6
CONTINUOUS
  62
7
  10
 564.203
  20
 123.500
  30
0.0
  11
 557.203
  21
 123.500
  31
0.0
   0
LINE
   8
LEVEL003
   6
CONTINUOUS
  62
7
  10
 557.203
  20
 123.500
  30
0.0
  11
 557.203
  21
 121.500
  31
0.0
   0
LINE
   8
LEVEL003
   6
CONTINUOUS
  62
7
  10
 557.203
  20
 121.500
  30
0.0
  11
 564.203
  21
 121.500
  31
0.0
   0
LINE
   8
LEVEL003
   6
CONTINUOUS
  62
7
  10
 564.203
  20
 121.500
  30
0.0
  11
 564.203
  21
 120.500
  31
0.0
   0
LINE
   8
LEVEL003
   6
CONTINUOUS
  62
7
  10
 564.203
  20
 120.500
  30
0.0
  11
 566.203
  21
 122.500
  31
0.0
   0
ARC
   8
LEVEL001
   6
CONTINUOUS
  62
7
  10
 569.500
  20
 114.257
  30
0.0
  40
 3.00000
  50
 0.829971E-4
  51
 88.0004
   0
ARC
   8
LEVEL001
   6
CONTINUOUS
  62
7
  10
 615.500
  20
 114.257
  30
0.0
  40
 3.00000
  50
 91.9996
  51
 180.000
   0
ARC
   8
LEVEL003
   6
CONTINUOUS
  62
7
  10
 581.500
  20
 102.500
  30
0.0
  40
 3.00000
  50
 180.000
  51
 270.000
   0
ARC
   8
LEVEL003
   6
CONTINUOUS
  62
7
  10
 576.500
  20
 112.700
  30
0.0
  40
 2.00000
  50
0.0
  51
 90.0000
   0
LINE
   8
LEVEL003
   6
CONTINUOUS
  62
7
  10
 578.500
  20
 102.500
  30
0.0
  11
 578.500
  21
 112.700
  31
0.0
   0
ARC
   8
LEVEL003
   6
CONTINUOUS
  62
7
  10
 603.500
  20
 102.500
  30
0.0
  40
 3.00000
  50
 270.000
  51
0.0
   0
ARC
   8
LEVEL003
   6
CONTINUOUS
  62
7
  10
 608.500
  20
 112.700
  30
0.0
  40
 2.00000
  50
 90.0000
  51
 180.000
   0
LINE
   8
LEVEL003
   6
CONTINUOUS
  62
7
  10
 606.500
  20
 102.500
  30
0.0
  11
 606.500
  21
 112.700
  31
0.0
   0
CIRCLE
   8
0
   6
CONTINUOUS
  62
7
  10
 595.023
  20
 105.540
  30
0.0
  40
 3.33333
   0
LINE
   8
0
   6
CONTINUOUS
  62
7
  10
 588.480
  20
 102.206
  30
0.0
  11
 592.714
  21
 109.540
  31
0.0
   0
LINE
   8
0
   6
CONTINUOUS
  62
7
  10
 592.714
  20
 109.540
  30
0.0
  11
 601.182
  21
 109.540
  31
0.0
   0
LINE
   8
0
   6
CONTINUOUS
  62
7
  10
 601.182
  20
 109.540
  30
0.0
  11
 602.144
  21
 111.206
  31
0.0
   0
LINE
   8
0
   6
CONTINUOUS
  62
7
  10
 602.144
  20
 111.206
  30
0.0
  11
 587.010
  21
 111.206
  31
0.0
   0
LINE
   8
0
   6
CONTINUOUS
  62
7
  10
 587.010
  20
 111.206
  30
0.0
  11
 581.813
  21
 102.206
  31
0.0
   0
LINE
   8
0
   6
CONTINUOUS
  62
7
  10
 581.813
  20
 102.206
  30
0.0
  11
 588.480
  21
 102.206
  31
0.0
   0
LINE
   8
LEVEL003
   6
CONTINUOUS
  62
7
  10
 581.500
  20
 99.5000
  30
0.0
  11
 603.500
  21
 99.5000
  31
0.0
   0
TEXT
   8
LEVEL003
  62
7
  10
 553.545
  20
 126.702
  30
0.0
  40
 8.00000
   1
ＵＰ
  50
 180.000
  41
 0.875000
   7
STANDARD
   0
TEXT
   8
LEVEL003
  62
7
  10
 641.368
  20
 126.702
  30
0.0
  40
 8.00000
   1
ＤＯＷＮ
  50
 180.000
  41
 0.875000
   7
STANDARD
   0
LINE
   8
LEVEL001
   6
CONTINUOUS
  62
7
  10
 612.500
  20
 77.6350
  30
0.0
  11
 612.500
  21
 114.257
  31
0.0
   0
LINE
   8
LEVEL001
   6
CONTINUOUS
  62
7
  10
 572.500
  20
 77.6350
  30
0.0
  11
 572.500
  21
 114.257
  31
0.0
   0
LINE
   8
LEVEL001
   6
CONTINUOUS
  62
7
  10
 267.500
  20
 530.000
  30
0.0
  11
 182.500
  21
 530.000
  31
0.0
   0
LINE
   8
LEVEL001
   6
CONTINUOUS
  62
7
  10
 325.500
  20
 125.000
  30
0.0
  11
 325.500
  21
 171.000
  31
0.0
   0
LINE
   8
LEVEL001
   6
CONTINUOUS
  62
7
  10
 159.775
  20
 72.0000
  30
0.0
  11
 159.775
  21
 83.0000
  31
0.0
   0
LINE
   8
LEVEL001
   6
CONTINUOUS
  62
7
  10
 165.131
  20
 72.0000
  30
0.0
  11
 165.131
  21
 85.0000
  31
0.0
   0
LINE
   8
LEVEL001
   6
CONTINUOUS
  62
7
  10
 284.869
  20
 72.0000
  30
0.0
  11
 284.869
  21
 83.0000
  31
0.0
   0
LINE
   8
LEVEL001
   6
CONTINUOUS
  62
7
  10
 290.225
  20
 72.0000
  30
0.0
  11
 290.225
  21
 83.0000
  31
0.0
   0
LINE
   8
LEVEL001
   6
CONTINUOUS
  62
7
  10
 284.869
  20
 72.0000
  30
0.0
  11
 284.869
  21
 85.0000
  31
0.0
   0
LINE
   8
LEVEL001
   6
CONTINUOUS
  62
7
  10
 159.500
  20
 93.7639
  30
0.0
  11
 290.500
  21
 93.7639
  31
0.0
   0
LINE
   8
LEVEL001
   6
CONTINUOUS
  62
7
  10
 294.500
  20
 72.0000
  30
0.0
  11
 155.500
  21
 72.0000
  31
0.0
   0
LINE
   8
LEVEL001
   6
CONTINUOUS
  62
7
  10
 201.000
  20
 72.0000
  30
0.0
  11
 201.000
  21
 85.0000
  31
0.0
   0
LINE
   8
LEVEL001
   6
CONTINUOUS
  62
7
  10
 165.131
  20
 85.0000
  30
0.0
  11
 201.000
  21
 85.0000
  31
0.0
   0
LINE
   8
LEVEL001
   6
CONTINUOUS
  62
7
  10
 249.000
  20
 72.0000
  30
0.0
  11
 249.000
  21
 85.0000
  31
0.0
   0
LINE
   8
LEVEL001
   6
CONTINUOUS
  62
7
  10
 249.000
  20
 85.0000
  30
0.0
  11
 284.869
  21
 85.0000
  31
0.0
   0
LINE
   8
LEVEL001
   6
CONTINUOUS
  62
7
  10
 284.869
  20
 83.0000
  30
0.0
  11
 294.500
  21
 83.0000
  31
0.0
   0
LINE
   8
LEVEL001
   6
CONTINUOUS
  62
7
  10
 249.000
  20
 83.0000
  30
0.0
  11
 201.000
  21
 83.0000
  31
0.0
   0
LINE
   8
LEVEL001
   6
CONTINUOUS
  62
7
  10
 165.131
  20
 83.0000
  30
0.0
  11
 155.500
  21
 83.0000
  31
0.0
   0
ARC
   8
LEVEL001
   6
CONTINUOUS
  62
7
  10
 393.800
  20
 84.0000
  30
0.0
  40
 4.00000
  50
 272.196
  51
 87.8041
   0
ARC
   8
LEVEL001
   6
CONTINUOUS
  62
7
  10
 367.800
  20
 66.0000
  30
0.0
  40
 2.00000
  50
 270.000
  51
 0.437132E-3
   0
ARC
   8
LEVEL001
   6
CONTINUOUS
  62
7
  10
 327.800
  20
 66.0000
  30
0.0
  40
 2.00000
  50
 180.000
  51
 270.000
   0
LINE
   8
LEVEL001
   6
DASHDOT
  62
1
  10
 347.800
  20
 60.0000
  30
0.0
  11
 347.800
  21
 180.000
  31
0.0
   0
LINE
   8
LEVEL001
   6
DASHDOT
  62
1
  10
 353.142
  20
 84.0000
  30
0.0
  11
 405.642
  21
 84.0000
  31
0.0
   0
ARC
   8
LEVEL001
   6
DOT
  62
3
  10
 336.800
  20
 101.750
  30
0.0
  40
 2.00000
  50
 90.0000
  51
 180.000
   0
ARC
   8
LEVEL001
   6
DOT
  62
3
  10
 332.800
  20
 66.0000
  30
0.0
  40
 2.00000
  50
 270.001
  51
 0.437139E-3
   0
LINE
   8
LEVEL001
   6
DOT
  62
3
  10
 334.800
  20
 66.0000
  30
0.0
  11
 334.800
  21
 101.750
  31
0.0
   0
ARC
   8
LEVEL001
   6
DOT
  62
3
  10
 358.800
  20
 101.750
  30
0.0
  40
 2.00000
  50
0.0
  51
 90.0000
   0
ARC
   8
LEVEL001
   6
DOT
  62
3
  10
 362.800
  20
 66.0000
  30
0.0
  40
 2.00000
  50
 180.000
  51
 270.000
   0
LINE
   8
LEVEL001
   6
DOT
  62
3
  10
 360.800
  20
 66.0000
  30
0.0
  11
 360.800
  21
 101.750
  31
0.0
   0
ARC
   8
LEVEL001
   6
CONTINUOUS
  62
7
  10
 347.800
  20
 122.500
  30
0.0
  40
 20.8000
  50
 180.000
  51
 0.180890E-9
   0
LINE
   8
LEVEL001
   6
CONTINUOUS
  62
7
  10
 327.800
  20
 64.0000
  30
0.0
  11
 332.800
  21
 64.0000
  31
0.0
   0
LINE
   8
LEVEL001
   6
CONTINUOUS
  62
7
  10
 362.800
  20
 64.0000
  30
0.0
  11
 367.800
  21
 64.0000
  31
0.0
   0
ARC
   8
LEVEL001
   6
CONTINUOUS
  62
7
  10
 379.150
  20
 93.5684
  30
0.0
  40
 5.00000
  50
 241.704
  51
 267.804
   0
LINE
   8
LEVEL001
   6
CONTINUOUS
  62
7
  10
 378.958
  20
 88.5721
  30
0.0
  11
 393.953
  21
 87.9971
  31
0.0
   0
LINE
   8
LEVEL001
   6
CONTINUOUS
  62
7
  10
 378.958
  20
 79.4279
  30
0.0
  11
 393.953
  21
 80.0029
  31
0.0
   0
ARC
   8
LEVEL001
   6
CONTINUOUS
  62
7
  10
 379.150
  20
 74.4316
  30
0.0
  40
 5.00000
  50
 92.1961
  51
 118.296
   0
LINE
   8
LEVEL001
   6
CONTINUOUS
  62
7
  10
 369.800
  20
 66.0000
  30
0.0
  11
 369.800
  21
 72.0900
  31
0.0
   0
ARC
   8
LEVEL001
   6
CONTINUOUS
  62
7
  10
 374.800
  20
 72.0900
  30
0.0
  40
 5.00000
  50
 118.296
  51
 180.000
   0
LINE
   8
LEVEL001
   6
CONTINUOUS
  62
7
  10
 372.430
  20
 76.4925
  30
0.0
  11
 376.779
  21
 78.8341
  31
0.0
   0
ARC
   8
LEVEL001
   6
CONTINUOUS
  62
7
  10
 397.800
  20
 84.0000
  30
0.0
  40
 31.5202
  50
 164.180
  51
 194.939
   0
LINE
   8
LEVEL001
   6
CONTINUOUS
  62
7
  10
 377.800
  20
 87.6496
  30
0.0
  11
 377.800
  21
 80.9947
  31
0.0
   0
ARC
   8
LEVEL001
   6
CONTINUOUS
  62
7
  10
 369.800
  20
 95.1947
  30
0.0
  40
 2.00000
  50
 180.000
  51
 241.704
   0
ARC
   8
LEVEL001
   6
CONTINUOUS
  62
7
  10
 326.800
  20
 75.2972
  30
0.0
  40
 1.00000
  50
 284.302
  51
 0.232860E-3
   0
ARC
   8
LEVEL001
   6
CONTINUOUS
  62
7
  10
 326.800
  20
 73.2316
  30
0.0
  40
 1.00000
  50
 104.655
  51
 180.000
   0
ARC
   8
LEVEL001
   6
CONTINUOUS
  62
7
  10
 347.800
  20
-7.06770
  30
0.0
  40
 83.9998
  50
 104.304
  51
 104.656
   0
ARC
   8
LEVEL001
   6
CONTINUOUS
  62
7
  10
 347.832
  20
-17.5781
  30
0.0
  40
 94.2131
  50
 77.8664
  51
 102.172
   0
ARC
   8
LEVEL001
   6
CONTINUOUS
  62
7
  10
 368.800
  20
 75.2972
  30
0.0
  40
 1.00000
  50
 180.000
  51
 255.698
   0
ARC
   8
LEVEL001
   6
CONTINUOUS
  62
7
  10
 368.800
  20
 73.2316
  30
0.0
  40
 1.00000
  50
 0.253715E-4
  51
 75.3454
   0
ARC
   8
LEVEL001
   6
CONTINUOUS
  62
7
  10
 347.800
  20
-7.06770
  30
0.0
  40
 83.9998
  50
 75.3442
  51
 75.6965
   0
ARC
   8
LEVEL001
   6
CONTINUOUS
  62
7
  10
 347.800
  20
-14.6608
  30
0.0
  40
 80.0783
  50
 79.2038
  51
 100.796
   0
ARC
   8
LEVEL001
   6
CONTINUOUS
  62
7
  10
 347.800
  20
-13.1461
  30
0.0
  40
 80.0783
  50
 75.8184
  51
 104.182
   0
LINE
   8
LEVEL001
   6
CONTINUOUS
  62
7
  10
 325.800
  20
 66.0000
  30
0.0
  11
 325.800
  21
 73.2451
  31
0.0
   0
LINE
   8
LEVEL001
   6
CONTINUOUS
  62
7
  10
 327.800
  20
 75.2972
  30
0.0
  11
 327.800
  21
 116.787
  31
0.0
   0
LINE
   8
LEVEL001
   6
CONTINUOUS
  62
7
  10
 367.800
  20
 95.1947
  30
0.0
  11
 367.800
  21
 116.787
  31
0.0
   0
LINE
   8
LEVEL001
   6
CONTINUOUS
  62
7
  10
 368.852
  20
 93.4337
  30
0.0
  11
 376.780
  21
 89.1659
  31
0.0
   0
ARC
   8
LEVEL001
   6
CONTINUOUS
  62
7
  10
 375.000
  20
 158.000
  30
0.0
  40
 1.00000
  50
 0.179129E-9
  51
 90.0000
   0
ARC
   8
LEVEL001
   6
CONTINUOUS
  62
7
  10
 375.000
  20
 138.000
  30
0.0
  40
 1.00000
  50
 270.000
  51
0.0
   0
LINE
   8
LEVEL001
   6
CONTINUOUS
  62
7
  10
 376.000
  20
 138.000
  30
0.0
  11
 376.000
  21
 158.000
  31
0.0
   0
LINE
   8
LEVEL001
   6
CONTINUOUS
  62
7
  10
 373.350
  20
 159.000
  30
0.0
  11
 375.000
  21
 159.000
  31
0.0
   0
LINE
   8
LEVEL001
   6
CONTINUOUS
  62
7
  10
 373.350
  20
 137.000
  30
0.0
  11
 375.000
  21
 137.000
  31
0.0
   0
LINE
   8
LEVEL001
   6
CONTINUOUS
  62
7
  10
 372.000
  20
 137.000
  30
0.0
  11
 372.000
  21
 159.000
  31
0.0
   0
LINE
   8
LEVEL001
   6
CONTINUOUS
  62
7
  10
 372.000
  20
 159.000
  30
0.0
  11
 372.000
  21
 165.500
  31
0.0
   0
LINE
   8
LEVEL001
   6
CONTINUOUS
  62
7
  10
 372.000
  20
 130.500
  30
0.0
  11
 372.000
  21
 137.000
  31
0.0
   0
LINE
   8
LEVEL001
   6
CONTINUOUS
  62
7
  10
 372.000
  20
 162.600
  30
0.0
  11
 373.350
  21
 162.600
  31
0.0
   0
LINE
   8
LEVEL001
   6
CONTINUOUS
  62
7
  10
 372.000
  20
 134.800
  30
0.0
  11
 373.350
  21
 134.800
  31
0.0
   0
LINE
   8
LEVEL001
   6
CONTINUOUS
  62
7
  10
 373.350
  20
 134.800
  30
0.0
  11
 373.350
  21
 162.600
  31
0.0
   0
LINE
   8
LEVEL001
   6
CONTINUOUS
  62
7
  10
 327.000
  20
 177.400
  30
0.0
  11
 368.600
  21
 177.400
  31
0.0
   0
LINE
   8
LEVEL001
   6
DASHDOT
  62
1
  10
 322.391
  20
 122.500
  30
0.0
  11
 373.208
  21
 122.500
  31
0.0
   0
LINE
   8
LEVEL001
   6
CONTINUOUS
  62
7
  10
 372.000
  20
 165.500
  30
0.0
  11
 370.000
  21
 165.500
  31
0.0
   0
LINE
   8
LEVEL001
   6
CONTINUOUS
  62
7
  10
 369.500
  20
 165.500
  30
0.0
  11
 368.600
  21
 165.500
  31
0.0
   0
LINE
   8
LEVEL001
   6
CONTINUOUS
  62
7
  10
 372.000
  20
 130.500
  30
0.0
  11
 370.000
  21
 130.500
  31
0.0
   0
LINE
   8
LEVEL001
   6
CONTINUOUS
  62
7
  10
 369.500
  20
 130.500
  30
0.0
  11
 368.600
  21
 130.500
  31
0.0
   0
LINE
   8
LEVEL001
   6
CONTINUOUS
  62
7
  10
 325.500
  20
 163.000
  30
0.0
  11
 327.000
  21
 163.000
  31
0.0
   0
LINE
   8
LEVEL001
   6
CONTINUOUS
  62
7
  10
 325.500
  20
 133.000
  30
0.0
  11
 327.000
  21
 133.000
  31
0.0
   0
LINE
   8
LEVEL001
   6
DOT
  62
3
  10
 336.800
  20
 103.750
  30
0.0
  11
 358.800
  21
 103.750
  31
0.0
   0
LINE
   8
LEVEL001
   6
CONTINUOUS
  62
7
  10
 327.000
  20
 122.500
  30
0.0
  11
 327.000
  21
 177.400
  31
0.0
   0
LINE
   8
LEVEL001
   6
CONTINUOUS
  62
7
  10
 369.500
  20
 137.000
  30
0.0
  11
 370.000
  21
 137.000
  31
0.0
   0
LINE
   8
LEVEL001
   6
CONTINUOUS
  62
7
  10
 369.500
  20
 159.000
  30
0.0
  11
 370.000
  21
 159.000
  31
0.0
   0
LINE
   8
LEVEL001
   6
CONTINUOUS
  62
7
  10
 370.000
  20
 165.500
  30
0.0
  11
 370.000
  21
 130.500
  31
0.0
   0
LINE
   8
LEVEL001
   6
CONTINUOUS
  62
7
  10
 369.500
  20
 165.500
  30
0.0
  11
 369.500
  21
 130.500
  31
0.0
   0
CIRCLE
   8
LEVEL001
   6
CONTINUOUS
  62
7
  10
 347.800
  20
 122.500
  30
0.0
  40
 14.7500
   0
LINE
   8
LEVEL001
   6
CONTINUOUS
  62
7
  10
 368.600
  20
 177.400
  30
0.0
  11
 368.600
  21
 122.500
  31
0.0
   0
ARC
   8
LEVEL001
   6
CONTINUOUS
  62
7
  10
 346.300
  20
 145.089
  30
0.0
  40
 3.00000
  50
 128.679
  51
 177.583
   0
ARC
   8
LEVEL001
   6
CONTINUOUS
  62
7
  10
 349.300
  20
 145.089
  30
0.0
  40
 3.00000
  50
 2.41742
  51
 51.3165
   0
LINE
   8
LEVEL001
   6
CONTINUOUS
  62
7
  10
 368.050
  20
 143.552
  30
0.0
  11
 327.550
  21
 143.552
  31
0.0
   0
LINE
   8
LEVEL001
   6
CONTINUOUS
  62
7
  10
 368.050
  20
 144.953
  30
0.0
  11
 327.550
  21
 144.953
  31
0.0
   0
LINE
   8
LEVEL001
   6
CONTINUOUS
  62
7
  10
 343.303
  20
 145.215
  30
0.0
  11
 352.297
  21
 145.215
  31
0.0
   0
ARC
   8
LEVEL001
   6
CONTINUOUS
  62
7
  10
 347.800
  20
 143.215
  30
0.0
  40
 5.40000
  50
 51.3161
  51
 128.681
   0
LINE
   8
LEVEL001
   6
CONTINUOUS
  62
7
  10
 368.050
  20
 177.400
  30
0.0
  11
 368.050
  21
 143.552
  31
0.0
   0
LINE
   8
LEVEL001
   6
CONTINUOUS
  62
7
  10
 327.550
  20
 177.400
  30
0.0
  11
 327.550
  21
 143.552
  31
0.0
   0
ARC
   8
LEVEL001
   6
CONTINUOUS
  62
7
  10
 292.500
  20
 142.500
  30
0.0
  40
 3.00000
  50
 90.0000
  51
 180.000
   0
ARC
   8
LEVEL001
   6
CONTINUOUS
  62
7
  10
 292.500
  20
 153.500
  30
0.0
  40
 3.00000
  50
 180.000
  51
 270.000
   0
LINE
   8
LEVEL001
   6
CONTINUOUS
  62
7
  10
 292.500
  20
 150.500
  30
0.0
  11
 322.500
  21
 150.500
  31
0.0
   0
LINE
   8
LEVEL001
   6
CONTINUOUS
  62
7
  10
 322.500
  20
 145.500
  30
0.0
  11
 292.500
  21
 145.500
  31
0.0
   0
LINE
   8
LEVEL001
   6
CONTINUOUS
  62
7
  10
 323.505
  20
 173.139
  30
0.0
  11
 323.505
  21
 122.861
  31
0.0
   0
POLYLINE
   8
LEVEL001
   6
CONTINUOUS
  62
7
  66
1
  10
0.0
  20
0.0
  30
0.0
  70
0
   0
VERTEX
   8
LEVEL001
   6
CONTINUOUS
  62
7
  10
 159.493
  20
 102.391
  30
0.0
   0
VERTEX
   8
LEVEL001
   6
CONTINUOUS
  62
7
  10
 160.572
  20
 102.800
  30
0.0
   0
VERTEX
   8
LEVEL001
   6
CONTINUOUS
  62
7
  10
 161.618
  20
 103.494
  30
0.0
   0
VERTEX
   8
LEVEL001
   6
CONTINUOUS
  62
7
  10
 162.616
  20
 104.461
  30
0.0
   0
VERTEX
   8
LEVEL001
   6
CONTINUOUS
  62
7
  10
 163.549
  20
 105.686
  30
0.0
   0
VERTEX
   8
LEVEL001
   6
CONTINUOUS
  62
7
  10
 164.404
  20
 107.150
  30
0.0
   0
VERTEX
   8
LEVEL001
   6
CONTINUOUS
  62
7
  10
 165.166
  20
 108.830
  30
0.0
   0
VERTEX
   8
LEVEL001
   6
CONTINUOUS
  62
7
  10
 165.825
  20
 110.700
  30
0.0
   0
VERTEX
   8
LEVEL001
   6
CONTINUOUS
  62
7
  10
 166.369
  20
 112.731
  30
0.0
   0
VERTEX
   8
LEVEL001
   6
CONTINUOUS
  62
7
  10
 166.790
  20
 114.890
  30
0.0
   0
VERTEX
   8
LEVEL001
   6
CONTINUOUS
  62
7
  10
 167.082
  20
 117.145
  30
0.0
   0
VERTEX
   8
LEVEL001
   6
CONTINUOUS
  62
7
  10
 167.240
  20
 119.461
  30
0.0
   0
VERTEX
   8
LEVEL001
   6
CONTINUOUS
  62
7
  10
 167.262
  20
 121.800
  30
0.0
   0
VERTEX
   8
LEVEL001
   6
CONTINUOUS
  62
7
  10
 167.147
  20
 124.127
  30
0.0
   0
VERTEX
   8
LEVEL001
   6
CONTINUOUS
  62
7
  10
 166.897
  20
 126.405
  30
0.0
   0
VERTEX
   8
LEVEL001
   6
CONTINUOUS
  62
7
  10
 166.516
  20
 128.598
  30
0.0
   0
VERTEX
   8
LEVEL001
   6
CONTINUOUS
  62
7
  10
 166.010
  20
 130.674
  30
0.0
   0
VERTEX
   8
LEVEL001
   6
CONTINUOUS
  62
7
  10
 165.386
  20
 132.598
  30
0.0
   0
VERTEX
   8
LEVEL001
   6
CONTINUOUS
  62
7
  10
 164.656
  20
 134.341
  30
0.0
   0
VERTEX
   8
LEVEL001
   6
CONTINUOUS
  62
7
  10
 163.829
  20
 135.876
  30
0.0
   0
VERTEX
   8
LEVEL001
   6
CONTINUOUS
  62
7
  10
 162.919
  20
 137.179
  30
0.0
   0
VERTEX
   8
LEVEL001
   6
CONTINUOUS
  62
7
  10
 161.940
  20
 138.229
  30
0.0
   0
VERTEX
   8
LEVEL001
   6
CONTINUOUS
  62
7
  10
 160.907
  20
 139.011
  30
0.0
   0
VERTEX
   8
LEVEL001
   6
CONTINUOUS
  62
7
  10
 159.837
  20
 139.511
  30
0.0
   0
VERTEX
   8
LEVEL001
   6
CONTINUOUS
  62
7
  10
 159.794
  20
 139.525
  30
0.0
   0
SEQEND
   0
POLYLINE
   8
LEVEL001
   6
CONTINUOUS
  62
7
  66
1
  10
0.0
  20
0.0
  30
0.0
  70
0
   0
VERTEX
   8
LEVEL001
   6
CONTINUOUS
  62
7
  10
 162.052
  20
 99.0885
  30
0.0
   0
VERTEX
   8
LEVEL001
   6
CONTINUOUS
  62
7
  10
 163.555
  20
 100.050
  30
0.0
   0
VERTEX
   8
LEVEL001
   6
CONTINUOUS
  62
7
  10
 164.978
  20
 101.338
  30
0.0
   0
VERTEX
   8
LEVEL001
   6
CONTINUOUS
  62
7
  10
 166.301
  20
 102.933
  30
0.0
   0
VERTEX
   8
LEVEL001
   6
CONTINUOUS
  62
7
  10
 167.503
  20
 104.810
  30
0.0
   0
VERTEX
   8
LEVEL001
   6
CONTINUOUS
  62
7
  10
 168.563
  20
 106.940
  30
0.0
   0
VERTEX
   8
LEVEL001
   6
CONTINUOUS
  62
7
  10
 169.467
  20
 109.289
  30
0.0
   0
VERTEX
   8
LEVEL001
   6
CONTINUOUS
  62
7
  10
 170.199
  20
 111.820
  30
0.0
   0
VERTEX
   8
LEVEL001
   6
CONTINUOUS
  62
7
  10
 170.749
  20
 114.495
  30
0.0
   0
VERTEX
   8
LEVEL001
   6
CONTINUOUS
  62
7
  10
 171.108
  20
 117.272
  30
0.0
   0
VERTEX
   8
LEVEL001
   6
CONTINUOUS
  62
7
  10
 171.270
  20
 120.106
  30
0.0
   0
VERTEX
   8
LEVEL001
   6
CONTINUOUS
  62
7
  10
 171.233
  20
 122.955
  30
0.0
   0
VERTEX
   8
LEVEL001
   6
CONTINUOUS
  62
7
  10
 170.997
  20
 125.773
  30
0.0
   0
VERTEX
   8
LEVEL001
   6
CONTINUOUS
  62
7
  10
 170.566
  20
 128.517
  30
0.0
   0
VERTEX
   8
LEVEL001
   6
CONTINUOUS
  62
7
  10
 169.947
  20
 131.143
  30
0.0
   0
VERTEX
   8
LEVEL001
   6
CONTINUOUS
  62
7
  10
 169.149
  20
 133.611
  30
0.0
   0
VERTEX
   8
LEVEL001
   6
CONTINUOUS
  62
7
  10
 168.185
  20
 135.882
  30
0.0
   0
VERTEX
   8
LEVEL001
   6
CONTINUOUS
  62
7
  10
 167.070
  20
 137.921
  30
0.0
   0
VERTEX
   8
LEVEL001
   6
CONTINUOUS
  62
7
  10
 165.821
  20
 139.696
  30
0.0
   0
VERTEX
   8
LEVEL001
   6
CONTINUOUS
  62
7
  10
 164.458
  20
 141.180
  30
0.0
   0
VERTEX
   8
LEVEL001
   6
CONTINUOUS
  62
7
  10
 163.002
  20
 142.348
  30
0.0
   0
VERTEX
   8
LEVEL001
   6
CONTINUOUS
  62
7
  10
 162.075
  20
 142.899
  30
0.0
   0
SEQEND
   0
LINE
   8
LEVEL001
   6
CONTINUOUS
  62
7
  10
 182.500
  20
 505.000
  30
0.0
  11
 266.619
  21
 505.000
  31
0.0
   0
LINE
   8
LEVEL001
   6
CONTINUOUS
  62
7
  10
 266.896
  20
 506.995
  30
0.0
  11
 266.896
  21
 528.000
  31
0.0
   0
LINE
   8
LEVEL001
   6
CONTINUOUS
  62
7
  10
 271.913
  20
 214.447
  30
0.0
  11
 268.033
  21
 505.019
  31
0.0
   0
ARC
   8
LEVEL001
   6
CONTINUOUS
  62
7
  10
 229.500
  20
 503.000
  30
0.0
  40
 2.00000
  50
 90.0000
  51
 180.000
   0
ARC
   8
LEVEL001
   6
CONTINUOUS
  62
7
  10
 220.500
  20
 503.000
  30
0.0
  40
 2.00000
  50
 0.325689E-11
  51
 90.0000
   0
ARC
   8
LEVEL001
   6
CONTINUOUS
  62
7
  10
 209.000
  20
 150.083
  30
0.0
  40
 5.00000
  50
 270.000
  51
 0.130276E-11
   0
ARC
   8
LEVEL001
   6
CONTINUOUS
  62
7
  10
 241.000
  20
 150.083
  30
0.0
  40
 5.00000
  50
 180.000
  51
 270.000
   0
LINE
   8
LEVEL001
   6
CONTINUOUS
  62
7
  10
 222.500
  20
 281.658
  30
0.0
  11
 222.500
  21
 503.000
  31
0.0
   0
LINE
   8
LEVEL001
   6
CONTINUOUS
  62
7
  10
 227.500
  20
 281.658
  30
0.0
  11
 227.500
  21
 503.000
  31
0.0
   0
ARC
   8
LEVEL001
   6
CONTINUOUS
  62
7
  10
 217.000
  20
 270.000
  30
0.0
  40
 3.00000
  50
 88.1735
  51
 180.000
   0
ARC
   8
LEVEL001
   6
CONTINUOUS
  62
7
  10
 217.255
  20
 277.996
  30
0.0
  40
 5.00000
  50
 268.174
  51
 341.623
   0
ARC
   8
LEVEL001
   6
CONTINUOUS
  62
7
  10
 225.000
  20
 280.000
  30
0.0
  40
 3.00000
  50
0.0
  51
 180.000
   0
ARC
   8
LEVEL001
   6
CONTINUOUS
  62
7
  10
 233.000
  20
 270.000
  30
0.0
  40
 3.00000
  50
 0.217126E-11
  51
 91.8265
   0
ARC
   8
LEVEL001
   6
CONTINUOUS
  62
7
  10
 232.745
  20
 277.996
  30
0.0
  40
 5.00000
  50
 198.377
  51
 271.826
   0
ARC
   8
LEVEL001
   6
CONTINUOUS
  62
7
  10
 209.000
  20
 270.798
  30
0.0
  40
 5.00000
  50
0.0
  51
 90.0000
   0
ARC
   8
LEVEL001
   6
CONTINUOUS
  62
7
  10
 241.000
  20
 270.798
  30
0.0
  40
 5.00000
  50
 90.0000
  51
 180.000
   0
LINE
   8
LEVEL001
   6
CONTINUOUS
  62
7
  10
 214.000
  20
 270.798
  30
0.0
  11
 214.000
  21
 150.083
  31
0.0
   0
LINE
   8
LEVEL001
   6
CONTINUOUS
  62
7
  10
 236.000
  20
 270.798
  30
0.0
  11
 236.000
  21
 150.083
  31
0.0
   0
ARC
   8
LEVEL001
   6
CONTINUOUS
  62
7
  10
 219.000
  20
 136.000
  30
0.0
  40
 3.00000
  50
 270.000
  51
0.0
   0
ARC
   8
LEVEL001
   6
CONTINUOUS
  62
7
  10
 231.000
  20
 136.000
  30
0.0
  40
 3.00000
  50
 180.000
  51
 270.000
   0
LINE
   8
LEVEL001
   6
CONTINUOUS
  62
7
  10
 222.000
  20
 136.000
  30
0.0
  11
 222.000
  21
 280.000
  31
0.0
   0
LINE
   8
LEVEL001
   6
CONTINUOUS
  62
7
  10
 228.000
  20
 136.000
  30
0.0
  11
 228.000
  21
 280.000
  31
0.0
   0
ARC
   8
LEVEL001
   6
CONTINUOUS
  62
7
  10
 225.000
  20
 144.253
  30
0.0
  40
 3.00000
  50
 180.000
  51
0.0
   0
ARC
   8
LEVEL001
   6
CONTINUOUS
  62
7
  10
 233.000
  20
 154.252
  30
0.0
  40
 3.00000
  50
 268.174
  51
0.0
   0
ARC
   8
LEVEL001
   6
CONTINUOUS
  62
7
  10
 232.745
  20
 146.256
  30
0.0
  40
 5.00000
  50
 88.1735
  51
 161.623
   0
ARC
   8
LEVEL001
   6
CONTINUOUS
  62
7
  10
 217.000
  20
 154.252
  30
0.0
  40
 3.00000
  50
 180.000
  51
 271.826
   0
ARC
   8
LEVEL001
   6
CONTINUOUS
  62
7
  10
 217.255
  20
 146.256
  30
0.0
  40
 5.00000
  50
 18.3768
  51
 91.8265
   0
CIRCLE
   8
LEVEL003
   6
CONTINUOUS
  62
7
  10
 773.640
  20
 63.5731
  30
0.0
  40
 7.77600
   0
LINE
   8
LEVEL003
   6
CONTINUOUS
  62
7
  10
 788.902
  20
 71.3491
  30
0.0
  11
 779.026
  21
 54.2419
  31
0.0
   0
LINE
   8
LEVEL003
   6
CONTINUOUS
  62
7
  10
 779.026
  20
 54.2419
  30
0.0
  11
 759.273
  21
 54.2419
  31
0.0
   0
LINE
   8
LEVEL003
   6
CONTINUOUS
  62
7
  10
 757.028
  20
 50.3539
  30
0.0
  11
 792.334
  21
 50.3539
  31
0.0
   0
LINE
   8
LEVEL003
   6
CONTINUOUS
  62
7
  10
 792.334
  20
 50.3539
  30
0.0
  11
 804.454
  21
 71.3491
  31
0.0
   0
LINE
   8
LEVEL003
   6
CONTINUOUS
  62
7
  10
 804.454
  20
 71.3491
  30
0.0
  11
 788.902
  21
 71.3491
  31
0.0
   0
LINE
   8
LEVEL003
   6
CONTINUOUS
  62
7
  10
 759.273
  20
 54.2419
  30
0.0
  11
 757.028
  21
 50.3539
  31
0.0
   0
TEXT
   8
LEVEL003
  62
7
  10
 814.371
  20
 45.9833
  30
0.0
  40
 19.4400
   1
ＯＳＡＫＡ ＪＡＣＫ
   7
STANDARD
   0
TEXT
   8
LEVEL003
  62
7
  10
 814.724
  20
 84.5069
  30
0.0
  40
 12.9600
   1
Model : ＪＪ－２５３３
   7
STANDARD
   0
ENDSEC
   0
EOF
