   0
SECTION
   2
HEADER
   9
$LIMMIN
  10
0.0
  20
0.0
   9
$LIMMAX
  10
 1050.00
  20
 743.000
   9
$EXTMIN
  10
0.0
  20
0.0
   9
$EXTMAX
  10
 1050.00
  20
 743.000
   9
$LTSCALE
  40
 21.0000
   0
ENDSEC
   0
SECTION
   2
TABLES
  0
TABLE
  2
LTYPE
 70
    25
  0
LTYPE
  2
CONTINUOUS
 70
    64
  3
Solid line
 72
    65
 73
     0
 40
0.0
  0
LTYPE
  2
BORDER
 70
    64
  3
__ __ . __ __ . __ __ . __ __ . __ __ . __ __ .
 72
    65
 73
     6
 40
1.75
 49
0.5
 49
-0.25
 49
0.5
 49
-0.25
 49
0.0
 49
-0.25
  0
LTYPE
  2
BORDER2
 70
    64
  3
__.__.__.__.__.__.__.__.__.__.__.__.__.__.__.__
 72
    65
 73
     6
 40
0.875
 49
0.25
 49
-0.125
 49
0.25
 49
-0.125
 49
0.0
 49
-0.125
  0
LTYPE
  2
BORDERX2
 70
    64
  3
____  ____  .  ____  ____  .  ____  ____  .  __
 72
    65
 73
     6
 40
3.5
 49
1.0
 49
-0.5
 49
1.0
 49
-0.5
 49
0.0
 49
-0.5
  0
LTYPE
  2
CENTER
 70
    64
  3
____ _ ____ _ ____ _ ____ _ ____ _ ____ _ ____ 
 72
    65
 73
     4
 40
2.0
 49
1.25
 49
-0.25
 49
0.25
 49
-0.25
  0
LTYPE
  2
CENTER2
 70
    64
  3
___ _ ___ _ ___ _ ___ _ ___ _ ___ _ ___ _ ___ _
 72
    65
 73
     4
 40
1.125
 49
0.75
 49
-0.125
 49
0.125
 49
-0.125
  0
LTYPE
  2
CENTERX2
 70
    64
  3
________  __  ________  __  ________  __  _____
 72
    65
 73
     4
 40
4.0
 49
2.5
 49
-0.5
 49
0.5
 49
-0.5
  0
LTYPE
  2
DASHDOT
 70
    64
  3
__ . __ . __ . __ . __ . __ . __ . __ . __ . __
 72
    65
 73
     4
 40
1.0
 49
0.5
 49
-0.25
 49
0.0
 49
-0.25
  0
LTYPE
  2
DASHDOT2
 70
    64
  3
_._._._._._._._._._._._._._._._._._._._._._._._
 72
    65
 73
     4
 40
0.5
 49
0.25
 49
-0.125
 49
0.0
 49
-0.125
  0
LTYPE
  2
DASHDOTX2
 70
    64
  3
____  .  ____  .  ____  .  ____  .  ____  .  __
 72
    65
 73
     4
 40
2.0
 49
1.0
 49
-0.5
 49
0.0
 49
-0.5
  0
LTYPE
  2
DASHED
 70
    64
  3
__ __ __ __ __ __ __ __ __ __ __ __ __ __ __ __
 72
    65
 73
     2
 40
0.75
 49
0.5
 49
-0.25
  0
LTYPE
  2
DASHED2
 70
    64
  3
_ _ _ _ _ _ _ _ _ _ _ _ _ _ _ _ _ _ _ _ _ _ _ _
 72
    65
 73
     2
 40
0.375
 49
0.25
 49
-0.125
  0
LTYPE
  2
DASHEDX2
 70
    64
  3
____  ____  ____  ____  ____  ____  ____  ____ 
 72
    65
 73
     2
 40
1.5
 49
1.0
 49
-0.5
  0
LTYPE
  2
DIVIDE
 70
    64
  3
____ . . ____ . . ____ . . ____ . . ____ . . __
 72
    65
 73
     6
 40
1.25
 49
0.5
 49
-0.25
 49
0.0
 49
-0.25
 49
0.0
 49
-0.25
  0
LTYPE
  2
DIVIDE2
 70
    64
  3
__..__..__..__..__..__..__..__..__..__..__..__.
 72
    65
 73
     6
 40
0.625
 49
0.25
 49
-0.125
 49
0.0
 49
-0.125
 49
0.0
 49
-0.125
  0
LTYPE
  2
DIVIDEX2
 70
    64
  3
________  .  .  ________  .  .  ________  .  . 
 72
    65
 73
     6
 40
2.5
 49
1.0
 49
-0.5
 49
0.0
 49
-0.5
 49
0.0
 49
-0.5
  0
LTYPE
  2
DOT
 70
    64
  3
. . . . . . . . . . . . . . . . . . . . . . . .
 72
    65
 73
     2
 40
0.25
 49
0.0
 49
-0.25
  0
LTYPE
  2
DOT2
 70
    64
  3
...............................................
 72
    65
 73
     2
 40
0.125
 49
0.0
 49
-0.125
  0
LTYPE
  2
DOTX2
 70
    64
  3
.  .  .  .  .  .  .  .  .  .  .  .  .  .  .  . 
 72
    65
 73
     2
 40
0.5
 49
0.0
 49
-0.5
  0
LTYPE
  2
HIDDEN
 70
    64
  3
__ __ __ __ __ __ __ __ __ __ __ __ __ __ __ __
 72
    65
 73
     2
 40
0.375
 49
0.25
 49
-0.125
  0
LTYPE
  2
HIDDEN2
 70
    64
  3
_ _ _ _ _ _ _ _ _ _ _ _ _ _ _ _ _ _ _ _ _ _ _ _
 72
    65
 73
     2
 40
0.1875
 49
0.125
 49
-0.0625
  0
LTYPE
  2
HIDDENX2
 70
    64
  3
____ ____ ____ ____ ____ ____ ____ ____ ____ __
 72
    65
 73
     2
 40
0.75
 49
0.5
 49
-0.25
  0
LTYPE
  2
PHANTOM
 70
    64
  3
______  __  __  ______  __  __  ______  __  __ 
 72
    65
 73
     6
 40
2.5
 49
1.25
 49
-0.25
 49
0.25
 49
-0.25
 49
0.25
 49
-0.25
  0
LTYPE
  2
PHANTOM2
 70
    64
  3
___ _ _ ___ _ _ ___ _ _ ___ _ _ ___ _ _ ___ _ _
 72
    65
 73
     6
 40
1.25
 49
0.625
 49
-0.125
 49
0.125
 49
-0.125
 49
0.125
 49
-0.125
  0
LTYPE
  2
PHANTOMX2
 70
    64
  3
____________    ____    ____    ____________   
 72
    65
 73
     6
 40
5.0
 49
2.5
 49
-0.5
 49
0.5
 49
-0.5
 49
0.5
 49
-0.5
  0
ENDTAB
  0
TABLE
  2
STYLE
 70
     2
  0
STYLE
  2
STANDARD
 70
0
 40
0.0
 41
1.0
 50
0.0
 71
0
 42
0.2
  3
TXT
  4
BIGFONT
  0
STYLE
  2
STANDARD1
 70
     4
 40
0.0
 41
1.0
 50
0.0
 71
     0
 42
0.2
  3
TXT
  4
BIGFONT
  0
ENDTAB
   0
TABLE
   2
LAYER
  70
7
   0
LAYER
   2
0
  70
0
  62
7
   6
CONTINUOUS
   0
LAYER
   2
LEVEL001
  70
0
  62
7
   6
CONTINUOUS
   0
LAYER
   2
LEVEL003
  70
0
  62
7
   6
CONTINUOUS
   0
LAYER
   2
LEVEL020
  70
0
  62
7
   6
CONTINUOUS
   0
LAYER
   2
LEVEL050
  70
0
  62
7
   6
CONTINUOUS
   0
LAYER
   2
LEVEL100
  70
0
  62
-7
   6
CONTINUOUS
   0
LAYER
   2
LEVEL110
  70
0
  62
7
   6
CONTINUOUS
   0
ENDTAB
   0
ENDSEC
   0
SECTION
   2
ENTITIES
   0
LINE
   8
LEVEL100
   6
CONTINUOUS
  62
7
  10
 778.125
  20
 160.000
  30
0.0
  11
 778.125
  21
 142.500
  31
0.0
   0
LINE
   8
LEVEL100
   6
CONTINUOUS
  62
7
  10
 853.125
  20
 160.000
  30
0.0
  11
 853.125
  21
 102.500
  31
0.0
   0
LINE
   8
LEVEL100
   6
CONTINUOUS
  62
7
  10
 903.125
  20
 160.000
  30
0.0
  11
 903.125
  21
 142.500
  31
0.0
   0
LINE
   8
LEVEL100
   6
CONTINUOUS
  62
7
  10
 923.125
  20
 160.000
  30
0.0
  11
 923.125
  21
 142.500
  31
0.0
   0
LINE
   8
LEVEL100
   6
CONTINUOUS
  62
7
  10
 951.875
  20
 160.000
  30
0.0
  11
 951.875
  21
 142.500
  31
0.0
   0
LINE
   8
LEVEL100
   6
CONTINUOUS
  62
7
  10
 829.375
  20
 142.500
  30
0.0
  11
 829.375
  21
 102.500
  31
0.0
   0
LINE
   8
LEVEL100
   6
CONTINUOUS
  62
7
  10
 788.125
  20
 66.2500
  30
0.0
  11
 800.625
  21
 78.7500
  31
0.0
   0
CIRCLE
   8
LEVEL100
   6
CONTINUOUS
  62
7
  10
 770.625
  20
 28.7500
  30
0.0
  40
 1.00000
   0
CIRCLE
   8
LEVEL100
   6
CONTINUOUS
  62
7
  10
 788.125
  20
 28.7500
  30
0.0
  40
 1.00000
   0
CIRCLE
   8
LEVEL100
   6
CONTINUOUS
  62
7
  10
 770.625
  20
 28.7500
  30
0.0
  40
 0.625000
   0
CIRCLE
   8
LEVEL100
   6
CONTINUOUS
  62
7
  10
 788.125
  20
 28.7500
  30
0.0
  40
 0.625000
   0
LINE
   8
LEVEL100
   6
CONTINUOUS
  62
7
  10
 865.000
  20
 38.7500
  30
0.0
  11
 865.000
  21
 41.2500
  31
0.0
   0
LINE
   8
LEVEL100
   6
CONTINUOUS
  62
7
  10
 865.000
  20
 41.2500
  30
0.0
  11
 872.500
  21
 41.2500
  31
0.0
   0
LINE
   8
LEVEL100
   6
CONTINUOUS
  62
7
  10
 872.500
  20
 41.2500
  30
0.0
  11
 872.500
  21
 38.7500
  31
0.0
   0
LINE
   8
LEVEL100
   6
CONTINUOUS
  62
7
  10
 872.500
  20
 38.7500
  30
0.0
  11
 865.000
  21
 38.7500
  31
0.0
   0
LINE
   8
LEVEL100
   6
CONTINUOUS
  62
7
  10
 753.125
  20
 25.0000
  30
0.0
  11
 753.125
  21
 160.000
  31
0.0
   0
LINE
   8
LEVEL100
   6
CONTINUOUS
  62
7
  10
 805.625
  20
 142.500
  30
0.0
  11
 805.625
  21
 25.0000
  31
0.0
   0
LINE
   8
LEVEL100
   6
CONTINUOUS
  62
7
  10
 753.125
  20
 82.5000
  30
0.0
  11
 805.625
  21
 82.5000
  31
0.0
   0
TEXT
   8
LEVEL100
  62
7
  10
 814.375
  20
 33.7500
  30
0.0
  40
 12.5000
   1
ＯＪ
  41
 0.700000
   7
STANDARD
   0
LINE
   8
LEVEL100
   6
CONTINUOUS
  62
7
  10
 753.125
  20
 142.500
  30
0.0
  11
 1020.38
  21
 142.500
  31
0.0
   0
LINE
   8
LEVEL100
   6
CONTINUOUS
  62
7
  10
 753.125
  20
 132.500
  30
0.0
  11
 1020.38
  21
 132.500
  31
0.0
   0
LINE
   8
LEVEL100
   6
CONTINUOUS
  62
7
  10
 753.125
  20
 160.000
  30
0.0
  11
 1020.38
  21
 160.000
  31
0.0
   0
LINE
   8
LEVEL100
   6
CONTINUOUS
  62
7
  10
 817.875
  20
 657.500
  30
0.0
  11
 817.875
  21
 720.000
  31
0.0
   0
LINE
   8
LEVEL100
   6
CONTINUOUS
  62
7
  10
 817.875
  20
 707.500
  30
0.0
  11
 1020.38
  21
 707.500
  31
0.0
   0
LINE
   8
LEVEL100
   6
CONTINUOUS
  62
7
  10
 817.875
  20
 695.000
  30
0.0
  11
 1020.38
  21
 695.000
  31
0.0
   0
LINE
   8
LEVEL100
   6
CONTINUOUS
  62
7
  10
 840.375
  20
 707.500
  30
0.0
  11
 840.375
  21
 695.000
  31
0.0
   0
LINE
   8
LEVEL100
   6
CONTINUOUS
  62
7
  10
 970.375
  20
 707.500
  30
0.0
  11
 970.375
  21
 695.000
  31
0.0
   0
LINE
   8
LEVEL100
   6
CONTINUOUS
  62
7
  10
 1000.38
  20
 707.500
  30
0.0
  11
 1000.38
  21
 695.000
  31
0.0
   0
LINE
   8
LEVEL100
   6
CONTINUOUS
  62
7
  10
 753.125
  20
 102.500
  30
0.0
  11
 1020.38
  21
 102.500
  31
0.0
   0
LINE
   8
LEVEL100
   6
CONTINUOUS
  62
7
  10
 753.125
  20
 62.5000
  30
0.0
  11
 1020.38
  21
 62.5000
  31
0.0
   0
LINE
   8
LEVEL100
   6
CONTINUOUS
  62
7
  10
 950.375
  20
 62.5000
  30
0.0
  11
 950.375
  21
 25.0000
  31
0.0
   0
LINE
   8
LEVEL100
   6
CONTINUOUS
  62
7
  10
 960.375
  20
 25.0000
  30
0.0
  11
 1002.88
  21
 50.0000
  31
0.0
   0
LINE
   8
LEVEL100
   6
CONTINUOUS
  62
7
  10
 62.5000
  20
 720.000
  30
0.0
  11
 1020.38
  21
 720.000
  31
0.0
   0
LINE
   8
LEVEL100
   6
CONTINUOUS
  62
7
  10
 1020.38
  20
 720.000
  30
0.0
  11
 1020.38
  21
 25.0000
  31
0.0
   0
LINE
   8
LEVEL100
   6
CONTINUOUS
  62
7
  10
 1020.38
  20
 25.0000
  30
0.0
  11
 62.5000
  21
 25.0000
  31
0.0
   0
LINE
   8
LEVEL100
   6
CONTINUOUS
  62
7
  10
 62.5000
  20
 698.000
  30
0.0
  11
 187.875
  21
 698.000
  31
0.0
   0
LINE
   8
LEVEL100
   6
CONTINUOUS
  62
7
  10
 187.875
  20
 698.000
  30
0.0
  11
 187.875
  21
 720.000
  31
0.0
   0
TEXT
   8
LEVEL100
  62
7
  10
 185.375
  20
 715.250
  30
0.0
  40
 12.5000
   1
ＯＪ．
  50
 180.000
  41
 0.900000
   7
STANDARD
   0
LINE
   8
LEVEL100
   6
CONTINUOUS
  62
7
  10
 142.875
  20
 710.250
  30
0.0
  11
 135.375
  21
 710.250
  31
0.0
   0
LINE
   8
LEVEL100
   6
CONTINUOUS
  62
7
  10
 135.375
  20
 710.250
  30
0.0
  11
 135.375
  21
 707.750
  31
0.0
   0
LINE
   8
LEVEL100
   6
CONTINUOUS
  62
7
  10
 135.375
  20
 707.750
  30
0.0
  11
 142.875
  21
 707.750
  31
0.0
   0
LINE
   8
LEVEL100
   6
CONTINUOUS
  62
7
  10
 142.875
  20
 707.750
  30
0.0
  11
 142.875
  21
 710.250
  31
0.0
   0
TEXT
   8
LEVEL100
  62
7
  10
 780.625
  20
 145.000
  30
0.0
  40
 10.0000
   1
Ｓ．ＩＭＡＮＩＳＨＩ
  41
 0.625000
   7
STANDARD
   0
CIRCLE
   8
LEVEL001
   6
CONTINUOUS
  62
7
  10
 602.500
  20
 210.500
  30
0.0
  40
 11.0000
   0
LINE
   8
LEVEL001
   6
CONTINUOUS
  62
7
  10
 603.500
  20
 221.500
  30
0.0
  11
 603.500
  21
 225.100
  31
0.0
   0
CIRCLE
   8
LEVEL001
   6
CONTINUOUS
  62
7
  10
 605.500
  20
 223.100
  30
0.0
  40
 1.00000
   0
ARC
   8
LEVEL001
   6
CONTINUOUS
  62
7
  10
 609.500
  20
 221.962
  30
0.0
  40
 2.00000
  50
 180.001
  51
 240.580
   0
ARC
   8
LEVEL001
   6
CONTINUOUS
  62
7
  10
 605.500
  20
 223.100
  30
0.0
  40
 2.00000
  50
 0.328703E-3
  51
 90.0002
   0
LINE
   8
LEVEL001
   6
CONTINUOUS
  62
7
  10
 603.500
  20
 225.100
  30
0.0
  11
 605.500
  21
 225.100
  31
0.0
   0
LINE
   8
LEVEL001
   6
CONTINUOUS
  62
7
  10
 607.500
  20
 223.100
  30
0.0
  11
 607.500
  21
 221.962
  31
0.0
   0
LINE
   8
LEVEL001
   6
CONTINUOUS
  62
7
  10
 601.500
  20
 221.500
  30
0.0
  11
 601.500
  21
 225.100
  31
0.0
   0
CIRCLE
   8
LEVEL001
   6
CONTINUOUS
  62
7
  10
 599.500
  20
 223.100
  30
0.0
  40
 1.00000
   0
ARC
   8
LEVEL001
   6
CONTINUOUS
  62
7
  10
 595.500
  20
 221.962
  30
0.0
  40
 2.00000
  50
 299.420
  51
 0.170987E-10
   0
ARC
   8
LEVEL001
   6
CONTINUOUS
  62
7
  10
 599.500
  20
 223.100
  30
0.0
  40
 2.00000
  50
 89.9998
  51
 180.000
   0
LINE
   8
LEVEL001
   6
CONTINUOUS
  62
7
  10
 601.500
  20
 225.100
  30
0.0
  11
 599.500
  21
 225.100
  31
0.0
   0
LINE
   8
LEVEL001
   6
CONTINUOUS
  62
7
  10
 597.500
  20
 223.100
  30
0.0
  11
 597.500
  21
 221.962
  31
0.0
   0
ARC
   8
LEVEL001
   6
CONTINUOUS
  62
7
  10
 602.500
  20
 209.550
  30
0.0
  40
 12.2500
  50
 119.421
  51
 60.5785
   0
CIRCLE
   8
LEVEL001
   6
CONTINUOUS
  62
7
  10
 602.500
  20
 210.500
  30
0.0
  40
 17.5000
   0
ARC
   8
LEVEL001
   6
CONTINUOUS
  62
7
  10
 566.739
  20
 214.642
  30
0.0
  40
 8.00000
  50
 272.001
  51
 353.393
   0
ARC
   8
LEVEL001
   6
CONTINUOUS
  62
7
  10
 549.500
  20
 205.034
  30
0.0
  40
 1.00000
  50
 91.9990
  51
 180.002
   0
ARC
   8
LEVEL001
   6
CONTINUOUS
  62
7
  10
 549.500
  20
 164.966
  30
0.0
  40
 1.00000
  50
 180.000
  51
 268.001
   0
LINE
   8
LEVEL001
   6
CONTINUOUS
  62
7
  10
 548.500
  20
 164.966
  30
0.0
  11
 548.500
  21
 205.034
  31
0.0
   0
LINE
   8
LEVEL001
   6
CONTINUOUS
  62
7
  10
 549.465
  20
 206.034
  30
0.0
  11
 567.018
  21
 206.647
  31
0.0
   0
ARC
   8
LEVEL001
   6
CONTINUOUS
  62
7
  10
 655.500
  20
 164.966
  30
0.0
  40
 1.00000
  50
 271.999
  51
 0.114398E-3
   0
LINE
   8
LEVEL001
   6
CONTINUOUS
  62
7
  10
 656.500
  20
 164.966
  30
0.0
  11
 656.500
  21
 205.034
  31
0.0
   0
ARC
   8
LEVEL001
   6
CONTINUOUS
  62
7
  10
 655.500
  20
 205.034
  30
0.0
  40
 1.00000
  50
 359.998
  51
 88.0010
   0
LINE
   8
LEVEL001
   6
CONTINUOUS
  62
7
  10
 655.535
  20
 206.034
  30
0.0
  11
 637.982
  21
 206.647
  31
0.0
   0
ARC
   8
LEVEL001
   6
CONTINUOUS
  62
7
  10
 638.261
  20
 214.642
  30
0.0
  40
 8.00000
  50
 186.607
  51
 267.999
   0
ARC
   8
LEVEL001
   6
CONTINUOUS
  62
7
  10
 602.500
  20
 210.500
  30
0.0
  40
 28.0000
  50
 6.60600
  51
 173.394
   0
CIRCLE
   8
LEVEL001
   6
CONTINUOUS
  62
7
  10
 605.000
  20
 146.500
  30
0.0
  40
 5.00000
   0
ARC
   8
LEVEL001
   6
CONTINUOUS
  62
7
  10
 573.888
  20
 146.103
  30
0.0
  40
 5.00000
  50
 187.724
  51
 268.000
   0
ARC
   8
LEVEL001
   6
CONTINUOUS
  62
7
  10
 563.867
  20
 160.462
  30
0.0
  40
 3.00000
  50
 7.72403
  51
 88.0000
   0
LINE
   8
LEVEL001
   6
CONTINUOUS
  62
7
  10
 568.933
  20
 145.431
  30
0.0
  11
 566.840
  21
 160.865
  31
0.0
   0
LINE
   8
LEVEL001
   6
DASHDOT
  62
1
  10
 597.500
  20
 146.500
  30
0.0
  11
 612.500
  21
 146.500
  31
0.0
   0
LINE
   8
LEVEL001
   6
DASHDOT
  62
1
  10
 542.500
  20
 185.000
  30
0.0
  11
 677.500
  21
 185.000
  31
0.0
   0
LINE
   8
LEVEL001
   6
CONTINUOUS
  62
7
  10
 550.000
  20
 206.052
  30
0.0
  11
 550.000
  21
 207.453
  31
0.0
   0
ARC
   8
LEVEL001
   6
CONTINUOUS
  62
7
  10
 566.739
  20
 214.642
  30
0.0
  40
 6.60000
  50
 272.000
  51
 353.394
   0
LINE
   8
LEVEL001
   6
CONTINUOUS
  62
7
  10
 550.000
  20
 207.453
  30
0.0
  11
 566.969
  21
 208.046
  31
0.0
   0
LINE
   8
LEVEL001
   6
DASHDOT
  62
1
  10
 557.856
  20
 197.512
  30
0.0
  11
 557.294
  21
 213.608
  31
0.0
   0
ARC
   8
LEVEL001
   6
CONTINUOUS
  62
7
  10
 556.005
  20
 207.536
  30
0.0
  40
 3.00000
  50
 130.681
  51
 179.583
   0
ARC
   8
LEVEL001
   6
CONTINUOUS
  62
7
  10
 559.004
  20
 207.641
  30
0.0
  40
 3.00000
  50
 4.41705
  51
 53.3159
   0
LINE
   8
LEVEL001
   6
DASHDOT
  62
1
  10
 580.000
  20
 210.500
  30
0.0
  11
 625.000
  21
 210.500
  31
0.0
   0
LINE
   8
LEVEL001
   6
CONTINUOUS
  62
7
  10
 655.000
  20
 206.052
  30
0.0
  11
 655.000
  21
 207.453
  31
0.0
   0
LINE
   8
LEVEL001
   6
CONTINUOUS
  62
7
  10
 655.000
  20
 207.453
  30
0.0
  11
 638.031
  21
 208.046
  31
0.0
   0
ARC
   8
LEVEL001
   6
CONTINUOUS
  62
7
  10
 648.995
  20
 207.536
  30
0.0
  40
 3.00000
  50
 0.417847
  51
 49.3211
   0
LINE
   8
LEVEL001
   6
DASHDOT
  62
1
  10
 647.144
  20
 197.512
  30
0.0
  11
 647.706
  21
 213.608
  31
0.0
   0
ARC
   8
LEVEL001
   6
CONTINUOUS
  62
7
  10
 645.996
  20
 207.641
  30
0.0
  40
 3.00000
  50
 126.684
  51
 175.583
   0
ARC
   8
LEVEL001
   6
CONTINUOUS
  62
7
  10
 638.261
  20
 214.642
  30
0.0
  40
 6.60000
  50
 186.606
  51
 268.000
   0
ARC
   8
LEVEL001
   6
CONTINUOUS
  62
7
  10
 602.500
  20
 210.500
  30
0.0
  40
 29.4000
  50
 6.60634
  51
 173.394
   0
ARC
   8
LEVEL001
   6
CONTINUOUS
  62
7
  10
 605.000
  20
 220.500
  30
0.0
  40
 84.0000
  50
 255.696
  51
 284.304
   0
ARC
   8
LEVEL001
   6
CONTINUOUS
  62
7
  10
 584.000
  20
 140.135
  30
0.0
  40
 1.00000
  50
 270.001
  51
 0.217718E-3
   0
ARC
   8
LEVEL001
   6
CONTINUOUS
  62
7
  10
 626.000
  20
 138.135
  30
0.0
  40
 1.00000
  50
 0.993351E-10
  51
 104.304
   0
ARC
   8
LEVEL001
   6
CONTINUOUS
  62
7
  10
 626.000
  20
 140.135
  30
0.0
  40
 1.00000
  50
 180.000
  51
 269.999
   0
ARC
   8
LEVEL001
   6
CONTINUOUS
  62
7
  10
 626.000
  20
 130.201
  30
0.0
  40
 1.00000
  50
 284.653
  51
 359.998
   0
ARC
   8
LEVEL001
   6
CONTINUOUS
  62
7
  10
 605.000
  20
 210.500
  30
0.0
  40
 84.0000
  50
 255.344
  51
 284.656
   0
LINE
   8
LEVEL001
   6
CONTINUOUS
  62
7
  10
 627.000
  20
 130.201
  30
0.0
  11
 627.000
  21
 138.135
  31
0.0
   0
LINE
   8
LEVEL001
   6
CONTINUOUS
  62
7
  10
 583.000
  20
 130.201
  30
0.0
  11
 583.000
  21
 138.135
  31
0.0
   0
ARC
   8
LEVEL001
   6
CONTINUOUS
  62
7
  10
 584.000
  20
 130.201
  30
0.0
  40
 1.00000
  50
 180.002
  51
 255.347
   0
ARC
   8
LEVEL001
   6
CONTINUOUS
  62
7
  10
 584.000
  20
 138.135
  30
0.0
  40
 1.00000
  50
 89.9987
  51
 180.000
   0
ARC
   8
LEVEL001
   6
CONTINUOUS
  62
7
  10
 578.000
  20
 135.953
  30
0.0
  40
 5.00000
  50
 0.130276E-11
  51
 87.9997
   0
LINE
   8
LEVEL001
   6
CONTINUOUS
  62
7
  10
 573.713
  20
 141.106
  30
0.0
  11
 578.175
  21
 140.950
  31
0.0
   0
ARC
   8
LEVEL001
   6
CONTINUOUS
  62
7
  10
 582.000
  20
 159.828
  30
0.0
  40
 3.00000
  50
 0.108563E-11
  51
 87.9996
   0
LINE
   8
LEVEL001
   6
CONTINUOUS
  62
7
  10
 549.465
  20
 163.966
  30
0.0
  11
 582.105
  21
 162.827
  31
0.0
   0
ARC
   8
LEVEL001
   6
CONTINUOUS
  62
7
  10
 628.000
  20
 160.003
  30
0.0
  40
 3.00000
  50
 91.9997
  51
 180.000
   0
LINE
   8
LEVEL001
   6
CONTINUOUS
  62
7
  10
 655.535
  20
 163.966
  30
0.0
  11
 627.895
  21
 163.001
  31
0.0
   0
ARC
   8
LEVEL001
   6
CONTINUOUS
  62
7
  10
 660.918
  20
 129.376
  30
0.0
  40
 35.0000
  50
 98.6562
  51
 165.918
   0
LINE
   8
LEVEL001
   6
DASHDOT
  62
1
  10
 605.000
  20
 122.500
  30
0.0
  11
 605.000
  21
 185.000
  31
0.0
   0
LINE
   8
LEVEL001
   6
DASHDOT
  62
1
  10
 225.284
  20
 210.500
  30
0.0
  11
 395.000
  21
 210.500
  31
0.0
   0
LINE
   8
LEVEL003
   6
CONTINUOUS
  62
7
  10
 144.784
  20
 123.500
  30
0.0
  11
 144.784
  21
 135.500
  31
0.0
   0
LINE
   8
LEVEL003
   6
CONTINUOUS
  62
7
  10
 149.284
  20
 135.500
  30
0.0
  11
 149.284
  21
 145.500
  31
0.0
   0
LINE
   8
LEVEL003
   6
CONTINUOUS
  62
7
  10
 305.784
  20
 123.500
  30
0.0
  11
 305.784
  21
 135.500
  31
0.0
   0
LINE
   8
LEVEL003
   6
CONTINUOUS
  62
7
  10
 301.284
  20
 135.500
  30
0.0
  11
 301.284
  21
 145.500
  31
0.0
   0
ARC
   8
LEVEL003
   6
CONTINUOUS
  62
7
  10
 154.284
  20
 114.500
  30
0.0
  40
 3.00000
  50
 180.000
  51
 270.000
   0
LINE
   8
LEVEL003
   6
CONTINUOUS
  62
7
  10
 151.284
  20
 123.500
  30
0.0
  11
 151.284
  21
 114.500
  31
0.0
   0
LINE
   8
LEVEL003
   6
CONTINUOUS
  62
7
  10
 299.284
  20
 123.500
  30
0.0
  11
 299.284
  21
 114.500
  31
0.0
   0
ARC
   8
LEVEL003
   6
CONTINUOUS
  62
7
  10
 296.284
  20
 114.500
  30
0.0
  40
 3.00000
  50
 270.000
  51
 0.341511E-4
   0
LINE
   8
LEVEL003
   6
CONTINUOUS
  62
7
  10
 154.284
  20
 111.500
  30
0.0
  11
 296.284
  21
 111.500
  31
0.0
   0
LINE
   8
LEVEL001
   6
DASHDOT
  62
1
  10
 262.784
  20
 115.250
  30
0.0
  11
 262.784
  21
 110.750
  31
0.0
   0
LINE
   8
LEVEL001
   6
DASHDOT
  62
1
  10
 242.784
  20
 115.250
  30
0.0
  11
 242.784
  21
 110.750
  31
0.0
   0
LINE
   8
LEVEL001
   6
DASHDOT
  62
1
  10
 280.284
  20
 115.250
  30
0.0
  11
 280.284
  21
 110.750
  31
0.0
   0
LINE
   8
LEVEL001
   6
DASHDOT
  62
1
  10
 187.784
  20
 115.250
  30
0.0
  11
 187.784
  21
 110.750
  31
0.0
   0
LINE
   8
LEVEL001
   6
DASHDOT
  62
1
  10
 207.784
  20
 115.250
  30
0.0
  11
 207.784
  21
 110.750
  31
0.0
   0
LINE
   8
LEVEL001
   6
DASHDOT
  62
1
  10
 170.284
  20
 115.250
  30
0.0
  11
 170.284
  21
 110.750
  31
0.0
   0
LINE
   8
LEVEL001
   6
CONTINUOUS
  62
7
  10
 334.284
  20
 185.763
  30
0.0
  11
 304.284
  21
 150.500
  31
0.0
   0
LINE
   8
LEVEL001
   6
CONTINUOUS
  62
7
  10
 299.284
  20
 150.500
  30
0.0
  11
 304.284
  21
 150.500
  31
0.0
   0
LINE
   8
LEVEL001
   6
CONTINUOUS
  62
7
  10
 337.284
  20
 188.000
  30
0.0
  11
 335.290
  21
 185.843
  31
0.0
   0
ARC
   8
LEVEL001
   6
CONTINUOUS
  62
7
  10
 314.284
  20
 169.138
  30
0.0
  40
 15.0000
  50
 94.5140
  51
 180.000
   0
LINE
   8
LEVEL001
   6
CONTINUOUS
  62
7
  10
 313.104
  20
 184.091
  30
0.0
  11
 335.290
  21
 185.843
  31
0.0
   0
LINE
   8
LEVEL003
   6
CONTINUOUS
  62
7
  10
 299.284
  20
 145.500
  30
0.0
  11
 299.284
  21
 169.138
  31
0.0
   0
LINE
   8
LEVEL001
   6
CONTINUOUS
  62
7
  10
 313.104
  20
 236.909
  30
0.0
  11
 335.290
  21
 235.157
  31
0.0
   0
LINE
   8
LEVEL001
   6
CONTINUOUS
  62
7
  10
 337.284
  20
 233.000
  30
0.0
  11
 335.290
  21
 235.157
  31
0.0
   0
ARC
   8
LEVEL001
   6
CONTINUOUS
  62
7
  10
 283.785
  20
 252.154
  30
0.0
  40
 15.5000
  50
 359.453
  51
 57.8708
   0
ARC
   8
LEVEL001
   6
CONTINUOUS
  62
7
  10
 314.284
  20
 251.862
  30
0.0
  40
 15.0000
  50
 179.453
  51
 265.486
   0
LINE
   8
LEVEL001
   6
CONTINUOUS
  62
7
  10
 277.784
  20
 444.500
  30
0.0
  11
 280.284
  21
 444.500
  31
0.0
   0
ARC
   8
LEVEL001
   6
CONTINUOUS
  62
7
  10
 100.518
  20
 270.858
  30
0.0
  40
 65.5000
  50
 332.564
  51
 355.808
   0
ARC
   8
LEVEL001
   6
CONTINUOUS
  62
7
  10
 216.784
  20
 210.500
  30
0.0
  40
 65.5000
  50
 152.564
  51
 180.000
   0
ARC
   8
LEVEL001
   6
CONTINUOUS
  62
7
  10
 174.784
  20
 444.500
  30
0.0
  40
 2.00000
  50
 90.0003
  51
 180.000
   0
LINE
   8
LEVEL001
   6
CONTINUOUS
  62
7
  10
 172.784
  20
 444.500
  30
0.0
  11
 172.784
  21
 430.500
  31
0.0
   0
ARC
   8
LEVEL001
   6
CONTINUOUS
  62
7
  10
 175.596
  20
 426.500
  30
0.0
  40
 2.00000
  50
 355.808
  51
 89.9999
   0
LINE
   8
LEVEL001
   6
CONTINUOUS
  62
7
  10
 174.784
  20
 428.500
  30
0.0
  11
 175.596
  21
 428.500
  31
0.0
   0
LINE
   8
LEVEL001
   6
CONTINUOUS
  62
7
  10
 177.591
  20
 426.354
  30
0.0
  11
 165.843
  21
 266.070
  31
0.0
   0
LINE
   8
LEVEL001
   6
CONTINUOUS
  62
7
  10
 156.334
  20
 300.500
  30
0.0
  11
 151.391
  21
 214.247
  31
0.0
   0
ARC
   8
LEVEL001
   6
CONTINUOUS
  62
7
  10
 172.317
  20
 427.351
  30
0.0
  40
 2.00000
  50
 351.923
  51
 51.9219
   0
LINE
   8
LEVEL001
   6
CONTINUOUS
  62
7
  10
 174.297
  20
 427.070
  30
0.0
  11
 156.334
  21
 300.500
  31
0.0
   0
ARC
   8
LEVEL001
   6
CONTINUOUS
  62
7
  10
 174.784
  20
 430.500
  30
0.0
  40
 2.00000
  50
 180.000
  51
 231.922
   0
ARC
   8
LEVEL001
   6
CONTINUOUS
  62
7
  10
 294.042
  20
 275.759
  30
0.0
  40
 10.0000
  50
 184.192
  51
 239.506
   0
ARC
   8
LEVEL001
   6
CONTINUOUS
  62
7
  10
 225.284
  20
 159.000
  30
0.0
  40
 125.500
  50
 57.8707
  51
 59.5064
   0
ARC
   8
LEVEL001
   6
CONTINUOUS
  62
7
  10
 275.784
  20
 444.500
  30
0.0
  40
 2.00000
  50
0.0
  51
 90.0002
   0
LINE
   8
LEVEL001
   6
CONTINUOUS
  62
7
  10
 280.284
  20
 444.500
  30
0.0
  11
 280.284
  21
 403.500
  31
0.0
   0
ARC
   8
LEVEL001
   6
CONTINUOUS
  62
7
  10
 343.023
  20
 270.606
  30
0.0
  40
 35.0000
  50
 192.277
  51
 240.000
   0
LINE
   8
LEVEL001
   6
CONTINUOUS
  62
7
  10
 334.284
  20
 235.237
  30
0.0
  11
 325.523
  21
 240.295
  31
0.0
   0
ARC
   8
LEVEL001
   6
CONTINUOUS
  62
7
  10
 280.975
  20
 400.540
  30
0.0
  40
 2.00000
  50
 132.277
  51
 192.275
   0
LINE
   8
LEVEL001
   6
CONTINUOUS
  62
7
  10
 279.021
  20
 400.115
  30
0.0
  11
 308.824
  21
 263.163
  31
0.0
   0
ARC
   8
LEVEL001
   6
CONTINUOUS
  62
7
  10
 278.284
  20
 403.500
  30
0.0
  40
 2.00000
  50
 312.277
  51
0.0
   0
ARC
   8
LEVEL001
   6
CONTINUOUS
  62
7
  10
 276.951
  20
 399.500
  30
0.0
  40
 2.00000
  50
 90.0000
  51
 184.193
   0
LINE
   8
LEVEL001
   6
CONTINUOUS
  62
7
  10
 276.951
  20
 401.500
  30
0.0
  11
 278.284
  21
 401.500
  31
0.0
   0
LINE
   8
LEVEL001
   6
CONTINUOUS
  62
7
  10
 287.884
  20
 441.000
  30
0.0
  11
 287.884
  21
 428.000
  31
0.0
   0
LINE
   8
LEVEL001
   6
CONTINUOUS
  62
7
  10
 280.284
  20
 428.000
  30
0.0
  11
 287.884
  21
 428.000
  31
0.0
   0
LINE
   8
LEVEL001
   6
CONTINUOUS
  62
7
  10
 287.884
  20
 428.000
  30
0.0
  11
 288.284
  21
 428.693
  31
0.0
   0
LINE
   8
LEVEL001
   6
CONTINUOUS
  62
7
  10
 288.284
  20
 428.693
  30
0.0
  11
 288.284
  21
 440.307
  31
0.0
   0
LINE
   8
LEVEL001
   6
CONTINUOUS
  62
7
  10
 288.284
  20
 440.307
  30
0.0
  11
 287.884
  21
 441.000
  31
0.0
   0
LINE
   8
LEVEL001
   6
CONTINUOUS
  62
7
  10
 287.884
  20
 441.000
  30
0.0
  11
 280.284
  21
 441.000
  31
0.0
   0
LINE
   8
LEVEL001
   6
CONTINUOUS
  62
7
  10
 287.884
  20
 419.000
  30
0.0
  11
 287.884
  21
 406.000
  31
0.0
   0
LINE
   8
LEVEL001
   6
CONTINUOUS
  62
7
  10
 280.284
  20
 406.000
  30
0.0
  11
 287.884
  21
 406.000
  31
0.0
   0
LINE
   8
LEVEL001
   6
CONTINUOUS
  62
7
  10
 287.884
  20
 406.000
  30
0.0
  11
 288.284
  21
 406.693
  31
0.0
   0
LINE
   8
LEVEL001
   6
CONTINUOUS
  62
7
  10
 288.284
  20
 406.693
  30
0.0
  11
 288.284
  21
 418.307
  31
0.0
   0
LINE
   8
LEVEL001
   6
CONTINUOUS
  62
7
  10
 288.284
  20
 418.307
  30
0.0
  11
 287.884
  21
 419.000
  31
0.0
   0
LINE
   8
LEVEL001
   6
CONTINUOUS
  62
7
  10
 287.884
  20
 419.000
  30
0.0
  11
 280.284
  21
 419.000
  31
0.0
   0
LINE
   8
LEVEL001
   6
DASHDOT
  62
1
  10
 291.284
  20
 434.500
  30
0.0
  11
 256.250
  21
 434.500
  31
0.0
   0
LINE
   8
LEVEL001
   6
DASHDOT
  62
1
  10
 291.284
  20
 412.500
  30
0.0
  11
 256.250
  21
 412.500
  31
0.0
   0
ARC
   8
LEVEL001
   6
CONTINUOUS
  62
7
  10
 180.784
  20
 458.500
  30
0.0
  40
 3.00000
  50
 90.0001
  51
 180.000
   0
LINE
   8
LEVEL001
   6
CONTINUOUS
  62
7
  10
 177.784
  20
 446.500
  30
0.0
  11
 177.784
  21
 458.500
  31
0.0
   0
ARC
   8
LEVEL001
   6
CONTINUOUS
  62
7
  10
 269.784
  20
 458.500
  30
0.0
  40
 3.00000
  50
 0.147987E-3
  51
 89.9999
   0
LINE
   8
LEVEL001
   6
CONTINUOUS
  62
7
  10
 272.784
  20
 446.500
  30
0.0
  11
 272.784
  21
 458.500
  31
0.0
   0
LINE
   8
LEVEL001
   6
CONTINUOUS
  62
7
  10
 180.784
  20
 461.500
  30
0.0
  11
 269.784
  21
 461.500
  31
0.0
   0
LINE
   8
LEVEL001
   6
DASHDOT
  62
1
  10
 190.284
  20
 462.250
  30
0.0
  11
 190.284
  21
 457.750
  31
0.0
   0
LINE
   8
LEVEL001
   6
DASHDOT
  62
1
  10
 210.284
  20
 462.250
  30
0.0
  11
 210.284
  21
 457.750
  31
0.0
   0
LINE
   8
LEVEL001
   6
DASHDOT
  62
1
  10
 260.284
  20
 462.250
  30
0.0
  11
 260.284
  21
 457.750
  31
0.0
   0
LINE
   8
LEVEL001
   6
DASHDOT
  62
1
  10
 240.284
  20
 462.250
  30
0.0
  11
 240.284
  21
 457.750
  31
0.0
   0
LINE
   8
LEVEL003
   6
DASHDOT
  62
1
  10
 225.284
  20
 468.750
  30
0.0
  11
 225.284
  21
 100.000
  31
0.0
   0
LINE
   8
LEVEL001
   6
DASHDOT
  62
1
  10
 287.784
  20
 129.500
  30
0.0
  11
 308.784
  21
 129.500
  31
0.0
   0
TEXT
   8
LEVEL020
  62
6
  10
 362.500
  20
 600.000
  30
0.0
  40
 12.5000
   1
ストローク
   7
STANDARD
   0
TEXT
   8
LEVEL020
  62
6
  10
 362.500
  20
 617.500
  30
0.0
  40
 12.5000
   1
揚　　　力
   7
STANDARD
   0
TEXT
   8
LEVEL020
  62
6
  10
 575.000
  20
 600.000
  30
0.0
  40
 12.5000
   1
ｍｍ
  41
 0.700000
   7
STANDARD
   0
LINE
   8
LEVEL020
   6
CONTINUOUS
  62
6
  10
 362.500
  20
 632.500
  30
0.0
  11
 612.500
  21
 632.500
  31
0.0
   0
LINE
   8
LEVEL020
   6
CONTINUOUS
  62
6
  10
 362.500
  20
 615.000
  30
0.0
  11
 612.500
  21
 615.000
  31
0.0
   0
LINE
   8
LEVEL020
   6
CONTINUOUS
  62
6
  10
 362.500
  20
 597.500
  30
0.0
  11
 612.500
  21
 597.500
  31
0.0
   0
TEXT
   8
LEVEL020
  62
6
  10
 362.500
  20
 635.000
  30
0.0
  40
 12.5000
   1
形　　　式
   7
STANDARD
   0
TEXT
   8
LEVEL020
  62
6
  10
 362.500
  20
 652.500
  30
0.0
  40
 12.5000
   1
仕　　　様
   7
STANDARD
   0
LINE
   8
LEVEL020
   6
CONTINUOUS
  62
6
  10
 362.500
  20
 650.000
  30
0.0
  11
 425.000
  21
 650.000
  31
0.0
   0
TEXT
   8
LEVEL020
  62
6
  10
 362.500
  20
 582.500
  30
0.0
  40
 12.5000
   1
最低高さ
   7
STANDARD
   0
TEXT
   8
LEVEL020
  62
6
  10
 575.000
  20
 582.500
  30
0.0
  40
 12.5000
   1
ｍｍ
  41
 0.700000
   7
STANDARD
   0
LINE
   8
LEVEL020
   6
CONTINUOUS
  62
6
  10
 362.500
  20
 580.000
  30
0.0
  11
 612.500
  21
 580.000
  31
0.0
   0
LINE
   8
LEVEL020
   6
CONTINUOUS
  62
6
  10
 362.500
  20
 562.500
  30
0.0
  11
 612.500
  21
 562.500
  31
0.0
   0
LINE
   8
LEVEL020
   6
CONTINUOUS
  62
6
  10
 362.500
  20
 545.000
  30
0.0
  11
 612.500
  21
 545.000
  31
0.0
   0
TEXT
   8
LEVEL020
  62
6
  10
 362.500
  20
 547.500
  30
0.0
  40
 12.5000
   1
付　属　品
   7
STANDARD
   0
TEXT
   8
LEVEL020
  62
6
  10
 505.000
  20
 547.500
  30
0.0
  40
 12.5000
   1
　　　　　　１
  41
 0.700000
   7
STANDARD
   0
TEXT
   8
LEVEL020
  62
6
  10
 575.000
  20
 547.500
  30
0.0
  40
 12.5000
   1
本
  41
 0.500000
   7
STANDARD
   0
TEXT
   8
LEVEL020
  62
6
  10
 575.000
  20
 565.000
  30
0.0
  40
 12.5000
   1
ｋｇ
  41
 0.700000
   7
STANDARD
   0
TEXT
   8
LEVEL020
  62
6
  10
 433.750
  20
 547.500
  30
0.0
  40
 12.5000
   1
ハンドル棒（%%c２５×７００Ｌ）
  41
 0.600000
   7
STANDARD
   0
TEXT
   8
LEVEL020
  62
6
  10
 505.000
  20
 635.000
  30
0.0
  40
 12.5000
   1
　　　ＪＪ－３０２０
  41
 0.700000
   7
STANDARD
   0
TEXT
   8
LEVEL020
  62
6
  10
 505.000
  20
 600.000
  30
0.0
  40
 12.5000
   1
　　　　２００
  41
 0.700000
   7
STANDARD
   0
TEXT
   8
LEVEL020
  62
6
  10
 505.000
  20
 582.500
  30
0.0
  40
 12.5000
   1
　　　　３５０
  41
 0.700000
   7
STANDARD
   0
TEXT
   8
LEVEL020
  62
6
  10
 505.000
  20
 565.000
  30
0.0
  40
 12.5000
   1
　　　約　２６
  41
 0.700000
   7
STANDARD
   0
LINE
   8
LEVEL001
   6
DASHDOT
  62
1
  10
 602.500
  20
 100.000
  30
0.0
  11
 602.500
  21
 468.750
  31
0.0
   0
LINE
   8
LEVEL003
   6
CONTINUOUS
  62
7
  10
 522.000
  20
 123.500
  30
0.0
  11
 522.000
  21
 135.500
  31
0.0
   0
LINE
   8
LEVEL003
   6
CONTINUOUS
  62
7
  10
 526.500
  20
 135.500
  30
0.0
  11
 526.500
  21
 145.500
  31
0.0
   0
ARC
   8
LEVEL003
   6
CONTINUOUS
  62
7
  10
 531.500
  20
 114.500
  30
0.0
  40
 3.00000
  50
 180.000
  51
 270.000
   0
LINE
   8
LEVEL003
   6
CONTINUOUS
  62
7
  10
 528.500
  20
 123.500
  30
0.0
  11
 528.500
  21
 114.500
  31
0.0
   0
LINE
   8
LEVEL003
   6
CONTINUOUS
  62
7
  10
 531.500
  20
 111.500
  30
0.0
  11
 673.500
  21
 111.500
  31
0.0
   0
ARC
   8
LEVEL001
   6
CONTINUOUS
  62
7
  10
 594.000
  20
 210.500
  30
0.0
  40
 65.5000
  50
 152.564
  51
 180.000
   0
ARC
   8
LEVEL001
   6
CONTINUOUS
  62
7
  10
 477.734
  20
 270.858
  30
0.0
  40
 65.5000
  50
 332.564
  51
 355.808
   0
ARC
   8
LEVEL001
   6
CONTINUOUS
  62
7
  10
 552.000
  20
 444.500
  30
0.0
  40
 2.00000
  50
 89.9998
  51
 180.000
   0
LINE
   8
LEVEL001
   6
CONTINUOUS
  62
7
  10
 550.000
  20
 444.500
  30
0.0
  11
 550.000
  21
 430.500
  31
0.0
   0
ARC
   8
LEVEL001
   6
CONTINUOUS
  62
7
  10
 552.812
  20
 426.500
  30
0.0
  40
 2.00000
  50
 355.808
  51
 90.0005
   0
LINE
   8
LEVEL001
   6
CONTINUOUS
  62
7
  10
 552.000
  20
 428.500
  30
0.0
  11
 552.812
  21
 428.500
  31
0.0
   0
ARC
   8
LEVEL001
   6
CONTINUOUS
  62
7
  10
 549.533
  20
 427.351
  30
0.0
  40
 2.00000
  50
 351.923
  51
 51.9219
   0
ARC
   8
LEVEL001
   6
CONTINUOUS
  62
7
  10
 552.000
  20
 430.500
  30
0.0
  40
 2.00000
  50
 180.000
  51
 231.923
   0
ARC
   8
LEVEL001
   6
CONTINUOUS
  62
7
  10
 558.000
  20
 458.500
  30
0.0
  40
 3.00000
  50
 89.9994
  51
 180.000
   0
LINE
   8
LEVEL001
   6
CONTINUOUS
  62
7
  10
 555.000
  20
 446.500
  30
0.0
  11
 555.000
  21
 458.500
  31
0.0
   0
ARC
   8
LEVEL001
   6
CONTINUOUS
  62
7
  10
 647.000
  20
 458.500
  30
0.0
  40
 3.00000
  50
 0.147981E-3
  51
 89.9991
   0
LINE
   8
LEVEL001
   6
CONTINUOUS
  62
7
  10
 650.000
  20
 446.500
  30
0.0
  11
 650.000
  21
 458.500
  31
0.0
   0
LINE
   8
LEVEL001
   6
CONTINUOUS
  62
7
  10
 558.000
  20
 461.500
  30
0.0
  11
 647.000
  21
 461.500
  31
0.0
   0
ARC
   8
LEVEL003
   6
CONTINUOUS
  62
7
  10
 673.500
  20
 114.500
  30
0.0
  40
 3.00000
  50
 270.001
  51
 0.341576E-4
   0
LINE
   8
LEVEL003
   6
CONTINUOUS
  62
7
  10
 676.500
  20
 123.500
  30
0.0
  11
 676.500
  21
 114.500
  31
0.0
   0
LINE
   8
LEVEL003
   6
CONTINUOUS
  62
7
  10
 683.000
  20
 123.500
  30
0.0
  11
 683.000
  21
 135.500
  31
0.0
   0
LINE
   8
LEVEL003
   6
CONTINUOUS
  62
7
  10
 678.500
  20
 135.500
  30
0.0
  11
 678.500
  21
 145.500
  31
0.0
   0
LINE
   8
LEVEL003
   6
CONTINUOUS
  62
7
  10
 676.500
  20
 145.500
  30
0.0
  11
 676.500
  21
 210.500
  31
0.0
   0
ARC
   8
LEVEL001
   6
CONTINUOUS
  62
7
  10
 611.000
  20
 210.500
  30
0.0
  40
 65.5000
  50
0.0
  51
 27.4355
   0
ARC
   8
LEVEL001
   6
CONTINUOUS
  62
7
  10
 727.266
  20
 270.858
  30
0.0
  40
 65.5000
  50
 184.192
  51
 207.436
   0
LINE
   8
LEVEL001
   6
CONTINUOUS
  62
7
  10
 650.193
  20
 426.354
  30
0.0
  11
 661.942
  21
 266.070
  31
0.0
   0
LINE
   8
LEVEL001
   6
CONTINUOUS
  62
7
  10
 655.000
  20
 444.500
  30
0.0
  11
 655.000
  21
 430.500
  31
0.0
   0
ARC
   8
LEVEL001
   6
CONTINUOUS
  62
7
  10
 652.188
  20
 426.500
  30
0.0
  40
 2.00000
  50
 90.0006
  51
 184.192
   0
LINE
   8
LEVEL001
   6
CONTINUOUS
  62
7
  10
 653.000
  20
 428.500
  30
0.0
  11
 652.188
  21
 428.500
  31
0.0
   0
ARC
   8
LEVEL001
   6
CONTINUOUS
  62
7
  10
 655.467
  20
 427.351
  30
0.0
  40
 2.00000
  50
 128.081
  51
 188.079
   0
ARC
   8
LEVEL001
   6
CONTINUOUS
  62
7
  10
 653.000
  20
 430.500
  30
0.0
  40
 2.00000
  50
 308.075
  51
0.0
   0
ARC
   8
LEVEL001
   6
CONTINUOUS
  62
7
  10
 653.000
  20
 444.500
  30
0.0
  40
 2.00000
  50
0.0
  51
 89.9991
   0
LINE
   8
LEVEL001
   6
CONTINUOUS
  62
7
  10
 552.000
  20
 446.500
  30
0.0
  11
 653.000
  21
 446.500
  31
0.0
   0
LINE
   8
LEVEL001
   6
CONTINUOUS
  62
7
  10
 653.487
  20
 427.070
  30
0.0
  11
 676.121
  21
 217.534
  31
0.0
   0
LINE
   8
LEVEL003
   6
CONTINUOUS
  62
7
  10
 522.000
  20
 123.500
  30
0.0
  11
 683.000
  21
 123.500
  31
0.0
   0
LINE
   8
LEVEL003
   6
CONTINUOUS
  62
7
  10
 526.500
  20
 145.500
  30
0.0
  11
 568.933
  21
 145.500
  31
0.0
   0
LINE
   8
LEVEL003
   6
CONTINUOUS
  62
7
  10
 629.854
  20
 145.500
  30
0.0
  11
 678.500
  21
 145.500
  31
0.0
   0
ARC
   8
LEVEL001
   6
CONTINUOUS
  62
7
  10
 557.276
  20
 215.500
  30
0.0
  40
 2.00000
  50
 173.691
  51
 270.000
   0
LINE
   8
LEVEL001
   6
CONTINUOUS
  62
7
  10
 557.276
  20
 213.500
  30
0.0
  11
 573.295
  21
 213.500
  31
0.0
   0
ARC
   8
LEVEL001
   6
CONTINUOUS
  62
7
  10
 647.724
  20
 215.500
  30
0.0
  40
 2.00000
  50
 270.001
  51
 6.30930
   0
LINE
   8
LEVEL001
   6
CONTINUOUS
  62
7
  10
 631.705
  20
 213.500
  30
0.0
  11
 647.724
  21
 213.500
  31
0.0
   0
ARC
   8
LEVEL001
   6
CONTINUOUS
  62
7
  10
 602.500
  20
 210.500
  30
0.0
  40
 47.5000
  50
 359.959
  51
 86.3861
   0
ARC
   8
LEVEL001
   6
CONTINUOUS
  62
7
  10
 597.500
  20
 399.500
  30
0.0
  40
 2.00000
  50
0.0
  51
 90.0002
   0
LINE
   8
LEVEL001
   6
CONTINUOUS
  62
7
  10
 599.500
  20
 239.747
  30
0.0
  11
 599.500
  21
 399.500
  31
0.0
   0
ARC
   8
LEVEL001
   6
CONTINUOUS
  62
7
  10
 589.500
  20
 403.500
  30
0.0
  40
 2.00000
  50
 180.000
  51
 270.000
   0
LINE
   8
LEVEL001
   6
CONTINUOUS
  62
7
  10
 587.500
  20
 403.500
  30
0.0
  11
 587.500
  21
 444.500
  31
0.0
   0
ARC
   8
LEVEL001
   6
CONTINUOUS
  62
7
  10
 615.500
  20
 403.500
  30
0.0
  40
 2.00000
  50
 270.000
  51
 0.217713E-3
   0
LINE
   8
LEVEL001
   6
CONTINUOUS
  62
7
  10
 617.500
  20
 444.500
  30
0.0
  11
 617.500
  21
 403.500
  31
0.0
   0
ARC
   8
LEVEL001
   6
CONTINUOUS
  62
7
  10
 607.500
  20
 399.500
  30
0.0
  40
 2.00000
  50
 89.9998
  51
 180.000
   0
LINE
   8
LEVEL001
   6
CONTINUOUS
  62
7
  10
 605.500
  20
 239.747
  30
0.0
  11
 605.500
  21
 399.500
  31
0.0
   0
LINE
   8
LEVEL001
   6
CONTINUOUS
  62
7
  10
 589.500
  20
 401.500
  30
0.0
  11
 615.500
  21
 401.500
  31
0.0
   0
LINE
   8
LEVEL001
   6
CONTINUOUS
  62
7
  10
 587.500
  20
 444.500
  30
0.0
  11
 617.500
  21
 444.500
  31
0.0
   0
LINE
   8
LEVEL001
   6
CONTINUOUS
  62
7
  10
 554.807
  20
 428.500
  30
0.0
  11
 587.500
  21
 428.500
  31
0.0
   0
LINE
   8
LEVEL001
   6
CONTINUOUS
  62
7
  10
 617.500
  20
 428.500
  30
0.0
  11
 650.193
  21
 428.500
  31
0.0
   0
LINE
   8
LEVEL001
   6
CONTINUOUS
  62
7
  10
 602.500
  20
 437.964
  30
0.0
  11
 605.500
  21
 436.232
  31
0.0
   0
LINE
   8
LEVEL001
   6
CONTINUOUS
  62
7
  10
 605.500
  20
 436.232
  30
0.0
  11
 605.500
  21
 432.768
  31
0.0
   0
LINE
   8
LEVEL001
   6
CONTINUOUS
  62
7
  10
 605.500
  20
 432.768
  30
0.0
  11
 602.500
  21
 431.036
  31
0.0
   0
LINE
   8
LEVEL001
   6
CONTINUOUS
  62
7
  10
 602.500
  20
 431.036
  30
0.0
  11
 599.500
  21
 432.768
  31
0.0
   0
LINE
   8
LEVEL001
   6
CONTINUOUS
  62
7
  10
 599.500
  20
 432.768
  30
0.0
  11
 599.500
  21
 436.232
  31
0.0
   0
LINE
   8
LEVEL001
   6
CONTINUOUS
  62
7
  10
 599.500
  20
 436.232
  30
0.0
  11
 602.500
  21
 437.964
  31
0.0
   0
CIRCLE
   8
LEVEL001
   6
CONTINUOUS
  62
7
  10
 602.500
  20
 434.500
  30
0.0
  40
 6.50000
   0
CIRCLE
   8
LEVEL001
   6
CONTINUOUS
  62
7
  10
 602.500
  20
 434.500
  30
0.0
  40
 5.80718
   0
LINE
   8
LEVEL001
   6
DASHDOT
  62
1
  10
 612.000
  20
 434.500
  30
0.0
  11
 593.000
  21
 434.500
  31
0.0
   0
LINE
   8
LEVEL001
   6
CONTINUOUS
  62
7
  10
 602.500
  20
 415.964
  30
0.0
  11
 605.500
  21
 414.232
  31
0.0
   0
LINE
   8
LEVEL001
   6
CONTINUOUS
  62
7
  10
 605.500
  20
 414.232
  30
0.0
  11
 605.500
  21
 410.768
  31
0.0
   0
LINE
   8
LEVEL001
   6
CONTINUOUS
  62
7
  10
 605.500
  20
 410.768
  30
0.0
  11
 602.500
  21
 409.036
  31
0.0
   0
LINE
   8
LEVEL001
   6
CONTINUOUS
  62
7
  10
 602.500
  20
 409.036
  30
0.0
  11
 599.500
  21
 410.768
  31
0.0
   0
LINE
   8
LEVEL001
   6
CONTINUOUS
  62
7
  10
 599.500
  20
 410.768
  30
0.0
  11
 599.500
  21
 414.232
  31
0.0
   0
LINE
   8
LEVEL001
   6
CONTINUOUS
  62
7
  10
 599.500
  20
 414.232
  30
0.0
  11
 602.500
  21
 415.964
  31
0.0
   0
CIRCLE
   8
LEVEL001
   6
CONTINUOUS
  62
7
  10
 602.500
  20
 412.500
  30
0.0
  40
 6.50000
   0
CIRCLE
   8
LEVEL001
   6
CONTINUOUS
  62
7
  10
 602.500
  20
 412.500
  30
0.0
  40
 5.80718
   0
LINE
   8
LEVEL001
   6
DASHDOT
  62
1
  10
 612.000
  20
 412.500
  30
0.0
  11
 593.000
  21
 412.500
  31
0.0
   0
LINE
   8
LEVEL001
   6
CONTINUOUS
  62
7
  10
 499.836
  20
 289.205
  30
0.0
  11
 474.715
  21
 220.932
  31
0.0
   0
LINE
   8
LEVEL001
   6
CONTINUOUS
  62
7
  10
 509.221
  20
 285.752
  30
0.0
  11
 484.099
  21
 217.478
  31
0.0
   0
LINE
   8
LEVEL001
   6
CONTINUOUS
  62
7
  10
 514.852
  20
 283.680
  30
0.0
  11
 489.730
  21
 215.406
  31
0.0
   0
ARC
   8
LEVEL001
   6
CONTINUOUS
  62
7
  10
 528.929
  20
 278.500
  30
0.0
  40
 15.0000
  50
 355.808
  51
 159.799
   0
LINE
   8
LEVEL001
   6
CONTINUOUS
  62
7
  10
 517.758
  20
 283.058
  30
0.0
  11
 492.641
  21
 214.897
  31
0.0
   0
ARC
   8
LEVEL001
   6
CONTINUOUS
  62
7
  10
 530.425
  20
 278.390
  30
0.0
  40
 13.5000
  50
 355.808
  51
 159.772
   0
ARC
   8
LEVEL001
   6
CONTINUOUS
  62
7
  10
 510.000
  20
 208.500
  30
0.0
  40
 18.5000
  50
 159.771
  51
 0.252988E-3
   0
ARC
   8
LEVEL001
   6
CONTINUOUS
  62
7
  10
 508.500
  20
 208.500
  30
0.0
  40
 20.0000
  50
 159.799
  51
0.0
   0
ARC
   8
LEVEL001
   6
CONTINUOUS
  62
7
  10
 540.657
  20
 301.705
  30
0.0
  40
 5.00000
  50
 243.188
  51
 355.808
   0
ARC
   8
LEVEL001
   6
CONTINUOUS
  62
7
  10
 528.929
  20
 278.500
  30
0.0
  40
 21.0000
  50
 63.1880
  51
 159.799
   0
ARC
   8
LEVEL001
   6
CONTINUOUS
  62
7
  10
 529.834
  20
 319.490
  30
0.0
  40
 10.0000
  50
 268.735
  51
 353.835
   0
LINE
   8
LEVEL001
   6
CONTINUOUS
  62
7
  10
 551.513
  20
 427.070
  30
0.0
  11
 539.776
  21
 318.416
  31
0.0
   0
ARC
   8
LEVEL001
   6
CONTINUOUS
  62
7
  10
 528.929
  20
 278.500
  30
0.0
  40
 31.0000
  50
 88.7356
  51
 159.799
   0
LINE
   8
LEVEL001
   6
CONTINUOUS
  62
7
  10
 554.807
  20
 426.354
  30
0.0
  11
 543.058
  21
 266.070
  31
0.0
   0
ARC
   8
LEVEL001
   6
CONTINUOUS
  62
7
  10
 518.500
  20
 163.600
  30
0.0
  40
 10.0000
  50
 0.362356E-4
  51
 102.556
   0
ARC
   8
LEVEL001
   6
CONTINUOUS
  62
7
  10
 508.500
  20
 208.500
  30
0.0
  40
 36.0000
  50
 159.799
  51
 282.556
   0
ARC
   8
LEVEL001
   6
CONTINUOUS
  62
7
  10
 523.500
  20
 181.371
  30
0.0
  40
 5.00000
  50
0.0
  51
 118.939
   0
ARC
   8
LEVEL001
   6
CONTINUOUS
  62
7
  10
 508.500
  20
 208.500
  30
0.0
  40
 26.0000
  50
 159.798
  51
 298.939
   0
LINE
   8
LEVEL003
   6
CONTINUOUS
  62
7
  10
 528.500
  20
 145.500
  30
0.0
  11
 528.500
  21
 208.500
  31
0.0
   0
LINE
   8
LEVEL003
   6
CONTINUOUS
  62
3
  10
 178.284
  20
 461.500
  30
0.0
  11
 95.0000
  21
 461.500
  31
0.0
   0
LINE
   8
LEVEL003
   6
CONTINUOUS
  62
3
  10
 151.784
  20
 111.500
  30
0.0
  11
 95.0000
  21
 111.500
  31
0.0
   0
LINE
   8
LEVEL003
   6
CONTINUOUS
  62
3
  10
 100.000
  20
 461.500
  30
0.0
  11
 100.000
  21
 111.500
  31
0.0
   0
LINE
   8
LEVEL003
   6
CONTINUOUS
  62
3
  10
 98.7500
  20
 454.000
  30
0.0
  11
 100.000
  21
 461.500
  31
0.0
   0
LINE
   8
LEVEL003
   6
CONTINUOUS
  62
3
  10
 100.000
  20
 461.500
  30
0.0
  11
 101.250
  21
 454.000
  31
0.0
   0
LINE
   8
LEVEL003
   6
CONTINUOUS
  62
3
  10
 100.000
  20
 461.500
  30
0.0
  11
 100.000
  21
 454.000
  31
0.0
   0
LINE
   8
LEVEL003
   6
CONTINUOUS
  62
3
  10
 101.250
  20
 119.000
  30
0.0
  11
 100.000
  21
 111.500
  31
0.0
   0
LINE
   8
LEVEL003
   6
CONTINUOUS
  62
3
  10
 100.000
  20
 111.500
  30
0.0
  11
 98.7500
  21
 119.000
  31
0.0
   0
LINE
   8
LEVEL003
   6
CONTINUOUS
  62
3
  10
 100.000
  20
 111.500
  30
0.0
  11
 100.000
  21
 119.000
  31
0.0
   0
TEXT
   8
LEVEL003
  62
3
  10
 104.667
  20
 279.000
  30
0.0
  40
 10.0000
   1
350
  50
 90.0000
  41
 0.500000
   7
STANDARD
  72
1
  11
 98.0000
  21
 286.500
  31
0.0
  73
2
   0
LINE
   8
LEVEL003
   6
CONTINUOUS
  62
3
  10
 172.284
  20
 446.500
  30
0.0
  11
 132.500
  21
 446.500
  31
0.0
   0
LINE
   8
LEVEL003
   6
CONTINUOUS
  62
3
  10
 178.284
  20
 461.500
  30
0.0
  11
 132.500
  21
 461.500
  31
0.0
   0
LINE
   8
LEVEL003
   6
CONTINUOUS
  62
3
  10
 137.500
  20
 446.500
  30
0.0
  11
 137.500
  21
 461.500
  31
0.0
   0
LINE
   8
LEVEL003
   6
CONTINUOUS
  62
3
  10
 138.750
  20
 454.000
  30
0.0
  11
 137.500
  21
 446.500
  31
0.0
   0
LINE
   8
LEVEL003
   6
CONTINUOUS
  62
3
  10
 137.500
  20
 446.500
  30
0.0
  11
 136.250
  21
 454.000
  31
0.0
   0
LINE
   8
LEVEL003
   6
CONTINUOUS
  62
3
  10
 137.500
  20
 446.500
  30
0.0
  11
 137.500
  21
 454.000
  31
0.0
   0
LINE
   8
LEVEL003
   6
CONTINUOUS
  62
3
  10
 136.250
  20
 454.000
  30
0.0
  11
 137.500
  21
 461.500
  31
0.0
   0
LINE
   8
LEVEL003
   6
CONTINUOUS
  62
3
  10
 137.500
  20
 461.500
  30
0.0
  11
 138.750
  21
 454.000
  31
0.0
   0
LINE
   8
LEVEL003
   6
CONTINUOUS
  62
3
  10
 137.500
  20
 461.500
  30
0.0
  11
 137.500
  21
 454.000
  31
0.0
   0
TEXT
   8
LEVEL003
  62
3
  10
 142.167
  20
 449.000
  30
0.0
  40
 10.0000
   1
15
  50
 90.0000
  41
 0.500000
   7
STANDARD
  72
1
  11
 135.500
  21
 454.000
  31
0.0
  73
2
   0
LINE
   8
LEVEL003
   6
CONTINUOUS
  62
3
  10
 177.784
  20
 461.000
  30
0.0
  11
 177.784
  21
 492.500
  31
0.0
   0
LINE
   8
LEVEL003
   6
CONTINUOUS
  62
3
  10
 272.784
  20
 461.000
  30
0.0
  11
 272.784
  21
 492.500
  31
0.0
   0
LINE
   8
LEVEL003
   6
CONTINUOUS
  62
3
  10
 177.784
  20
 487.500
  30
0.0
  11
 272.784
  21
 487.500
  31
0.0
   0
LINE
   8
LEVEL003
   6
CONTINUOUS
  62
3
  10
 185.284
  20
 486.250
  30
0.0
  11
 177.784
  21
 487.500
  31
0.0
   0
LINE
   8
LEVEL003
   6
CONTINUOUS
  62
3
  10
 177.784
  20
 487.500
  30
0.0
  11
 185.284
  21
 488.750
  31
0.0
   0
LINE
   8
LEVEL003
   6
CONTINUOUS
  62
3
  10
 177.784
  20
 487.500
  30
0.0
  11
 185.284
  21
 487.500
  31
0.0
   0
LINE
   8
LEVEL003
   6
CONTINUOUS
  62
3
  10
 265.284
  20
 488.750
  30
0.0
  11
 272.784
  21
 487.500
  31
0.0
   0
LINE
   8
LEVEL003
   6
CONTINUOUS
  62
3
  10
 272.784
  20
 487.500
  30
0.0
  11
 265.284
  21
 486.250
  31
0.0
   0
LINE
   8
LEVEL003
   6
CONTINUOUS
  62
3
  10
 272.784
  20
 487.500
  30
0.0
  11
 265.284
  21
 487.500
  31
0.0
   0
TEXT
   8
LEVEL003
  62
3
  10
 215.284
  20
 482.833
  30
0.0
  40
 10.0000
   1
%%c95
   7
STANDARD
  72
1
  11
 225.284
  21
 489.500
  31
0.0
  73
2
   0
LINE
   8
LEVEL003
   6
CONTINUOUS
  62
3
  10
 151.284
  20
 112.000
  30
0.0
  11
 151.284
  21
 70.0000
  31
0.0
   0
LINE
   8
LEVEL003
   6
CONTINUOUS
  62
3
  10
 299.284
  20
 112.000
  30
0.0
  11
 299.284
  21
 70.0000
  31
0.0
   0
LINE
   8
LEVEL003
   6
CONTINUOUS
  62
3
  10
 151.284
  20
 75.0000
  30
0.0
  11
 299.284
  21
 75.0000
  31
0.0
   0
LINE
   8
LEVEL003
   6
CONTINUOUS
  62
3
  10
 158.784
  20
 73.7500
  30
0.0
  11
 151.284
  21
 75.0000
  31
0.0
   0
LINE
   8
LEVEL003
   6
CONTINUOUS
  62
3
  10
 151.284
  20
 75.0000
  30
0.0
  11
 158.784
  21
 76.2500
  31
0.0
   0
LINE
   8
LEVEL003
   6
CONTINUOUS
  62
3
  10
 151.284
  20
 75.0000
  30
0.0
  11
 158.784
  21
 75.0000
  31
0.0
   0
LINE
   8
LEVEL003
   6
CONTINUOUS
  62
3
  10
 291.784
  20
 76.2500
  30
0.0
  11
 299.284
  21
 75.0000
  31
0.0
   0
LINE
   8
LEVEL003
   6
CONTINUOUS
  62
3
  10
 299.284
  20
 75.0000
  30
0.0
  11
 291.784
  21
 73.7500
  31
0.0
   0
LINE
   8
LEVEL003
   6
CONTINUOUS
  62
3
  10
 299.284
  20
 75.0000
  30
0.0
  11
 291.784
  21
 75.0000
  31
0.0
   0
TEXT
   8
LEVEL003
  62
3
  10
 212.784
  20
 70.3333
  30
0.0
  40
 10.0000
   1
%%c148
   7
STANDARD
  72
1
  11
 225.284
  21
 77.0000
  31
0.0
  73
2
   0
TEXT
   8
LEVEL020
  62
6
  10
 362.500
  20
 565.000
  30
0.0
  40
 12.5000
   1
質　　　量
   7
STANDARD
   0
TEXT
   8
LEVEL020
  62
6
  10
 505.000
  20
 617.500
  30
0.0
  40
 12.5000
   1
　　　　３００
  41
 0.700000
   7
STANDARD
   0
TEXT
   8
LEVEL020
  62
6
  10
 575.000
  20
 617.500
  30
0.0
  40
 12.5000
   1
ｋＮ
  41
 0.700000
   7
STANDARD
   0
LINE
   8
LEVEL001
   6
CONTINUOUS
  62
7
  10
 630.000
  20
 123.500
  30
0.0
  11
 630.000
  21
 137.500
  31
0.0
   0
LINE
   8
LEVEL001
   6
CONTINUOUS
  62
7
  10
 575.000
  20
 137.500
  30
0.0
  11
 575.000
  21
 123.500
  31
0.0
   0
LINE
   8
LEVEL001
   6
CONTINUOUS
  62
7
  10
 532.724
  20
 123.500
  30
0.0
  11
 532.724
  21
 137.500
  31
0.0
   0
LINE
   8
LEVEL001
   6
CONTINUOUS
  62
7
  10
 672.276
  20
 123.500
  30
0.0
  11
 672.276
  21
 137.500
  31
0.0
   0
LINE
   8
LEVEL001
   6
CONTINUOUS
  62
7
  10
 630.000
  20
 137.500
  30
0.0
  11
 672.276
  21
 137.500
  31
0.0
   0
LINE
   8
LEVEL001
   6
CONTINUOUS
  62
7
  10
 575.000
  20
 137.500
  30
0.0
  11
 532.724
  21
 137.500
  31
0.0
   0
LINE
   8
LEVEL003
   6
CONTINUOUS
  62
7
  10
 627.000
  20
 135.500
  30
0.0
  11
 630.000
  21
 135.500
  31
0.0
   0
LINE
   8
LEVEL003
   6
CONTINUOUS
  62
7
  10
 672.276
  20
 135.500
  30
0.0
  11
 683.000
  21
 135.500
  31
0.0
   0
LINE
   8
LEVEL003
   6
CONTINUOUS
  62
7
  10
 522.000
  20
 135.500
  30
0.0
  11
 532.724
  21
 135.500
  31
0.0
   0
LINE
   8
LEVEL003
   6
CONTINUOUS
  62
7
  10
 575.000
  20
 135.500
  30
0.0
  11
 583.000
  21
 135.500
  31
0.0
   0
LINE
   8
LEVEL001
   6
DASHDOT
  62
1
  10
 565.000
  20
 115.250
  30
0.0
  11
 565.000
  21
 110.750
  31
0.0
   0
LINE
   8
LEVEL001
   6
DASHDOT
  62
1
  10
 585.000
  20
 115.250
  30
0.0
  11
 585.000
  21
 110.750
  31
0.0
   0
LINE
   8
LEVEL001
   6
DASHDOT
  62
1
  10
 547.500
  20
 115.250
  30
0.0
  11
 547.500
  21
 110.750
  31
0.0
   0
LINE
   8
LEVEL001
   6
DASHDOT
  62
1
  10
 640.000
  20
 115.250
  30
0.0
  11
 640.000
  21
 110.750
  31
0.0
   0
LINE
   8
LEVEL001
   6
DASHDOT
  62
1
  10
 620.000
  20
 115.250
  30
0.0
  11
 620.000
  21
 110.750
  31
0.0
   0
LINE
   8
LEVEL001
   6
DASHDOT
  62
1
  10
 657.500
  20
 115.250
  30
0.0
  11
 657.500
  21
 110.750
  31
0.0
   0
LINE
   8
LEVEL001
   6
DASHDOT
  62
1
  10
 567.500
  20
 462.250
  30
0.0
  11
 567.500
  21
 457.750
  31
0.0
   0
LINE
   8
LEVEL001
   6
DASHDOT
  62
1
  10
 587.500
  20
 462.250
  30
0.0
  11
 587.500
  21
 457.750
  31
0.0
   0
LINE
   8
LEVEL001
   6
DASHDOT
  62
1
  10
 637.500
  20
 462.250
  30
0.0
  11
 637.500
  21
 457.750
  31
0.0
   0
LINE
   8
LEVEL001
   6
DASHDOT
  62
1
  10
 617.500
  20
 462.250
  30
0.0
  11
 617.500
  21
 457.750
  31
0.0
   0
ARC
   8
LEVEL001
   6
CONTINUOUS
  62
7
  10
 386.784
  20
 220.500
  30
0.0
  40
 1.00000
  50
0.0
  51
 90.0013
   0
ARC
   8
LEVEL001
   6
CONTINUOUS
  62
7
  10
 386.784
  20
 200.500
  30
0.0
  40
 1.00000
  50
 269.999
  51
0.0
   0
LINE
   8
LEVEL001
   6
CONTINUOUS
  62
7
  10
 387.784
  20
 200.500
  30
0.0
  11
 387.784
  21
 220.500
  31
0.0
   0
LINE
   8
LEVEL001
   6
CONTINUOUS
  62
7
  10
 385.134
  20
 221.500
  30
0.0
  11
 386.784
  21
 221.500
  31
0.0
   0
LINE
   8
LEVEL001
   6
CONTINUOUS
  62
7
  10
 385.134
  20
 199.500
  30
0.0
  11
 386.784
  21
 199.500
  31
0.0
   0
LINE
   8
LEVEL001
   6
CONTINUOUS
  62
7
  10
 383.784
  20
 199.500
  30
0.0
  11
 383.784
  21
 221.500
  31
0.0
   0
LINE
   8
LEVEL001
   6
CONTINUOUS
  62
7
  10
 383.784
  20
 221.500
  30
0.0
  11
 383.784
  21
 228.000
  31
0.0
   0
LINE
   8
LEVEL001
   6
CONTINUOUS
  62
7
  10
 383.784
  20
 193.000
  30
0.0
  11
 383.784
  21
 199.500
  31
0.0
   0
LINE
   8
LEVEL001
   6
CONTINUOUS
  62
7
  10
 383.784
  20
 225.100
  30
0.0
  11
 385.134
  21
 225.100
  31
0.0
   0
LINE
   8
LEVEL001
   6
CONTINUOUS
  62
7
  10
 383.784
  20
 197.300
  30
0.0
  11
 385.134
  21
 197.300
  31
0.0
   0
LINE
   8
LEVEL001
   6
CONTINUOUS
  62
7
  10
 385.134
  20
 197.300
  30
0.0
  11
 385.134
  21
 225.100
  31
0.0
   0
LINE
   8
LEVEL003
   6
CONTINUOUS
  62
7
  10
 613.500
  20
 185.000
  30
0.0
  11
 615.500
  21
 187.000
  31
0.0
   0
LINE
   8
LEVEL003
   6
CONTINUOUS
  62
7
  10
 615.500
  20
 187.000
  30
0.0
  11
 615.500
  21
 186.000
  31
0.0
   0
LINE
   8
LEVEL003
   6
CONTINUOUS
  62
7
  10
 615.500
  20
 186.000
  30
0.0
  11
 622.500
  21
 186.000
  31
0.0
   0
LINE
   8
LEVEL003
   6
CONTINUOUS
  62
7
  10
 622.500
  20
 186.000
  30
0.0
  11
 622.500
  21
 184.000
  31
0.0
   0
LINE
   8
LEVEL003
   6
CONTINUOUS
  62
7
  10
 622.500
  20
 184.000
  30
0.0
  11
 615.500
  21
 184.000
  31
0.0
   0
LINE
   8
LEVEL003
   6
CONTINUOUS
  62
7
  10
 615.500
  20
 184.000
  30
0.0
  11
 615.500
  21
 183.000
  31
0.0
   0
LINE
   8
LEVEL003
   6
CONTINUOUS
  62
7
  10
 615.500
  20
 183.000
  30
0.0
  11
 613.500
  21
 185.000
  31
0.0
   0
LINE
   8
LEVEL003
   6
CONTINUOUS
  62
7
  10
 578.703
  20
 185.000
  30
0.0
  11
 576.703
  21
 187.000
  31
0.0
   0
LINE
   8
LEVEL003
   6
CONTINUOUS
  62
7
  10
 576.703
  20
 187.000
  30
0.0
  11
 576.703
  21
 186.000
  31
0.0
   0
LINE
   8
LEVEL003
   6
CONTINUOUS
  62
7
  10
 576.703
  20
 186.000
  30
0.0
  11
 569.703
  21
 186.000
  31
0.0
   0
LINE
   8
LEVEL003
   6
CONTINUOUS
  62
7
  10
 569.703
  20
 186.000
  30
0.0
  11
 569.703
  21
 184.000
  31
0.0
   0
LINE
   8
LEVEL003
   6
CONTINUOUS
  62
7
  10
 569.703
  20
 184.000
  30
0.0
  11
 576.703
  21
 184.000
  31
0.0
   0
LINE
   8
LEVEL003
   6
CONTINUOUS
  62
7
  10
 576.703
  20
 184.000
  30
0.0
  11
 576.703
  21
 183.000
  31
0.0
   0
LINE
   8
LEVEL003
   6
CONTINUOUS
  62
7
  10
 576.703
  20
 183.000
  30
0.0
  11
 578.703
  21
 185.000
  31
0.0
   0
TEXT
   8
LEVEL003
  62
7
  10
 566.045
  20
 189.202
  30
0.0
  40
 8.00000
   1
ＵＰ
  50
 180.000
  41
 0.875000
   7
STANDARD
   0
TEXT
   8
LEVEL003
  62
7
  10
 653.868
  20
 189.202
  30
0.0
  40
 8.00000
   1
ＤＯＷＮ
  50
 180.000
  41
 0.875000
   7
STANDARD
   0
ARC
   8
LEVEL003
   6
CONTINUOUS
  62
7
  10
 594.000
  20
 165.000
  30
0.0
  40
 3.00000
  50
 180.000
  51
 270.000
   0
LINE
   8
LEVEL003
   6
CONTINUOUS
  62
7
  10
 594.000
  20
 162.000
  30
0.0
  11
 616.000
  21
 162.000
  31
0.0
   0
ARC
   8
LEVEL003
   6
CONTINUOUS
  62
7
  10
 589.000
  20
 175.200
  30
0.0
  40
 2.00000
  50
 0.162844E-11
  51
 90.0000
   0
LINE
   8
LEVEL003
   6
CONTINUOUS
  62
7
  10
 591.000
  20
 165.000
  30
0.0
  11
 591.000
  21
 175.200
  31
0.0
   0
ARC
   8
LEVEL003
   6
CONTINUOUS
  62
7
  10
 616.000
  20
 165.000
  30
0.0
  40
 3.00000
  50
 270.000
  51
0.0
   0
ARC
   8
LEVEL003
   6
CONTINUOUS
  62
7
  10
 621.000
  20
 175.200
  30
0.0
  40
 2.00000
  50
 90.0000
  51
 180.000
   0
LINE
   8
LEVEL003
   6
CONTINUOUS
  62
7
  10
 619.000
  20
 165.000
  30
0.0
  11
 619.000
  21
 175.200
  31
0.0
   0
CIRCLE
   8
0
   6
CONTINUOUS
  62
7
  10
 607.523
  20
 168.040
  30
0.0
  40
 3.33333
   0
LINE
   8
0
   6
CONTINUOUS
  62
7
  10
 600.980
  20
 164.706
  30
0.0
  11
 605.214
  21
 172.040
  31
0.0
   0
LINE
   8
0
   6
CONTINUOUS
  62
7
  10
 605.214
  20
 172.040
  30
0.0
  11
 613.682
  21
 172.040
  31
0.0
   0
LINE
   8
0
   6
CONTINUOUS
  62
7
  10
 613.682
  20
 172.040
  30
0.0
  11
 614.644
  21
 173.706
  31
0.0
   0
LINE
   8
0
   6
CONTINUOUS
  62
7
  10
 614.644
  20
 173.706
  30
0.0
  11
 599.510
  21
 173.706
  31
0.0
   0
LINE
   8
0
   6
CONTINUOUS
  62
7
  10
 599.510
  20
 173.706
  30
0.0
  11
 594.313
  21
 164.706
  31
0.0
   0
LINE
   8
0
   6
CONTINUOUS
  62
7
  10
 594.313
  20
 164.706
  30
0.0
  11
 600.980
  21
 164.706
  31
0.0
   0
ARC
   8
LEVEL001
   6
CONTINUOUS
  62
7
  10
 149.284
  20
 192.500
  30
0.0
  40
 2.00000
  50
0.0
  51
 60.0000
   0
LINE
   8
LEVEL003
   6
CONTINUOUS
  62
7
  10
 151.284
  20
 200.863
  30
0.0
  11
 151.284
  21
 210.500
  31
0.0
   0
ARC
   8
LEVEL001
   6
CONTINUOUS
  62
7
  10
 146.284
  20
 200.863
  30
0.0
  40
 5.00000
  50
 315.585
  51
 0.227982E-11
   0
ARC
   8
LEVEL001
   6
CONTINUOUS
  62
7
  10
 151.284
  20
 195.964
  30
0.0
  40
 2.00000
  50
 135.585
  51
 240.000
   0
ARC
   8
LEVEL001
   6
CONTINUOUS
  62
7
  10
 149.284
  20
 158.500
  30
0.0
  40
 2.00000
  50
 300.000
  51
 0.895644E-11
   0
LINE
   8
LEVEL003
   6
CONTINUOUS
  62
7
  10
 151.284
  20
 158.500
  30
0.0
  11
 151.284
  21
 192.500
  31
0.0
   0
LINE
   8
LEVEL003
   6
CONTINUOUS
  62
7
  10
 151.284
  20
 145.500
  30
0.0
  11
 151.284
  21
 150.137
  31
0.0
   0
ARC
   8
LEVEL001
   6
CONTINUOUS
  62
7
  10
 146.284
  20
 150.137
  30
0.0
  40
 5.00000
  50
0.0
  51
 44.4153
   0
ARC
   8
LEVEL001
   6
CONTINUOUS
  62
7
  10
 151.284
  20
 155.036
  30
0.0
  40
 2.00000
  50
 120.000
  51
 224.415
   0
ARC
   8
LEVEL001
   6
CONTINUOUS
  62
7
  10
 651.154
  20
 376.500
  30
0.0
  40
 2.00000
  50
 2.96697
  51
 90.0000
   0
ARC
   8
LEVEL001
   6
CONTINUOUS
  62
7
  10
 623.479
  20
 376.500
  30
0.0
  40
 2.00000
  50
 90.0000
  51
 182.967
   0
LINE
   8
LEVEL001
   6
CONTINUOUS
  62
7
  10
 625.162
  20
 305.396
  30
0.0
  11
 621.482
  21
 376.396
  31
0.0
   0
ARC
   8
LEVEL001
   6
CONTINUOUS
  62
7
  10
 627.159
  20
 305.500
  30
0.0
  40
 2.00000
  50
 182.967
  51
 270.000
   0
ARC
   8
LEVEL001
   6
CONTINUOUS
  62
7
  10
 654.833
  20
 305.500
  30
0.0
  40
 2.00000
  50
 270.000
  51
 2.96697
   0
LINE
   8
LEVEL001
   6
CONTINUOUS
  62
7
  10
 653.151
  20
 376.604
  30
0.0
  11
 656.831
  21
 305.604
  31
0.0
   0
ARC
   8
LEVEL001
   6
CONTINUOUS
  62
7
  10
 627.012
  20
 300.500
  30
0.0
  40
 3.00000
  50
 90.0000
  51
 183.170
   0
LINE
   8
LEVEL001
   6
CONTINUOUS
  62
7
  10
 627.012
  20
 303.500
  30
0.0
  11
 654.833
  21
 303.500
  31
0.0
   0
ARC
   8
LEVEL001
   6
CONTINUOUS
  62
7
  10
 622.526
  20
 381.500
  30
0.0
  40
 3.00000
  50
 183.170
  51
 270.000
   0
LINE
   8
LEVEL001
   6
CONTINUOUS
  62
7
  10
 622.526
  20
 378.500
  30
0.0
  11
 651.154
  21
 378.500
  31
0.0
   0
ARC
   8
LEVEL001
   6
CONTINUOUS
  62
7
  10
 651.154
  20
 381.500
  30
0.0
  40
 3.00000
  50
 183.170
  51
 270.000
   0
ARC
   8
LEVEL001
   6
CONTINUOUS
  62
7
  10
 654.833
  20
 300.500
  30
0.0
  40
 3.00000
  50
 90.0000
  51
 183.170
   0
LINE
   8
LEVEL001
   6
CONTINUOUS
  62
7
  10
 619.809
  20
 376.304
  30
0.0
  11
 623.740
  21
 305.318
  31
0.0
   0
LINE
   8
LEVEL001
   6
CONTINUOUS
  62
7
  10
 548.000
  20
 171.250
  30
0.0
  11
 548.000
  21
 198.750
  31
0.0
   0
ARC
   8
LEVEL001
   6
CONTINUOUS
  62
7
  10
 672.000
  20
 171.250
  30
0.0
  40
 1.00000
  50
 270.001
  51
 0.217717E-3
   0
ARC
   8
LEVEL001
   6
CONTINUOUS
  62
7
  10
 672.000
  20
 198.750
  30
0.0
  40
 1.00000
  50
0.0
  51
 89.9991
   0
LINE
   8
LEVEL001
   6
CONTINUOUS
  62
7
  10
 673.000
  20
 171.250
  30
0.0
  11
 673.000
  21
 198.750
  31
0.0
   0
ARC
   8
LEVEL001
   6
CONTINUOUS
  62
7
  10
 582.000
  20
 182.002
  30
0.0
  40
 3.00000
  50
 0.829971E-4
  51
 88.0004
   0
LINE
   8
LEVEL001
   6
CONTINUOUS
  62
7
  10
 585.000
  20
 140.135
  30
0.0
  11
 585.000
  21
 182.002
  31
0.0
   0
LINE
   8
LEVEL001
   6
CONTINUOUS
  62
7
  10
 625.000
  20
 140.135
  30
0.0
  11
 625.000
  21
 182.002
  31
0.0
   0
ARC
   8
LEVEL001
   6
CONTINUOUS
  62
7
  10
 628.000
  20
 182.002
  30
0.0
  40
 3.00000
  50
 137.472
  51
 180.000
   0
ARC
   8
LEVEL001
   6
CONTINUOUS
  62
7
  10
 549.000
  20
 198.750
  30
0.0
  40
 1.00000
  50
 120.000
  51
 180.000
   0
ARC
   8
LEVEL001
   6
CONTINUOUS
  62
7
  10
 549.000
  20
 171.250
  30
0.0
  40
 1.00000
  50
 180.000
  51
 240.000
   0
LINE
   8
LEVEL001
   6
CONTINUOUS
  62
7
  10
 656.500
  20
 199.750
  30
0.0
  11
 672.000
  21
 199.750
  31
0.0
   0
LINE
   8
LEVEL001
   6
CONTINUOUS
  62
7
  10
 656.500
  20
 170.250
  30
0.0
  11
 672.000
  21
 170.250
  31
0.0
   0
LINE
   8
LEVEL001
   6
CONTINUOUS
  62
7
  10
 174.784
  20
 446.500
  30
0.0
  11
 275.784
  21
 446.500
  31
0.0
   0
LINE
   8
LEVEL001
   6
CONTINUOUS
  62
7
  10
 337.284
  20
 225.500
  30
0.0
  11
 338.784
  21
 225.500
  31
0.0
   0
LINE
   8
LEVEL001
   6
CONTINUOUS
  62
7
  10
 337.284
  20
 195.500
  30
0.0
  11
 338.784
  21
 195.500
  31
0.0
   0
LINE
   8
LEVEL001
   6
CONTINUOUS
  62
7
  10
 337.284
  20
 233.000
  30
0.0
  11
 337.284
  21
 188.000
  31
0.0
   0
LINE
   8
LEVEL001
   6
DASHDOT
  62
1
  10
 359.584
  20
 122.500
  30
0.0
  11
 359.584
  21
 242.500
  31
0.0
   0
ARC
   8
LEVEL001
   6
CONTINUOUS
  62
7
  10
 405.584
  20
 146.500
  30
0.0
  40
 4.00000
  50
 272.196
  51
 87.8041
   0
ARC
   8
LEVEL001
   6
CONTINUOUS
  62
7
  10
 380.584
  20
 137.797
  30
0.0
  40
 1.00000
  50
 180.000
  51
 255.698
   0
ARC
   8
LEVEL001
   6
CONTINUOUS
  62
7
  10
 380.584
  20
 135.732
  30
0.0
  40
 1.00000
  50
 0.253714E-4
  51
 75.3454
   0
ARC
   8
LEVEL001
   6
CONTINUOUS
  62
7
  10
 359.584
  20
 55.4323
  30
0.0
  40
 83.9998
  50
 75.3442
  51
 75.6965
   0
LINE
   8
LEVEL001
   6
DASHDOT
  62
1
  10
 364.926
  20
 146.500
  30
0.0
  11
 417.426
  21
 146.500
  31
0.0
   0
ARC
   8
LEVEL001
   6
CONTINUOUS
  62
7
  10
 338.584
  20
 137.797
  30
0.0
  40
 1.00000
  50
 284.302
  51
 0.232860E-3
   0
ARC
   8
LEVEL001
   6
CONTINUOUS
  62
7
  10
 338.584
  20
 135.732
  30
0.0
  40
 1.00000
  50
 104.655
  51
 180.000
   0
ARC
   8
LEVEL001
   6
CONTINUOUS
  62
7
  10
 359.584
  20
 55.4323
  30
0.0
  40
 83.9998
  50
 104.304
  51
 104.656
   0
LINE
   8
LEVEL001
   6
CONTINUOUS
  62
7
  10
 339.584
  20
 137.797
  30
0.0
  11
 339.584
  21
 179.287
  31
0.0
   0
ARC
   8
LEVEL001
   6
CONTINUOUS
  62
7
  10
 379.584
  20
 128.500
  30
0.0
  40
 2.00000
  50
 270.000
  51
 0.437132E-3
   0
ARC
   8
LEVEL001
   6
CONTINUOUS
  62
7
  10
 339.584
  20
 128.500
  30
0.0
  40
 2.00000
  50
 180.000
  51
 270.000
   0
LINE
   8
LEVEL001
   6
CONTINUOUS
  62
7
  10
 337.584
  20
 128.500
  30
0.0
  11
 337.584
  21
 135.732
  31
0.0
   0
LINE
   8
LEVEL001
   6
DASHDOT
  62
1
  10
 334.176
  20
 185.000
  30
0.0
  11
 384.993
  21
 185.000
  31
0.0
   0
LINE
   8
LEVEL001
   6
CONTINUOUS
  62
7
  10
 338.784
  20
 239.900
  30
0.0
  11
 380.384
  21
 239.900
  31
0.0
   0
LINE
   8
LEVEL001
   6
CONTINUOUS
  62
7
  10
 338.784
  20
 185.000
  30
0.0
  11
 338.784
  21
 210.500
  31
0.0
   0
LINE
   8
LEVEL001
   6
CONTINUOUS
  62
7
  10
 338.784
  20
 210.500
  30
0.0
  11
 338.784
  21
 239.900
  31
0.0
   0
LINE
   8
LEVEL001
   6
CONTINUOUS
  62
7
  10
 381.284
  20
 210.500
  30
0.0
  11
 381.284
  21
 228.000
  31
0.0
   0
LINE
   8
LEVEL001
   6
CONTINUOUS
  62
7
  10
 381.284
  20
 210.500
  30
0.0
  11
 381.284
  21
 193.000
  31
0.0
   0
LINE
   8
LEVEL001
   6
CONTINUOUS
  62
7
  10
 339.334
  20
 239.900
  30
0.0
  11
 339.334
  21
 206.052
  31
0.0
   0
LINE
   8
LEVEL001
   6
CONTINUOUS
  62
7
  10
 379.834
  20
 239.900
  30
0.0
  11
 379.834
  21
 206.052
  31
0.0
   0
LINE
   8
LEVEL001
   6
CONTINUOUS
  62
7
  10
 379.834
  20
 206.052
  30
0.0
  11
 339.334
  21
 206.052
  31
0.0
   0
LINE
   8
LEVEL001
   6
CONTINUOUS
  62
7
  10
 379.834
  20
 207.453
  30
0.0
  11
 339.334
  21
 207.453
  31
0.0
   0
ARC
   8
LEVEL001
   6
CONTINUOUS
  62
7
  10
 358.084
  20
 207.589
  30
0.0
  40
 3.00000
  50
 128.679
  51
 177.583
   0
ARC
   8
LEVEL001
   6
CONTINUOUS
  62
7
  10
 359.584
  20
 205.715
  30
0.0
  40
 5.40000
  50
 51.3161
  51
 128.681
   0
LINE
   8
LEVEL001
   6
CONTINUOUS
  62
7
  10
 355.087
  20
 207.715
  30
0.0
  11
 364.081
  21
 207.715
  31
0.0
   0
ARC
   8
LEVEL001
   6
CONTINUOUS
  62
7
  10
 361.084
  20
 207.589
  30
0.0
  40
 3.00000
  50
 2.41742
  51
 51.3165
   0
CIRCLE
   8
LEVEL001
   6
CONTINUOUS
  62
7
  10
 359.584
  20
 185.000
  30
0.0
  40
 14.7500
   0
LINE
   8
LEVEL001
   6
CONTINUOUS
  62
7
  10
 380.384
  20
 185.000
  30
0.0
  11
 380.384
  21
 239.900
  31
0.0
   0
ARC
   8
LEVEL001
   6
DOT
  62
3
  10
 344.584
  20
 128.500
  30
0.0
  40
 2.00000
  50
 270.001
  51
 0.437139E-3
   0
ARC
   8
LEVEL001
   6
DOT
  62
3
  10
 374.584
  20
 128.500
  30
0.0
  40
 2.00000
  50
 180.000
  51
 270.000
   0
LINE
   8
LEVEL001
   6
DOT
  62
3
  10
 346.584
  20
 128.500
  30
0.0
  11
 346.584
  21
 164.250
  31
0.0
   0
LINE
   8
LEVEL001
   6
DOT
  62
3
  10
 372.584
  20
 128.500
  30
0.0
  11
 372.584
  21
 164.250
  31
0.0
   0
ARC
   8
LEVEL001
   6
DOT
  62
3
  10
 370.584
  20
 164.250
  30
0.0
  40
 2.00000
  50
 0.179129E-10
  51
 90.0000
   0
LINE
   8
LEVEL001
   6
DOT
  62
3
  10
 348.584
  20
 166.250
  30
0.0
  11
 370.584
  21
 166.250
  31
0.0
   0
ARC
   8
LEVEL001
   6
DOT
  62
3
  10
 348.584
  20
 164.250
  30
0.0
  40
 2.00000
  50
 90.0000
  51
 180.000
   0
ARC
   8
LEVEL001
   6
CONTINUOUS
  62
7
  10
 359.584
  20
 47.8392
  30
0.0
  40
 80.0783
  50
 79.2038
  51
 100.796
   0
LINE
   8
LEVEL001
   6
CONTINUOUS
  62
7
  10
 339.584
  20
 126.500
  30
0.0
  11
 344.584
  21
 126.500
  31
0.0
   0
LINE
   8
LEVEL001
   6
CONTINUOUS
  62
7
  10
 374.584
  20
 126.500
  30
0.0
  11
 379.584
  21
 126.500
  31
0.0
   0
ARC
   8
LEVEL001
   6
CONTINUOUS
  62
7
  10
 359.584
  20
 49.3539
  30
0.0
  40
 80.0783
  50
 75.8184
  51
 104.182
   0
ARC
   8
LEVEL001
   6
CONTINUOUS
  62
7
  10
 355.084
  20
 141.028
  30
0.0
  40
 2.00000
  50
 272.700
  51
 0.187271E-10
   0
LINE
   8
LEVEL001
   6
CONTINUOUS
  62
7
  10
 357.084
  20
 162.648
  30
0.0
  11
 357.084
  21
 141.028
  31
0.0
   0
ARC
   8
LEVEL001
   6
CONTINUOUS
  62
7
  10
 355.084
  20
 162.648
  30
0.0
  40
 2.00000
  50
 0.219840E-10
  51
 78.6170
   0
ARC
   8
LEVEL001
   6
CONTINUOUS
  62
7
  10
 364.084
  20
 162.649
  30
0.0
  40
 2.00000
  50
 101.383
  51
 180.000
   0
LINE
   8
LEVEL001
   6
CONTINUOUS
  62
7
  10
 362.084
  20
 162.649
  30
0.0
  11
 362.084
  21
 141.031
  31
0.0
   0
ARC
   8
LEVEL001
   6
CONTINUOUS
  62
7
  10
 364.084
  20
 141.031
  30
0.0
  40
 2.00000
  50
 180.000
  51
 267.338
   0
ARC
   8
LEVEL001
   6
CONTINUOUS
  62
7
  10
 359.616
  20
 44.9219
  30
0.0
  40
 94.2131
  50
 77.8664
  51
 102.172
   0
ARC
   8
LEVEL001
   6
CONTINUOUS
  62
7
  10
 359.584
  20
 185.000
  30
0.0
  40
 20.8000
  50
 180.000
  51
 0.912085E-10
   0
LINE
   8
LEVEL001
   6
CONTINUOUS
  62
7
  10
 379.584
  20
 157.695
  30
0.0
  11
 379.584
  21
 179.287
  31
0.0
   0
ARC
   8
LEVEL001
   6
CONTINUOUS
  62
7
  10
 381.584
  20
 157.695
  30
0.0
  40
 2.00000
  50
 180.000
  51
 241.704
   0
LINE
   8
LEVEL001
   6
CONTINUOUS
  62
7
  10
 390.742
  20
 151.072
  30
0.0
  11
 405.737
  21
 150.497
  31
0.0
   0
ARC
   8
LEVEL001
   6
CONTINUOUS
  62
7
  10
 390.934
  20
 156.068
  30
0.0
  40
 5.00000
  50
 241.704
  51
 267.804
   0
LINE
   8
LEVEL001
   6
CONTINUOUS
  62
7
  10
 388.564
  20
 151.666
  30
0.0
  11
 380.636
  21
 155.934
  31
0.0
   0
LINE
   8
LEVEL001
   6
CONTINUOUS
  62
7
  10
 389.584
  20
 150.150
  30
0.0
  11
 389.584
  21
 143.495
  31
0.0
   0
ARC
   8
LEVEL001
   6
CONTINUOUS
  62
7
  10
 386.584
  20
 134.590
  30
0.0
  40
 5.00000
  50
 118.296
  51
 180.000
   0
LINE
   8
LEVEL001
   6
CONTINUOUS
  62
7
  10
 381.584
  20
 128.500
  30
0.0
  11
 381.584
  21
 134.590
  31
0.0
   0
LINE
   8
LEVEL001
   6
CONTINUOUS
  62
7
  10
 390.742
  20
 141.928
  30
0.0
  11
 405.737
  21
 142.503
  31
0.0
   0
ARC
   8
LEVEL001
   6
CONTINUOUS
  62
7
  10
 390.934
  20
 136.932
  30
0.0
  40
 5.00000
  50
 92.1961
  51
 118.296
   0
LINE
   8
LEVEL001
   6
CONTINUOUS
  62
7
  10
 388.564
  20
 141.334
  30
0.0
  11
 384.214
  21
 138.993
  31
0.0
   0
ARC
   8
LEVEL001
   6
CONTINUOUS
  62
7
  10
 409.584
  20
 146.500
  30
0.0
  40
 31.5202
  50
 164.180
  51
 194.939
   0
LINE
   8
LEVEL001
   6
CONTINUOUS
  62
7
  10
 381.784
  20
 228.000
  30
0.0
  11
 381.784
  21
 193.000
  31
0.0
   0
LINE
   8
LEVEL001
   6
CONTINUOUS
  62
7
  10
 383.784
  20
 228.000
  30
0.0
  11
 380.384
  21
 228.000
  31
0.0
   0
LINE
   8
LEVEL001
   6
CONTINUOUS
  62
7
  10
 383.784
  20
 193.000
  30
0.0
  11
 380.384
  21
 193.000
  31
0.0
   0
ARC
   8
LEVEL001
   6
CONTINUOUS
  62
7
  10
 602.500
  20
 210.500
  30
0.0
  40
 47.5000
  50
 93.6139
  51
 180.041
   0
ARC
   8
LEVEL001
   6
CONTINUOUS
  62
7
  10
 557.570
  20
 205.716
  30
0.0
  40
 5.40000
  50
 53.3162
  51
 130.681
   0
ARC
   8
LEVEL001
   6
CONTINUOUS
  62
7
  10
 647.430
  20
 205.716
  30
0.0
  40
 5.40000
  50
 49.3186
  51
 126.683
   0
LINE
   8
LEVEL001
   6
CONTINUOUS
  62
7
  10
 197.784
  20
 137.500
  30
0.0
  11
 197.784
  21
 123.500
  31
0.0
   0
LINE
   8
LEVEL001
   6
CONTINUOUS
  62
7
  10
 155.508
  20
 123.500
  30
0.0
  11
 155.508
  21
 137.500
  31
0.0
   0
LINE
   8
LEVEL001
   6
CONTINUOUS
  62
7
  10
 197.784
  20
 137.500
  30
0.0
  11
 155.508
  21
 137.500
  31
0.0
   0
LINE
   8
LEVEL001
   6
CONTINUOUS
  62
7
  10
 252.784
  20
 123.500
  30
0.0
  11
 252.784
  21
 137.500
  31
0.0
   0
LINE
   8
LEVEL001
   6
CONTINUOUS
  62
7
  10
 252.784
  20
 137.500
  30
0.0
  11
 295.060
  21
 137.500
  31
0.0
   0
LINE
   8
LEVEL001
   6
CONTINUOUS
  62
7
  10
 295.060
  20
 123.500
  30
0.0
  11
 295.060
  21
 137.500
  31
0.0
   0
LINE
   8
LEVEL003
   6
CONTINUOUS
  62
7
  10
 197.784
  20
 135.500
  30
0.0
  11
 252.784
  21
 135.500
  31
0.0
   0
LINE
   8
LEVEL003
   6
CONTINUOUS
  62
7
  10
 144.784
  20
 123.500
  30
0.0
  11
 305.784
  21
 123.500
  31
0.0
   0
LINE
   8
LEVEL003
   6
CONTINUOUS
  62
7
  10
 301.284
  20
 145.500
  30
0.0
  11
 225.284
  21
 145.500
  31
0.0
   0
LINE
   8
LEVEL003
   6
CONTINUOUS
  62
7
  10
 149.284
  20
 145.500
  30
0.0
  11
 225.284
  21
 145.500
  31
0.0
   0
POLYLINE
   8
LEVEL001
   6
CONTINUOUS
  62
7
  66
1
  10
0.0
  20
0.0
  30
0.0
  70
0
   0
VERTEX
   8
LEVEL001
   6
CONTINUOUS
  62
7
  10
 150.278
  20
 156.891
  30
0.0
   0
VERTEX
   8
LEVEL001
   6
CONTINUOUS
  62
7
  10
 151.356
  20
 157.300
  30
0.0
   0
VERTEX
   8
LEVEL001
   6
CONTINUOUS
  62
7
  10
 152.402
  20
 157.994
  30
0.0
   0
VERTEX
   8
LEVEL001
   6
CONTINUOUS
  62
7
  10
 153.400
  20
 158.961
  30
0.0
   0
VERTEX
   8
LEVEL001
   6
CONTINUOUS
  62
7
  10
 154.333
  20
 160.186
  30
0.0
   0
VERTEX
   8
LEVEL001
   6
CONTINUOUS
  62
7
  10
 155.188
  20
 161.650
  30
0.0
   0
VERTEX
   8
LEVEL001
   6
CONTINUOUS
  62
7
  10
 155.950
  20
 163.330
  30
0.0
   0
VERTEX
   8
LEVEL001
   6
CONTINUOUS
  62
7
  10
 156.609
  20
 165.200
  30
0.0
   0
VERTEX
   8
LEVEL001
   6
CONTINUOUS
  62
7
  10
 157.153
  20
 167.231
  30
0.0
   0
VERTEX
   8
LEVEL001
   6
CONTINUOUS
  62
7
  10
 157.574
  20
 169.390
  30
0.0
   0
VERTEX
   8
LEVEL001
   6
CONTINUOUS
  62
7
  10
 157.866
  20
 171.645
  30
0.0
   0
VERTEX
   8
LEVEL001
   6
CONTINUOUS
  62
7
  10
 158.024
  20
 173.961
  30
0.0
   0
VERTEX
   8
LEVEL001
   6
CONTINUOUS
  62
7
  10
 158.046
  20
 176.300
  30
0.0
   0
VERTEX
   8
LEVEL001
   6
CONTINUOUS
  62
7
  10
 157.931
  20
 178.627
  30
0.0
   0
VERTEX
   8
LEVEL001
   6
CONTINUOUS
  62
7
  10
 157.681
  20
 180.905
  30
0.0
   0
VERTEX
   8
LEVEL001
   6
CONTINUOUS
  62
7
  10
 157.300
  20
 183.098
  30
0.0
   0
VERTEX
   8
LEVEL001
   6
CONTINUOUS
  62
7
  10
 156.794
  20
 185.174
  30
0.0
   0
VERTEX
   8
LEVEL001
   6
CONTINUOUS
  62
7
  10
 156.171
  20
 187.098
  30
0.0
   0
VERTEX
   8
LEVEL001
   6
CONTINUOUS
  62
7
  10
 155.440
  20
 188.841
  30
0.0
   0
VERTEX
   8
LEVEL001
   6
CONTINUOUS
  62
7
  10
 154.613
  20
 190.376
  30
0.0
   0
VERTEX
   8
LEVEL001
   6
CONTINUOUS
  62
7
  10
 153.703
  20
 191.679
  30
0.0
   0
VERTEX
   8
LEVEL001
   6
CONTINUOUS
  62
7
  10
 152.724
  20
 192.729
  30
0.0
   0
VERTEX
   8
LEVEL001
   6
CONTINUOUS
  62
7
  10
 151.691
  20
 193.511
  30
0.0
   0
VERTEX
   8
LEVEL001
   6
CONTINUOUS
  62
7
  10
 150.621
  20
 194.011
  30
0.0
   0
VERTEX
   8
LEVEL001
   6
CONTINUOUS
  62
7
  10
 150.578
  20
 194.025
  30
0.0
   0
SEQEND
   0
POLYLINE
   8
LEVEL001
   6
CONTINUOUS
  62
7
  66
1
  10
0.0
  20
0.0
  30
0.0
  70
0
   0
VERTEX
   8
LEVEL001
   6
CONTINUOUS
  62
7
  10
 152.836
  20
 153.589
  30
0.0
   0
VERTEX
   8
LEVEL001
   6
CONTINUOUS
  62
7
  10
 154.339
  20
 154.550
  30
0.0
   0
VERTEX
   8
LEVEL001
   6
CONTINUOUS
  62
7
  10
 155.763
  20
 155.838
  30
0.0
   0
VERTEX
   8
LEVEL001
   6
CONTINUOUS
  62
7
  10
 157.085
  20
 157.433
  30
0.0
   0
VERTEX
   8
LEVEL001
   6
CONTINUOUS
  62
7
  10
 158.287
  20
 159.310
  30
0.0
   0
VERTEX
   8
LEVEL001
   6
CONTINUOUS
  62
7
  10
 159.347
  20
 161.440
  30
0.0
   0
VERTEX
   8
LEVEL001
   6
CONTINUOUS
  62
7
  10
 160.251
  20
 163.789
  30
0.0
   0
VERTEX
   8
LEVEL001
   6
CONTINUOUS
  62
7
  10
 160.983
  20
 166.320
  30
0.0
   0
VERTEX
   8
LEVEL001
   6
CONTINUOUS
  62
7
  10
 161.533
  20
 168.995
  30
0.0
   0
VERTEX
   8
LEVEL001
   6
CONTINUOUS
  62
7
  10
 161.892
  20
 171.772
  30
0.0
   0
VERTEX
   8
LEVEL001
   6
CONTINUOUS
  62
7
  10
 162.054
  20
 174.606
  30
0.0
   0
VERTEX
   8
LEVEL001
   6
CONTINUOUS
  62
7
  10
 162.017
  20
 177.455
  30
0.0
   0
VERTEX
   8
LEVEL001
   6
CONTINUOUS
  62
7
  10
 161.781
  20
 180.273
  30
0.0
   0
VERTEX
   8
LEVEL001
   6
CONTINUOUS
  62
7
  10
 161.350
  20
 183.017
  30
0.0
   0
VERTEX
   8
LEVEL001
   6
CONTINUOUS
  62
7
  10
 160.731
  20
 185.643
  30
0.0
   0
VERTEX
   8
LEVEL001
   6
CONTINUOUS
  62
7
  10
 159.933
  20
 188.111
  30
0.0
   0
VERTEX
   8
LEVEL001
   6
CONTINUOUS
  62
7
  10
 158.969
  20
 190.382
  30
0.0
   0
VERTEX
   8
LEVEL001
   6
CONTINUOUS
  62
7
  10
 157.854
  20
 192.421
  30
0.0
   0
VERTEX
   8
LEVEL001
   6
CONTINUOUS
  62
7
  10
 156.605
  20
 194.196
  30
0.0
   0
VERTEX
   8
LEVEL001
   6
CONTINUOUS
  62
7
  10
 155.242
  20
 195.680
  30
0.0
   0
VERTEX
   8
LEVEL001
   6
CONTINUOUS
  62
7
  10
 153.786
  20
 196.848
  30
0.0
   0
VERTEX
   8
LEVEL001
   6
CONTINUOUS
  62
7
  10
 152.859
  20
 197.399
  30
0.0
   0
SEQEND
   0
LINE
   8
LEVEL001
   6
CONTINUOUS
  62
7
  10
 275.596
  20
 430.500
  30
0.0
  11
 275.596
  21
 444.500
  31
0.0
   0
LINE
   8
LEVEL001
   6
CONTINUOUS
  62
7
  10
 272.974
  20
 426.392
  30
0.0
  11
 284.069
  21
 275.028
  31
0.0
   0
LINE
   8
LEVEL001
   6
CONTINUOUS
  62
7
  10
 177.591
  20
 428.500
  30
0.0
  11
 272.974
  21
 428.500
  31
0.0
   0
ARC
   8
LEVEL001
   6
CONTINUOUS
  62
7
  10
 220.284
  20
 426.500
  30
0.0
  40
 2.00000
  50
0.0
  51
 90.0000
   0
ARC
   8
LEVEL001
   6
CONTINUOUS
  62
7
  10
 230.284
  20
 426.500
  30
0.0
  40
 2.00000
  50
 90.0000
  51
 180.000
   0
LINE
   8
LEVEL001
   6
CONTINUOUS
  62
7
  10
 335.290
  20
 235.157
  30
0.0
  11
 335.290
  21
 185.843
  31
0.0
   0
LINE
   8
LEVEL001
   6
CONTINUOUS
  62
7
  10
 334.284
  20
 213.500
  30
0.0
  11
 299.285
  21
 213.500
  31
0.0
   0
LINE
   8
LEVEL001
   6
CONTINUOUS
  62
7
  10
 335.290
  20
 207.500
  30
0.0
  11
 299.285
  21
 207.500
  31
0.0
   0
LINE
   8
LEVEL003
   6
CONTINUOUS
  62
7
  10
 305.784
  20
 135.500
  30
0.0
  11
 295.060
  21
 135.500
  31
0.0
   0
LINE
   8
LEVEL003
   6
CONTINUOUS
  62
7
  10
 144.784
  20
 135.500
  30
0.0
  11
 155.508
  21
 135.500
  31
0.0
   0
ARC
   8
LEVEL001
   6
CONTINUOUS
  62
7
  10
 218.284
  20
 296.500
  30
0.0
  40
 3.00000
  50
 103.851
  51
 180.000
   0
ARC
   8
LEVEL001
   6
CONTINUOUS
  62
7
  10
 225.284
  20
 305.500
  30
0.0
  40
 4.00000
  50
 352.741
  51
 187.872
   0
ARC
   8
LEVEL001
   6
CONTINUOUS
  62
7
  10
 232.284
  20
 296.500
  30
0.0
  40
 3.00000
  50
 0.977066E-11
  51
 76.1489
   0
LINE
   8
LEVEL001
   6
CONTINUOUS
  62
7
  10
 222.284
  20
 308.146
  30
0.0
  11
 222.284
  21
 426.500
  31
0.0
   0
LINE
   8
LEVEL001
   6
CONTINUOUS
  62
7
  10
 228.284
  20
 308.146
  30
0.0
  11
 228.284
  21
 426.500
  31
0.0
   0
ARC
   8
LEVEL001
   6
CONTINUOUS
  62
7
  10
 216.369
  20
 304.267
  30
0.0
  40
 5.00000
  50
 283.851
  51
 349.432
   0
ARC
   8
LEVEL001
   6
CONTINUOUS
  62
7
  10
 234.199
  20
 304.267
  30
0.0
  40
 5.00000
  50
 190.568
  51
 256.149
   0
ARC
   8
LEVEL001
   6
CONTINUOUS
  62
7
  10
 218.284
  20
 185.500
  30
0.0
  40
 3.00000
  50
 180.000
  51
 256.149
   0
ARC
   8
LEVEL001
   6
CONTINUOUS
  62
7
  10
 216.369
  20
 177.733
  30
0.0
  40
 5.00000
  50
 10.5680
  51
 76.1489
   0
ARC
   8
LEVEL001
   6
CONTINUOUS
  62
7
  10
 225.284
  20
 176.500
  30
0.0
  40
 4.00000
  50
 172.128
  51
 7.25894
   0
ARC
   8
LEVEL001
   6
CONTINUOUS
  62
7
  10
 232.284
  20
 185.500
  30
0.0
  40
 3.00000
  50
 283.851
  51
0.0
   0
ARC
   8
LEVEL001
   6
CONTINUOUS
  62
7
  10
 234.199
  20
 177.733
  30
0.0
  40
 5.00000
  50
 103.851
  51
 169.432
   0
ARC
   8
LEVEL001
   6
CONTINUOUS
  62
7
  10
 210.284
  20
 296.339
  30
0.0
  40
 5.00000
  50
0.0
  51
 90.0000
   0
ARC
   8
LEVEL001
   6
CONTINUOUS
  62
7
  10
 240.284
  20
 296.339
  30
0.0
  40
 5.00000
  50
 90.0000
  51
 180.000
   0
ARC
   8
LEVEL001
   6
CONTINUOUS
  62
7
  10
 240.284
  20
 186.371
  30
0.0
  40
 5.00000
  50
 180.000
  51
 270.000
   0
ARC
   8
LEVEL001
   6
CONTINUOUS
  62
7
  10
 210.284
  20
 186.371
  30
0.0
  40
 5.00000
  50
 270.000
  51
0.0
   0
LINE
   8
LEVEL001
   6
CONTINUOUS
  62
7
  10
 215.284
  20
 296.500
  30
0.0
  11
 215.284
  21
 186.371
  31
0.0
   0
LINE
   8
LEVEL001
   6
CONTINUOUS
  62
7
  10
 235.284
  20
 296.500
  30
0.0
  11
 235.284
  21
 186.371
  31
0.0
   0
ARC
   8
LEVEL001
   6
CONTINUOUS
  62
7
  10
 218.284
  20
 166.600
  30
0.0
  40
 3.00000
  50
 270.000
  51
0.0
   0
ARC
   8
LEVEL001
   6
CONTINUOUS
  62
7
  10
 232.284
  20
 166.600
  30
0.0
  40
 3.00000
  50
 180.000
  51
 270.000
   0
LINE
   8
LEVEL001
   6
CONTINUOUS
  62
7
  10
 221.284
  20
 305.500
  30
0.0
  11
 221.284
  21
 166.600
  31
0.0
   0
LINE
   8
LEVEL001
   6
CONTINUOUS
  62
7
  10
 229.284
  20
 305.500
  30
0.0
  11
 229.284
  21
 166.600
  31
0.0
   0
CIRCLE
   8
LEVEL003
   6
CONTINUOUS
  62
7
  10
 758.007
  20
 68.7840
  30
0.0
  40
 7.77600
   0
LINE
   8
LEVEL003
   6
CONTINUOUS
  62
7
  10
 773.269
  20
 76.5600
  30
0.0
  11
 763.393
  21
 59.4528
  31
0.0
   0
LINE
   8
LEVEL003
   6
CONTINUOUS
  62
7
  10
 763.393
  20
 59.4528
  30
0.0
  11
 743.640
  21
 59.4528
  31
0.0
   0
LINE
   8
LEVEL003
   6
CONTINUOUS
  62
7
  10
 741.395
  20
 55.5648
  30
0.0
  11
 776.701
  21
 55.5648
  31
0.0
   0
LINE
   8
LEVEL003
   6
CONTINUOUS
  62
7
  10
 776.701
  20
 55.5648
  30
0.0
  11
 788.821
  21
 76.5600
  31
0.0
   0
LINE
   8
LEVEL003
   6
CONTINUOUS
  62
7
  10
 788.821
  20
 76.5600
  30
0.0
  11
 773.269
  21
 76.5600
  31
0.0
   0
LINE
   8
LEVEL003
   6
CONTINUOUS
  62
7
  10
 743.640
  20
 59.4528
  30
0.0
  11
 741.395
  21
 55.5648
  31
0.0
   0
TEXT
   8
LEVEL003
  62
7
  10
 798.738
  20
 51.1942
  30
0.0
  40
 19.4400
   1
ＯＳＡＫＡ ＪＡＣＫ
   7
STANDARD
   0
TEXT
   8
LEVEL003
  62
7
  10
 799.091
  20
 89.7178
  30
0.0
  40
 12.9600
   1
Model : ＪＪ－３０２０
   7
STANDARD
   0
ENDSEC
   0
EOF
