   0
SECTION
   2
HEADER
   9
$LIMMIN
  10
0.0
  20
0.0
   9
$LIMMAX
  10
 840.000
  20
 594.000
   9
$EXTMIN
  10
0.0
  20
0.0
   9
$EXTMAX
  10
 840.000
  20
 594.000
   9
$LTSCALE
  40
 16.8000
   0
ENDSEC
   0
SECTION
   2
TABLES
  0
TABLE
  2
LTYPE
 70
    25
  0
LTYPE
  2
CONTINUOUS
 70
    64
  3
Solid line
 72
    65
 73
     0
 40
0.0
  0
LTYPE
  2
BORDER
 70
    64
  3
__ __ . __ __ . __ __ . __ __ . __ __ . __ __ .
 72
    65
 73
     6
 40
1.75
 49
0.5
 49
-0.25
 49
0.5
 49
-0.25
 49
0.0
 49
-0.25
  0
LTYPE
  2
BORDER2
 70
    64
  3
__.__.__.__.__.__.__.__.__.__.__.__.__.__.__.__
 72
    65
 73
     6
 40
0.875
 49
0.25
 49
-0.125
 49
0.25
 49
-0.125
 49
0.0
 49
-0.125
  0
LTYPE
  2
BORDERX2
 70
    64
  3
____  ____  .  ____  ____  .  ____  ____  .  __
 72
    65
 73
     6
 40
3.5
 49
1.0
 49
-0.5
 49
1.0
 49
-0.5
 49
0.0
 49
-0.5
  0
LTYPE
  2
CENTER
 70
    64
  3
____ _ ____ _ ____ _ ____ _ ____ _ ____ _ ____ 
 72
    65
 73
     4
 40
2.0
 49
1.25
 49
-0.25
 49
0.25
 49
-0.25
  0
LTYPE
  2
CENTER2
 70
    64
  3
___ _ ___ _ ___ _ ___ _ ___ _ ___ _ ___ _ ___ _
 72
    65
 73
     4
 40
1.125
 49
0.75
 49
-0.125
 49
0.125
 49
-0.125
  0
LTYPE
  2
CENTERX2
 70
    64
  3
________  __  ________  __  ________  __  _____
 72
    65
 73
     4
 40
4.0
 49
2.5
 49
-0.5
 49
0.5
 49
-0.5
  0
LTYPE
  2
DASHDOT
 70
    64
  3
__ . __ . __ . __ . __ . __ . __ . __ . __ . __
 72
    65
 73
     4
 40
1.0
 49
0.5
 49
-0.25
 49
0.0
 49
-0.25
  0
LTYPE
  2
DASHDOT2
 70
    64
  3
_._._._._._._._._._._._._._._._._._._._._._._._
 72
    65
 73
     4
 40
0.5
 49
0.25
 49
-0.125
 49
0.0
 49
-0.125
  0
LTYPE
  2
DASHDOTX2
 70
    64
  3
____  .  ____  .  ____  .  ____  .  ____  .  __
 72
    65
 73
     4
 40
2.0
 49
1.0
 49
-0.5
 49
0.0
 49
-0.5
  0
LTYPE
  2
DASHED
 70
    64
  3
__ __ __ __ __ __ __ __ __ __ __ __ __ __ __ __
 72
    65
 73
     2
 40
0.75
 49
0.5
 49
-0.25
  0
LTYPE
  2
DASHED2
 70
    64
  3
_ _ _ _ _ _ _ _ _ _ _ _ _ _ _ _ _ _ _ _ _ _ _ _
 72
    65
 73
     2
 40
0.375
 49
0.25
 49
-0.125
  0
LTYPE
  2
DASHEDX2
 70
    64
  3
____  ____  ____  ____  ____  ____  ____  ____ 
 72
    65
 73
     2
 40
1.5
 49
1.0
 49
-0.5
  0
LTYPE
  2
DIVIDE
 70
    64
  3
____ . . ____ . . ____ . . ____ . . ____ . . __
 72
    65
 73
     6
 40
1.25
 49
0.5
 49
-0.25
 49
0.0
 49
-0.25
 49
0.0
 49
-0.25
  0
LTYPE
  2
DIVIDE2
 70
    64
  3
__..__..__..__..__..__..__..__..__..__..__..__.
 72
    65
 73
     6
 40
0.625
 49
0.25
 49
-0.125
 49
0.0
 49
-0.125
 49
0.0
 49
-0.125
  0
LTYPE
  2
DIVIDEX2
 70
    64
  3
________  .  .  ________  .  .  ________  .  . 
 72
    65
 73
     6
 40
2.5
 49
1.0
 49
-0.5
 49
0.0
 49
-0.5
 49
0.0
 49
-0.5
  0
LTYPE
  2
DOT
 70
    64
  3
. . . . . . . . . . . . . . . . . . . . . . . .
 72
    65
 73
     2
 40
0.25
 49
0.0
 49
-0.25
  0
LTYPE
  2
DOT2
 70
    64
  3
...............................................
 72
    65
 73
     2
 40
0.125
 49
0.0
 49
-0.125
  0
LTYPE
  2
DOTX2
 70
    64
  3
.  .  .  .  .  .  .  .  .  .  .  .  .  .  .  . 
 72
    65
 73
     2
 40
0.5
 49
0.0
 49
-0.5
  0
LTYPE
  2
HIDDEN
 70
    64
  3
__ __ __ __ __ __ __ __ __ __ __ __ __ __ __ __
 72
    65
 73
     2
 40
0.375
 49
0.25
 49
-0.125
  0
LTYPE
  2
HIDDEN2
 70
    64
  3
_ _ _ _ _ _ _ _ _ _ _ _ _ _ _ _ _ _ _ _ _ _ _ _
 72
    65
 73
     2
 40
0.1875
 49
0.125
 49
-0.0625
  0
LTYPE
  2
HIDDENX2
 70
    64
  3
____ ____ ____ ____ ____ ____ ____ ____ ____ __
 72
    65
 73
     2
 40
0.75
 49
0.5
 49
-0.25
  0
LTYPE
  2
PHANTOM
 70
    64
  3
______  __  __  ______  __  __  ______  __  __ 
 72
    65
 73
     6
 40
2.5
 49
1.25
 49
-0.25
 49
0.25
 49
-0.25
 49
0.25
 49
-0.25
  0
LTYPE
  2
PHANTOM2
 70
    64
  3
___ _ _ ___ _ _ ___ _ _ ___ _ _ ___ _ _ ___ _ _
 72
    65
 73
     6
 40
1.25
 49
0.625
 49
-0.125
 49
0.125
 49
-0.125
 49
0.125
 49
-0.125
  0
LTYPE
  2
PHANTOMX2
 70
    64
  3
____________    ____    ____    ____________   
 72
    65
 73
     6
 40
5.0
 49
2.5
 49
-0.5
 49
0.5
 49
-0.5
 49
0.5
 49
-0.5
  0
ENDTAB
  0
TABLE
  2
STYLE
 70
     2
  0
STYLE
  2
STANDARD
 70
0
 40
0.0
 41
1.0
 50
0.0
 71
0
 42
0.2
  3
TXT
  4
BIGFONT
  0
STYLE
  2
STANDARD1
 70
     4
 40
0.0
 41
1.0
 50
0.0
 71
     0
 42
0.2
  3
TXT
  4
BIGFONT
  0
ENDTAB
   0
TABLE
   2
LAYER
  70
7
   0
LAYER
   2
0
  70
0
  62
7
   6
CONTINUOUS
   0
LAYER
   2
LEVEL001
  70
0
  62
7
   6
CONTINUOUS
   0
LAYER
   2
LEVEL003
  70
0
  62
7
   6
CONTINUOUS
   0
LAYER
   2
LEVEL020
  70
0
  62
7
   6
CONTINUOUS
   0
LAYER
   2
LEVEL050
  70
0
  62
7
   6
CONTINUOUS
   0
LAYER
   2
LEVEL100
  70
0
  62
-7
   6
CONTINUOUS
   0
LAYER
   2
LEVEL110
  70
0
  62
7
   6
CONTINUOUS
   0
ENDTAB
   0
ENDSEC
   0
SECTION
   2
ENTITIES
   0
LINE
   8
LEVEL100
   6
CONTINUOUS
  62
7
  10
 622.500
  20
 128.000
  30
0.0
  11
 622.500
  21
 114.000
  31
0.0
   0
LINE
   8
LEVEL100
   6
CONTINUOUS
  62
7
  10
 682.500
  20
 128.000
  30
0.0
  11
 682.500
  21
 82.0000
  31
0.0
   0
LINE
   8
LEVEL100
   6
CONTINUOUS
  62
7
  10
 722.500
  20
 128.000
  30
0.0
  11
 722.500
  21
 114.000
  31
0.0
   0
LINE
   8
LEVEL100
   6
CONTINUOUS
  62
7
  10
 738.500
  20
 128.000
  30
0.0
  11
 738.500
  21
 114.000
  31
0.0
   0
LINE
   8
LEVEL100
   6
CONTINUOUS
  62
7
  10
 761.500
  20
 128.000
  30
0.0
  11
 761.500
  21
 114.000
  31
0.0
   0
LINE
   8
LEVEL100
   6
CONTINUOUS
  62
7
  10
 663.500
  20
 114.000
  30
0.0
  11
 663.500
  21
 82.0000
  31
0.0
   0
LINE
   8
LEVEL100
   6
CONTINUOUS
  62
7
  10
 630.500
  20
 53.0000
  30
0.0
  11
 640.500
  21
 63.0000
  31
0.0
   0
CIRCLE
   8
LEVEL100
   6
CONTINUOUS
  62
7
  10
 616.500
  20
 23.0000
  30
0.0
  40
 0.800000
   0
CIRCLE
   8
LEVEL100
   6
CONTINUOUS
  62
7
  10
 630.500
  20
 23.0000
  30
0.0
  40
 0.800000
   0
CIRCLE
   8
LEVEL100
   6
CONTINUOUS
  62
7
  10
 616.500
  20
 23.0000
  30
0.0
  40
 0.500000
   0
CIRCLE
   8
LEVEL100
   6
CONTINUOUS
  62
7
  10
 630.500
  20
 23.0000
  30
0.0
  40
 0.500000
   0
LINE
   8
LEVEL100
   6
CONTINUOUS
  62
7
  10
 692.000
  20
 31.0000
  30
0.0
  11
 692.000
  21
 33.0000
  31
0.0
   0
LINE
   8
LEVEL100
   6
CONTINUOUS
  62
7
  10
 692.000
  20
 33.0000
  30
0.0
  11
 698.000
  21
 33.0000
  31
0.0
   0
LINE
   8
LEVEL100
   6
CONTINUOUS
  62
7
  10
 698.000
  20
 33.0000
  30
0.0
  11
 698.000
  21
 31.0000
  31
0.0
   0
LINE
   8
LEVEL100
   6
CONTINUOUS
  62
7
  10
 698.000
  20
 31.0000
  30
0.0
  11
 692.000
  21
 31.0000
  31
0.0
   0
LINE
   8
LEVEL100
   6
CONTINUOUS
  62
7
  10
 602.500
  20
 20.0000
  30
0.0
  11
 602.500
  21
 128.000
  31
0.0
   0
LINE
   8
LEVEL100
   6
CONTINUOUS
  62
7
  10
 644.500
  20
 114.000
  30
0.0
  11
 644.500
  21
 20.0000
  31
0.0
   0
LINE
   8
LEVEL100
   6
CONTINUOUS
  62
7
  10
 602.500
  20
 66.0000
  30
0.0
  11
 644.500
  21
 66.0000
  31
0.0
   0
TEXT
   8
LEVEL100
  62
7
  10
 651.500
  20
 27.0000
  30
0.0
  40
 10.0000
   1
ＯＪ
  41
 0.700000
   7
STANDARD
   0
LINE
   8
LEVEL100
   6
CONTINUOUS
  62
7
  10
 602.500
  20
 114.000
  30
0.0
  11
 816.300
  21
 114.000
  31
0.0
   0
LINE
   8
LEVEL100
   6
CONTINUOUS
  62
7
  10
 602.500
  20
 106.000
  30
0.0
  11
 816.300
  21
 106.000
  31
0.0
   0
LINE
   8
LEVEL100
   6
CONTINUOUS
  62
7
  10
 602.500
  20
 128.000
  30
0.0
  11
 816.300
  21
 128.000
  31
0.0
   0
LINE
   8
LEVEL100
   6
CONTINUOUS
  62
7
  10
 654.300
  20
 526.000
  30
0.0
  11
 654.300
  21
 576.000
  31
0.0
   0
LINE
   8
LEVEL100
   6
CONTINUOUS
  62
7
  10
 654.300
  20
 566.000
  30
0.0
  11
 816.300
  21
 566.000
  31
0.0
   0
LINE
   8
LEVEL100
   6
CONTINUOUS
  62
7
  10
 654.300
  20
 556.000
  30
0.0
  11
 816.300
  21
 556.000
  31
0.0
   0
LINE
   8
LEVEL100
   6
CONTINUOUS
  62
7
  10
 672.300
  20
 566.000
  30
0.0
  11
 672.300
  21
 556.000
  31
0.0
   0
LINE
   8
LEVEL100
   6
CONTINUOUS
  62
7
  10
 776.300
  20
 566.000
  30
0.0
  11
 776.300
  21
 556.000
  31
0.0
   0
LINE
   8
LEVEL100
   6
CONTINUOUS
  62
7
  10
 800.300
  20
 566.000
  30
0.0
  11
 800.300
  21
 556.000
  31
0.0
   0
LINE
   8
LEVEL100
   6
CONTINUOUS
  62
7
  10
 602.500
  20
 82.0000
  30
0.0
  11
 816.300
  21
 82.0000
  31
0.0
   0
LINE
   8
LEVEL100
   6
CONTINUOUS
  62
7
  10
 602.500
  20
 50.0000
  30
0.0
  11
 816.300
  21
 50.0000
  31
0.0
   0
LINE
   8
LEVEL100
   6
CONTINUOUS
  62
7
  10
 760.300
  20
 50.0000
  30
0.0
  11
 760.300
  21
 20.0000
  31
0.0
   0
LINE
   8
LEVEL100
   6
CONTINUOUS
  62
7
  10
 768.300
  20
 20.0000
  30
0.0
  11
 802.300
  21
 40.0000
  31
0.0
   0
LINE
   8
LEVEL100
   6
CONTINUOUS
  62
7
  10
 50.0000
  20
 576.000
  30
0.0
  11
 816.300
  21
 576.000
  31
0.0
   0
LINE
   8
LEVEL100
   6
CONTINUOUS
  62
7
  10
 816.300
  20
 576.000
  30
0.0
  11
 816.300
  21
 20.0000
  31
0.0
   0
LINE
   8
LEVEL100
   6
CONTINUOUS
  62
7
  10
 816.300
  20
 20.0000
  30
0.0
  11
 50.0000
  21
 20.0000
  31
0.0
   0
LINE
   8
LEVEL100
   6
CONTINUOUS
  62
7
  10
 50.0000
  20
 558.400
  30
0.0
  11
 150.300
  21
 558.400
  31
0.0
   0
LINE
   8
LEVEL100
   6
CONTINUOUS
  62
7
  10
 150.300
  20
 558.400
  30
0.0
  11
 150.300
  21
 576.000
  31
0.0
   0
TEXT
   8
LEVEL100
  62
7
  10
 148.300
  20
 572.200
  30
0.0
  40
 10.0000
   1
ＯＪ．
  50
 180.000
  41
 0.900000
   7
STANDARD
   0
LINE
   8
LEVEL100
   6
CONTINUOUS
  62
7
  10
 114.300
  20
 568.200
  30
0.0
  11
 108.300
  21
 568.200
  31
0.0
   0
LINE
   8
LEVEL100
   6
CONTINUOUS
  62
7
  10
 108.300
  20
 568.200
  30
0.0
  11
 108.300
  21
 566.200
  31
0.0
   0
LINE
   8
LEVEL100
   6
CONTINUOUS
  62
7
  10
 108.300
  20
 566.200
  30
0.0
  11
 114.300
  21
 566.200
  31
0.0
   0
LINE
   8
LEVEL100
   6
CONTINUOUS
  62
7
  10
 114.300
  20
 566.200
  30
0.0
  11
 114.300
  21
 568.200
  31
0.0
   0
TEXT
   8
LEVEL100
  62
7
  10
 624.500
  20
 116.000
  30
0.0
  40
 8.00000
   1
Ｓ．ＩＭＡＮＩＳＨＩ
  41
 0.625000
   7
STANDARD
   0
TEXT
   8
LEVEL020
  62
6
  10
 290.000
  20
 480.000
  30
0.0
  40
 10.0000
   1
ストローク
   7
STANDARD
   0
TEXT
   8
LEVEL020
  62
6
  10
 290.000
  20
 494.000
  30
0.0
  40
 10.0000
   1
揚　　　力
   7
STANDARD
   0
TEXT
   8
LEVEL020
  62
6
  10
 460.000
  20
 480.000
  30
0.0
  40
 10.0000
   1
ｍｍ
  41
 0.700000
   7
STANDARD
   0
LINE
   8
LEVEL020
   6
CONTINUOUS
  62
6
  10
 290.000
  20
 506.000
  30
0.0
  11
 490.000
  21
 506.000
  31
0.0
   0
LINE
   8
LEVEL020
   6
CONTINUOUS
  62
6
  10
 290.000
  20
 492.000
  30
0.0
  11
 490.000
  21
 492.000
  31
0.0
   0
LINE
   8
LEVEL020
   6
CONTINUOUS
  62
6
  10
 290.000
  20
 478.000
  30
0.0
  11
 490.000
  21
 478.000
  31
0.0
   0
TEXT
   8
LEVEL020
  62
6
  10
 290.000
  20
 508.000
  30
0.0
  40
 10.0000
   1
形　　　式
   7
STANDARD
   0
TEXT
   8
LEVEL020
  62
6
  10
 290.000
  20
 522.000
  30
0.0
  40
 10.0000
   1
仕　　　様
   7
STANDARD
   0
LINE
   8
LEVEL020
   6
CONTINUOUS
  62
6
  10
 290.000
  20
 520.000
  30
0.0
  11
 340.000
  21
 520.000
  31
0.0
   0
TEXT
   8
LEVEL020
  62
6
  10
 290.000
  20
 466.000
  30
0.0
  40
 10.0000
   1
最低高さ
   7
STANDARD
   0
TEXT
   8
LEVEL020
  62
6
  10
 460.000
  20
 466.000
  30
0.0
  40
 10.0000
   1
ｍｍ
  41
 0.700000
   7
STANDARD
   0
LINE
   8
LEVEL020
   6
CONTINUOUS
  62
6
  10
 290.000
  20
 464.000
  30
0.0
  11
 490.000
  21
 464.000
  31
0.0
   0
LINE
   8
LEVEL020
   6
CONTINUOUS
  62
6
  10
 290.000
  20
 450.000
  30
0.0
  11
 490.000
  21
 450.000
  31
0.0
   0
LINE
   8
LEVEL020
   6
CONTINUOUS
  62
6
  10
 290.000
  20
 436.000
  30
0.0
  11
 490.000
  21
 436.000
  31
0.0
   0
TEXT
   8
LEVEL020
  62
6
  10
 290.000
  20
 438.000
  30
0.0
  40
 10.0000
   1
付　属　品
   7
STANDARD
   0
TEXT
   8
LEVEL020
  62
6
  10
 404.000
  20
 438.000
  30
0.0
  40
 10.0000
   1
　　　　　　１
  41
 0.700000
   7
STANDARD
   0
TEXT
   8
LEVEL020
  62
6
  10
 460.000
  20
 438.000
  30
0.0
  40
 10.0000
   1
本
  41
 0.500000
   7
STANDARD
   0
TEXT
   8
LEVEL020
  62
6
  10
 460.000
  20
 452.000
  30
0.0
  40
 10.0000
   1
ｋｇ
  41
 0.700000
   7
STANDARD
   0
TEXT
   8
LEVEL020
  62
6
  10
 404.000
  20
 508.000
  30
0.0
  40
 10.0000
   1
　　　ＪＪ－３５１３
  41
 0.700000
   7
STANDARD
   0
TEXT
   8
LEVEL020
  62
6
  10
 404.000
  20
 480.000
  30
0.0
  40
 10.0000
   1
　　　　１３０
  41
 0.700000
   7
STANDARD
   0
TEXT
   8
LEVEL020
  62
6
  10
 404.000
  20
 466.000
  30
0.0
  40
 10.0000
   1
　　　　２８０
  41
 0.700000
   7
STANDARD
   0
TEXT
   8
LEVEL020
  62
6
  10
 404.000
  20
 452.000
  30
0.0
  40
 10.0000
   1
　　　約　２４
  41
 0.700000
   7
STANDARD
   0
TEXT
   8
LEVEL020
  62
6
  10
 347.000
  20
 438.000
  30
0.0
  40
 10.0000
   1
ハンドル棒（%%c３２×７００Ｌ）
  41
 0.600000
   7
STANDARD
   0
LINE
   8
LEVEL001
   6
DASHDOT
  62
1
  10
 167.500
  20
 198.000
  30
0.0
  11
 355.000
  21
 198.000
  31
0.0
   0
ARC
   8
LEVEL001
   6
CONTINUOUS
  62
7
  10
 245.500
  20
 98.4359
  30
0.0
  40
 3.00000
  50
 270.000
  51
0.0
   0
LINE
   8
LEVEL001
   6
CONTINUOUS
  62
7
  10
 175.000
  20
 95.4359
  30
0.0
  11
 245.500
  21
 95.4359
  31
0.0
   0
LINE
   8
LEVEL001
   6
CONTINUOUS
  62
7
  10
 248.500
  20
 98.4359
  30
0.0
  11
 248.500
  21
 107.436
  31
0.0
   0
LINE
   8
LEVEL001
   6
DASHDOT
  62
1
  10
 192.500
  20
 100.000
  30
0.0
  11
 192.500
  21
 92.7180
  31
0.0
   0
LINE
   8
LEVEL001
   6
DASHDOT
  62
1
  10
 212.500
  20
 100.000
  30
0.0
  11
 212.500
  21
 92.7180
  31
0.0
   0
LINE
   8
LEVEL001
   6
DASHDOT
  62
1
  10
 230.000
  20
 100.000
  30
0.0
  11
 230.000
  21
 92.7180
  31
0.0
   0
LINE
   8
LEVEL001
   6
CONTINUOUS
  62
7
  10
 255.500
  20
 107.436
  30
0.0
  11
 255.500
  21
 119.436
  31
0.0
   0
LINE
   8
LEVEL001
   6
CONTINUOUS
  62
7
  10
 251.000
  20
 119.436
  30
0.0
  11
 251.000
  21
 134.436
  31
0.0
   0
ARC
   8
LEVEL001
   6
CONTINUOUS
  62
7
  10
 251.500
  20
 137.436
  30
0.0
  40
 2.00000
  50
 90.0000
  51
 180.000
   0
ARC
   8
LEVEL001
   6
CONTINUOUS
  62
7
  10
 104.500
  20
 98.4359
  30
0.0
  40
 3.00000
  50
 180.000
  51
 270.000
   0
LINE
   8
LEVEL001
   6
CONTINUOUS
  62
7
  10
 175.000
  20
 95.4359
  30
0.0
  11
 104.500
  21
 95.4359
  31
0.0
   0
LINE
   8
LEVEL001
   6
CONTINUOUS
  62
7
  10
 101.500
  20
 98.4359
  30
0.0
  11
 101.500
  21
 107.436
  31
0.0
   0
LINE
   8
LEVEL001
   6
DASHDOT
  62
1
  10
 157.500
  20
 100.000
  30
0.0
  11
 157.500
  21
 92.7180
  31
0.0
   0
LINE
   8
LEVEL001
   6
DASHDOT
  62
1
  10
 137.500
  20
 100.000
  30
0.0
  11
 137.500
  21
 92.7180
  31
0.0
   0
LINE
   8
LEVEL001
   6
DASHDOT
  62
1
  10
 120.000
  20
 100.000
  30
0.0
  11
 120.000
  21
 92.7180
  31
0.0
   0
LINE
   8
LEVEL001
   6
CONTINUOUS
  62
7
  10
 94.5000
  20
 107.436
  30
0.0
  11
 94.5000
  21
 119.436
  31
0.0
   0
LINE
   8
LEVEL001
   6
CONTINUOUS
  62
7
  10
 99.0000
  20
 119.436
  30
0.0
  11
 99.0000
  21
 134.436
  31
0.0
   0
ARC
   8
LEVEL001
   6
CONTINUOUS
  62
7
  10
 106.759
  20
 262.800
  30
0.0
  40
 5.00000
  50
 176.252
  51
 179.148
   0
ARC
   8
LEVEL001
   6
CONTINUOUS
  62
7
  10
 269.500
  20
 149.129
  30
0.0
  40
 20.0000
  50
 93.3275
  51
 180.000
   0
LINE
   8
LEVEL001
   6
CONTINUOUS
  62
7
  10
 249.500
  20
 134.436
  30
0.0
  11
 249.500
  21
 149.129
  31
0.0
   0
ARC
   8
LEVEL001
   6
CONTINUOUS
  62
7
  10
 253.365
  20
 142.436
  30
0.0
  40
 3.00000
  50
 270.000
  51
 311.430
   0
LINE
   8
LEVEL001
   6
CONTINUOUS
  62
7
  10
 251.500
  20
 139.436
  30
0.0
  11
 253.365
  21
 139.436
  31
0.0
   0
LINE
   8
LEVEL001
   6
CONTINUOUS
  62
7
  10
 289.500
  20
 170.326
  30
0.0
  11
 255.351
  21
 140.187
  31
0.0
   0
LINE
   8
LEVEL001
   6
CONTINUOUS
  62
7
  10
 292.500
  20
 172.500
  30
0.0
  11
 290.503
  21
 170.384
  31
0.0
   0
LINE
   8
LEVEL001
   6
CONTINUOUS
  62
7
  10
 268.339
  20
 169.095
  30
0.0
  11
 290.503
  21
 170.384
  31
0.0
   0
LINE
   8
LEVEL001
   6
CONTINUOUS
  62
7
  10
 292.500
  20
 223.500
  30
0.0
  11
 290.503
  21
 225.616
  31
0.0
   0
ARC
   8
LEVEL001
   6
CONTINUOUS
  62
7
  10
 262.238
  20
 237.276
  30
0.0
  40
 10.0000
  50
 193.053
  51
 266.673
   0
LINE
   8
LEVEL001
   6
CONTINUOUS
  62
7
  10
 261.658
  20
 227.293
  30
0.0
  11
 290.503
  21
 225.616
  31
0.0
   0
LINE
   8
LEVEL001
   6
DASHDOT
  62
1
  10
 237.500
  20
 113.436
  30
0.0
  11
 258.500
  21
 113.436
  31
0.0
   0
ARC
   8
LEVEL001
   6
CONTINUOUS
  62
7
  10
 125.000
  20
 355.436
  30
0.0
  40
 2.00000
  50
 90.0002
  51
 180.002
   0
ARC
   8
LEVEL001
   6
CONTINUOUS
  62
7
  10
 225.000
  20
 355.436
  30
0.0
  40
 2.00000
  50
 359.998
  51
 89.9996
   0
LINE
   8
LEVEL001
   6
CONTINUOUS
  62
7
  10
 227.000
  20
 355.436
  30
0.0
  11
 229.000
  21
 355.436
  31
0.0
   0
ARC
   8
LEVEL001
   6
CONTINUOUS
  62
7
  10
 134.500
  20
 372.436
  30
0.0
  40
 3.00000
  50
 90.0000
  51
 180.000
   0
LINE
   8
LEVEL001
   6
CONTINUOUS
  62
7
  10
 134.500
  20
 375.436
  30
0.0
  11
 175.000
  21
 375.436
  31
0.0
   0
LINE
   8
LEVEL001
   6
CONTINUOUS
  62
7
  10
 131.500
  20
 357.436
  30
0.0
  11
 131.500
  21
 372.436
  31
0.0
   0
LINE
   8
LEVEL001
   6
DASHDOT
  62
1
  10
 160.500
  20
 370.218
  30
0.0
  11
 160.500
  21
 380.000
  31
0.0
   0
LINE
   8
LEVEL001
   6
DASHDOT
  62
1
  10
 146.000
  20
 370.218
  30
0.0
  11
 146.000
  21
 380.000
  31
0.0
   0
LINE
   8
LEVEL001
   6
DASHDOT
  62
1
  10
 175.000
  20
 90.0000
  30
0.0
  11
 175.000
  21
 380.000
  31
0.0
   0
LINE
   8
LEVEL001
   6
CONTINUOUS
  62
7
  10
 215.500
  20
 375.436
  30
0.0
  11
 175.000
  21
 375.436
  31
0.0
   0
LINE
   8
LEVEL001
   6
DASHDOT
  62
1
  10
 189.500
  20
 370.218
  30
0.0
  11
 189.500
  21
 380.000
  31
0.0
   0
LINE
   8
LEVEL001
   6
DASHDOT
  62
1
  10
 204.000
  20
 370.218
  30
0.0
  11
 204.000
  21
 380.000
  31
0.0
   0
ARC
   8
LEVEL001
   6
CONTINUOUS
  62
7
  10
 215.500
  20
 372.436
  30
0.0
  40
 3.00000
  50
0.0
  51
 90.0000
   0
LINE
   8
LEVEL001
   6
CONTINUOUS
  62
7
  10
 218.500
  20
 357.436
  30
0.0
  11
 218.500
  21
 372.436
  31
0.0
   0
ARC
   8
LEVEL001
   6
CONTINUOUS
  62
7
  10
 434.500
  20
 98.4359
  30
0.0
  40
 3.00000
  50
 180.000
  51
 270.000
   0
LINE
   8
LEVEL001
   6
CONTINUOUS
  62
7
  10
 431.500
  20
 98.4359
  30
0.0
  11
 431.500
  21
 107.436
  31
0.0
   0
LINE
   8
LEVEL001
   6
CONTINUOUS
  62
7
  10
 424.500
  20
 107.436
  30
0.0
  11
 424.500
  21
 119.436
  31
0.0
   0
LINE
   8
LEVEL001
   6
CONTINUOUS
  62
7
  10
 429.000
  20
 119.436
  30
0.0
  11
 429.000
  21
 134.436
  31
0.0
   0
LINE
   8
LEVEL001
   6
CONTINUOUS
  62
7
  10
 505.000
  20
 95.4359
  30
0.0
  11
 434.500
  21
 95.4359
  31
0.0
   0
ARC
   8
LEVEL001
   6
CONTINUOUS
  62
7
  10
 575.500
  20
 98.4359
  30
0.0
  40
 3.00000
  50
 270.000
  51
0.0
   0
LINE
   8
LEVEL001
   6
CONTINUOUS
  62
7
  10
 578.500
  20
 98.4359
  30
0.0
  11
 578.500
  21
 107.436
  31
0.0
   0
LINE
   8
LEVEL001
   6
CONTINUOUS
  62
7
  10
 581.000
  20
 119.436
  30
0.0
  11
 585.500
  21
 119.436
  31
0.0
   0
LINE
   8
LEVEL001
   6
CONTINUOUS
  62
7
  10
 585.500
  20
 107.436
  30
0.0
  11
 585.500
  21
 119.436
  31
0.0
   0
LINE
   8
LEVEL001
   6
CONTINUOUS
  62
7
  10
 581.000
  20
 119.436
  30
0.0
  11
 581.000
  21
 134.436
  31
0.0
   0
LINE
   8
LEVEL001
   6
CONTINUOUS
  62
7
  10
 579.500
  20
 134.436
  30
0.0
  11
 581.000
  21
 134.436
  31
0.0
   0
LINE
   8
LEVEL001
   6
CONTINUOUS
  62
7
  10
 505.000
  20
 95.4359
  30
0.0
  11
 575.500
  21
 95.4359
  31
0.0
   0
LINE
   8
LEVEL001
   6
CONTINUOUS
  62
7
  10
 434.150
  20
 121.436
  30
0.0
  11
 434.150
  21
 107.436
  31
0.0
   0
LINE
   8
LEVEL001
   6
CONTINUOUS
  62
7
  10
 575.850
  20
 121.436
  30
0.0
  11
 575.850
  21
 107.436
  31
0.0
   0
LINE
   8
LEVEL001
   6
CONTINUOUS
  62
7
  10
 434.150
  20
 119.436
  30
0.0
  11
 424.500
  21
 119.436
  31
0.0
   0
LINE
   8
LEVEL001
   6
CONTINUOUS
  62
7
  10
 581.000
  20
 119.436
  30
0.0
  11
 575.850
  21
 119.436
  31
0.0
   0
ARC
   8
LEVEL001
   6
CONTINUOUS
  62
7
  10
 510.500
  20
 250.650
  30
0.0
  40
 3.00000
  50
 174.520
  51
 264.036
   0
ARC
   8
LEVEL001
   6
CONTINUOUS
  62
7
  10
 499.500
  20
 250.650
  30
0.0
  40
 3.00000
  50
 275.964
  51
 5.48010
   0
LINE
   8
LEVEL001
   6
DASHDOT
  62
1
  10
 445.000
  20
 198.000
  30
0.0
  11
 560.000
  21
 198.000
  31
0.0
   0
CIRCLE
   8
LEVEL001
   6
CONTINUOUS
  62
7
  10
 505.000
  20
 198.000
  30
0.0
  40
 22.5000
   0
CIRCLE
   8
LEVEL001
   6
CONTINUOUS
  62
7
  10
 505.000
  20
 198.000
  30
0.0
  40
 23.5000
   0
ARC
   8
LEVEL001
   6
CONTINUOUS
  62
7
  10
 446.000
  20
 191.588
  30
0.0
  40
 1.00000
  50
 95.2371
  51
 180.001
   0
ARC
   8
LEVEL001
   6
CONTINUOUS
  62
7
  10
 446.000
  20
 143.500
  30
0.0
  40
 1.00000
  50
 180.000
  51
 270.000
   0
LINE
   8
LEVEL001
   6
CONTINUOUS
  62
7
  10
 445.000
  20
 191.587
  30
0.0
  11
 445.000
  21
 143.500
  31
0.0
   0
ARC
   8
LEVEL001
   6
CONTINUOUS
  62
7
  10
 564.000
  20
 191.587
  30
0.0
  40
 1.00000
  50
 0.195213E-2
  51
 84.7611
   0
ARC
   8
LEVEL001
   6
CONTINUOUS
  62
7
  10
 564.000
  20
 143.500
  30
0.0
  40
 1.00000
  50
 270.000
  51
 0.977066E-11
   0
LINE
   8
LEVEL001
   6
CONTINUOUS
  62
7
  10
 565.000
  20
 191.588
  30
0.0
  11
 565.000
  21
 143.500
  31
0.0
   0
ARC
   8
LEVEL001
   6
CONTINUOUS
  62
7
  10
 462.953
  20
 204.188
  30
0.0
  40
 10.0000
  50
 275.238
  51
 351.628
   0
LINE
   8
LEVEL001
   6
CONTINUOUS
  62
7
  10
 445.909
  20
 192.583
  30
0.0
  11
 463.866
  21
 194.229
  31
0.0
   0
ARC
   8
LEVEL001
   6
CONTINUOUS
  62
7
  10
 462.953
  20
 204.188
  30
0.0
  40
 8.60000
  50
 275.237
  51
 351.628
   0
ARC
   8
LEVEL001
   6
CONTINUOUS
  62
7
  10
 547.047
  20
 204.188
  30
0.0
  40
 8.60000
  50
 188.372
  51
 264.763
   0
ARC
   8
LEVEL001
   6
CONTINUOUS
  62
7
  10
 505.000
  20
 198.000
  30
0.0
  40
 33.9000
  50
 8.37164
  51
 171.628
   0
ARC
   8
LEVEL001
   6
CONTINUOUS
  62
7
  10
 547.047
  20
 204.188
  30
0.0
  40
 10.0000
  50
 188.371
  51
 264.762
   0
LINE
   8
LEVEL001
   6
CONTINUOUS
  62
7
  10
 546.134
  20
 194.229
  30
0.0
  11
 564.091
  21
 192.583
  31
0.0
   0
ARC
   8
LEVEL001
   6
CONTINUOUS
  62
7
  10
 505.000
  20
 198.000
  30
0.0
  40
 32.5000
  50
 8.37128
  51
 171.629
   0
LINE
   8
LEVEL001
   6
CONTINUOUS
  62
7
  10
 446.628
  20
 192.649
  30
0.0
  11
 446.500
  21
 194.043
  31
0.0
   0
LINE
   8
LEVEL001
   6
CONTINUOUS
  62
7
  10
 563.372
  20
 192.649
  30
0.0
  11
 563.500
  21
 194.043
  31
0.0
   0
LINE
   8
LEVEL001
   6
CONTINUOUS
  62
7
  10
 546.262
  20
 195.624
  30
0.0
  11
 563.500
  21
 194.043
  31
0.0
   0
LINE
   8
LEVEL001
   6
CONTINUOUS
  62
7
  10
 446.500
  20
 194.043
  30
0.0
  11
 463.738
  21
 195.624
  31
0.0
   0
ARC
   8
LEVEL001
   6
CONTINUOUS
  62
7
  10
 455.183
  20
 192.831
  30
0.0
  40
 5.40000
  50
 95.2376
  51
 129.185
   0
ARC
   8
LEVEL001
   6
CONTINUOUS
  62
7
  10
 453.919
  20
 194.381
  30
0.0
  40
 3.40000
  50
 129.185
  51
 179.483
   0
ARC
   8
LEVEL001
   6
CONTINUOUS
  62
7
  10
 455.183
  20
 192.831
  30
0.0
  40
 5.40000
  50
 61.2915
  51
 95.2389
   0
ARC
   8
LEVEL001
   6
CONTINUOUS
  62
7
  10
 456.143
  20
 194.585
  30
0.0
  40
 3.40000
  50
 10.9936
  51
 61.2916
   0
ARC
   8
LEVEL001
   6
CONTINUOUS
  62
7
  10
 505.000
  20
 198.000
  30
0.0
  40
 49.9367
  50
 95.9637
  51
 179.737
   0
ARC
   8
LEVEL001
   6
CONTINUOUS
  62
7
  10
 554.817
  20
 192.831
  30
0.0
  40
 5.40000
  50
 50.8153
  51
 84.7617
   0
ARC
   8
LEVEL001
   6
CONTINUOUS
  62
7
  10
 556.081
  20
 194.381
  30
0.0
  40
 3.40000
  50
 0.517606
  51
 50.8162
   0
ARC
   8
LEVEL001
   6
CONTINUOUS
  62
7
  10
 554.817
  20
 192.831
  30
0.0
  40
 5.40000
  50
 84.7605
  51
 118.709
   0
ARC
   8
LEVEL001
   6
CONTINUOUS
  62
7
  10
 553.857
  20
 194.585
  30
0.0
  40
 3.40000
  50
 118.710
  51
 169.007
   0
ARC
   8
LEVEL001
   6
CONTINUOUS
  62
7
  10
 505.000
  20
 198.000
  30
0.0
  40
 49.9367
  50
 0.237216
  51
 84.0363
   0
LINE
   8
LEVEL001
   6
DASHDOT
  62
1
  10
 454.530
  20
 199.957
  30
0.0
  11
 455.893
  21
 185.082
  31
0.0
   0
LINE
   8
LEVEL001
   6
DASHDOT
  62
1
  10
 555.470
  20
 199.957
  30
0.0
  11
 554.107
  21
 185.082
  31
0.0
   0
ARC
   8
LEVEL001
   6
CONTINUOUS
  62
7
  10
 479.500
  20
 103.376
  30
0.0
  40
 2.00000
  50
 180.000
  51
 254.918
   0
ARC
   8
LEVEL001
   6
CONTINUOUS
  62
7
  10
 530.500
  20
 103.376
  30
0.0
  40
 2.00000
  50
 285.082
  51
 0.243501E-3
   0
ARC
   8
LEVEL001
   6
CONTINUOUS
  62
7
  10
 505.000
  20
 198.000
  30
0.0
  40
 100.000
  50
 254.918
  51
 285.082
   0
LINE
   8
LEVEL001
   6
CONTINUOUS
  62
7
  10
 477.500
  20
 103.376
  30
0.0
  11
 477.500
  21
 110.944
  31
0.0
   0
LINE
   8
LEVEL001
   6
CONTINUOUS
  62
7
  10
 532.500
  20
 110.944
  30
0.0
  11
 532.500
  21
 103.376
  31
0.0
   0
ARC
   8
LEVEL001
   6
CONTINUOUS
  62
7
  10
 505.000
  20
 198.000
  30
0.0
  40
 90.0000
  50
 253.070
  51
 286.930
   0
ARC
   8
LEVEL001
   6
CONTINUOUS
  62
7
  10
 479.000
  20
 112.880
  30
0.0
  40
 1.00000
  50
 255.521
  51
 0.487217E-3
   0
ARC
   8
LEVEL001
   6
CONTINUOUS
  62
7
  10
 478.500
  20
 110.944
  30
0.0
  40
 1.00000
  50
 75.5225
  51
 179.999
   0
ARC
   8
LEVEL001
   6
CONTINUOUS
  62
7
  10
 531.000
  20
 112.880
  30
0.0
  40
 1.00000
  50
 180.000
  51
 284.474
   0
ARC
   8
LEVEL001
   6
CONTINUOUS
  62
7
  10
 531.500
  20
 110.944
  30
0.0
  40
 1.00000
  50
 0.537387E-10
  51
 104.478
   0
LINE
   8
LEVEL001
   6
CONTINUOUS
  62
7
  10
 424.500
  20
 107.436
  30
0.0
  11
 477.500
  21
 107.436
  31
0.0
   0
LINE
   8
LEVEL001
   6
CONTINUOUS
  62
7
  10
 532.500
  20
 107.436
  30
0.0
  11
 585.500
  21
 107.436
  31
0.0
   0
ARC
   8
LEVEL001
   6
CONTINUOUS
  62
7
  10
 473.328
  20
 128.500
  30
0.0
  40
 8.00000
  50
 189.040
  51
 270.000
   0
ARC
   8
LEVEL001
   6
CONTINUOUS
  62
7
  10
 458.733
  20
 137.500
  30
0.0
  40
 5.00000
  50
 9.03958
  51
 90.0003
   0
LINE
   8
LEVEL001
   6
CONTINUOUS
  62
7
  10
 463.670
  20
 138.286
  30
0.0
  11
 465.427
  21
 127.243
  31
0.0
   0
ARC
   8
LEVEL001
   6
CONTINUOUS
  62
7
  10
 475.000
  20
 115.500
  30
0.0
  40
 5.00000
  50
0.0
  51
 90.0003
   0
LINE
   8
LEVEL001
   6
CONTINUOUS
  62
7
  10
 473.328
  20
 120.500
  30
0.0
  11
 475.000
  21
 120.500
  31
0.0
   0
LINE
   8
LEVEL001
   6
CONTINUOUS
  62
7
  10
 464.283
  20
 134.436
  30
0.0
  11
 429.000
  21
 134.436
  31
0.0
   0
LINE
   8
LEVEL001
   6
CONTINUOUS
  62
7
  10
 477.500
  20
 110.944
  30
0.0
  11
 477.500
  21
 119.436
  31
0.0
   0
LINE
   8
LEVEL001
   6
CONTINUOUS
  62
7
  10
 469.573
  20
 121.436
  30
0.0
  11
 434.150
  21
 121.436
  31
0.0
   0
LINE
   8
LEVEL001
   6
CONTINUOUS
  62
7
  10
 478.084
  20
 119.436
  30
0.0
  11
 477.500
  21
 119.436
  31
0.0
   0
ARC
   8
LEVEL001
   6
CONTINUOUS
  62
7
  10
 579.904
  20
 95.0433
  30
0.0
  40
 50.0000
  50
 108.171
  51
 161.457
   0
LINE
   8
LEVEL001
   6
CONTINUOUS
  62
7
  10
 579.500
  20
 134.436
  30
0.0
  11
 549.111
  21
 134.436
  31
0.0
   0
LINE
   8
LEVEL001
   6
CONTINUOUS
  62
7
  10
 537.437
  20
 121.436
  30
0.0
  11
 575.850
  21
 121.436
  31
0.0
   0
ARC
   8
LEVEL001
   6
CONTINUOUS
  62
7
  10
 533.000
  20
 139.500
  30
0.0
  40
 3.00000
  50
 90.0000
  51
 180.000
   0
LINE
   8
LEVEL001
   6
CONTINUOUS
  62
7
  10
 533.000
  20
 142.500
  30
0.0
  11
 564.000
  21
 142.500
  31
0.0
   0
ARC
   8
LEVEL001
   6
CONTINUOUS
  62
7
  10
 477.000
  20
 139.500
  30
0.0
  40
 3.00000
  50
0.0
  51
 90.0000
   0
LINE
   8
LEVEL001
   6
CONTINUOUS
  62
7
  10
 446.000
  20
 142.500
  30
0.0
  11
 477.000
  21
 142.500
  31
0.0
   0
CIRCLE
   8
LEVEL001
   6
CONTINUOUS
  62
7
  10
 505.000
  20
 118.000
  30
0.0
  40
 5.00000
   0
LINE
   8
LEVEL001
   6
DASHDOT
  62
1
  10
 495.000
  20
 118.000
  30
0.0
  11
 515.000
  21
 118.000
  31
0.0
   0
LINE
   8
LEVEL001
   6
DASHDOT
  62
1
  10
 440.000
  20
 167.500
  30
0.0
  11
 585.500
  21
 167.500
  31
0.0
   0
ARC
   8
LEVEL001
   6
CONTINUOUS
  62
7
  10
 442.500
  20
 183.250
  30
0.0
  40
 1.50000
  50
 90.0000
  51
 180.000
   0
LINE
   8
LEVEL001
   6
CONTINUOUS
  62
7
  10
 442.500
  20
 184.750
  30
0.0
  11
 445.000
  21
 184.750
  31
0.0
   0
ARC
   8
LEVEL001
   6
CONTINUOUS
  62
7
  10
 442.500
  20
 151.750
  30
0.0
  40
 1.50000
  50
 180.000
  51
 270.000
   0
LINE
   8
LEVEL001
   6
CONTINUOUS
  62
7
  10
 441.000
  20
 183.250
  30
0.0
  11
 441.000
  21
 151.750
  31
0.0
   0
LINE
   8
LEVEL001
   6
CONTINUOUS
  62
7
  10
 442.500
  20
 150.250
  30
0.0
  11
 445.000
  21
 150.250
  31
0.0
   0
ARC
   8
LEVEL001
   6
CONTINUOUS
  62
7
  10
 579.500
  20
 183.250
  30
0.0
  40
 1.50000
  50
 0.108563E-11
  51
 89.9977
   0
LINE
   8
LEVEL001
   6
CONTINUOUS
  62
7
  10
 565.000
  20
 184.750
  30
0.0
  11
 579.500
  21
 184.750
  31
0.0
   0
ARC
   8
LEVEL001
   6
CONTINUOUS
  62
7
  10
 579.500
  20
 151.750
  30
0.0
  40
 1.50000
  50
 270.002
  51
 0.472498E-7
   0
LINE
   8
LEVEL001
   6
CONTINUOUS
  62
7
  10
 581.000
  20
 183.250
  30
0.0
  11
 581.000
  21
 151.750
  31
0.0
   0
LINE
   8
LEVEL001
   6
CONTINUOUS
  62
7
  10
 565.000
  20
 150.250
  30
0.0
  11
 579.500
  21
 150.250
  31
0.0
   0
LINE
   8
LEVEL001
   6
CONTINUOUS
  62
7
  10
 579.500
  20
 134.436
  30
0.0
  11
 579.500
  21
 150.250
  31
0.0
   0
CIRCLE
   8
LEVEL003
   6
CONTINUOUS
  62
7
  10
 505.000
  20
 198.000
  30
0.0
  40
 15.0000
   0
CIRCLE
   8
LEVEL003
   6
CONTINUOUS
  62
7
  10
 502.000
  20
 214.700
  30
0.0
  40
 1.00000
   0
ARC
   8
LEVEL003
   6
CONTINUOUS
  62
7
  10
 501.000
  20
 216.100
  30
0.0
  40
 1.00000
  50
 90.0017
  51
 180.000
   0
ARC
   8
LEVEL003
   6
CONTINUOUS
  62
7
  10
 503.500
  20
 216.600
  30
0.0
  40
 0.500000
  50
 0.174842E-2
  51
 90.0035
   0
LINE
   8
LEVEL003
   6
CONTINUOUS
  62
7
  10
 503.500
  20
 217.100
  30
0.0
  11
 501.000
  21
 217.100
  31
0.0
   0
LINE
   8
LEVEL003
   6
CONTINUOUS
  62
7
  10
 504.000
  20
 216.600
  30
0.0
  11
 504.000
  21
 212.967
  31
0.0
   0
ARC
   8
LEVEL003
   6
CONTINUOUS
  62
7
  10
 499.000
  20
 213.655
  30
0.0
  40
 1.00000
  50
 289.756
  51
 0.303680E-3
   0
LINE
   8
LEVEL003
   6
CONTINUOUS
  62
7
  10
 500.000
  20
 216.100
  30
0.0
  11
 500.000
  21
 213.655
  31
0.0
   0
ARC
   8
LEVEL003
   6
CONTINUOUS
  62
7
  10
 505.000
  20
 196.950
  30
0.0
  40
 16.7500
  50
 109.757
  51
 270.000
   0
CIRCLE
   8
LEVEL003
   6
CONTINUOUS
  62
7
  10
 508.000
  20
 214.700
  30
0.0
  40
 1.00000
   0
ARC
   8
LEVEL003
   6
CONTINUOUS
  62
7
  10
 509.000
  20
 216.100
  30
0.0
  40
 1.00000
  50
 0.325689E-11
  51
 90.0000
   0
ARC
   8
LEVEL003
   6
CONTINUOUS
  62
7
  10
 506.500
  20
 216.600
  30
0.0
  40
 0.500000
  50
 90.0000
  51
 179.998
   0
LINE
   8
LEVEL003
   6
CONTINUOUS
  62
7
  10
 506.500
  20
 217.100
  30
0.0
  11
 509.000
  21
 217.100
  31
0.0
   0
LINE
   8
LEVEL003
   6
CONTINUOUS
  62
7
  10
 506.000
  20
 216.600
  30
0.0
  11
 506.000
  21
 212.967
  31
0.0
   0
ARC
   8
LEVEL003
   6
CONTINUOUS
  62
7
  10
 511.000
  20
 213.655
  30
0.0
  40
 1.00000
  50
 179.999
  51
 250.242
   0
LINE
   8
LEVEL003
   6
CONTINUOUS
  62
7
  10
 510.000
  20
 216.100
  30
0.0
  11
 510.000
  21
 213.655
  31
0.0
   0
ARC
   8
LEVEL003
   6
CONTINUOUS
  62
7
  10
 505.000
  20
 196.950
  30
0.0
  40
 16.7500
  50
 270.000
  51
 70.2433
   0
ARC
   8
LEVEL001
   6
CONTINUOUS
  62
7
  10
 455.000
  20
 355.436
  30
0.0
  40
 2.00000
  50
 90.0009
  51
 180.002
   0
LINE
   8
LEVEL001
   6
CONTINUOUS
  62
7
  10
 455.000
  20
 357.436
  30
0.0
  11
 505.000
  21
 357.436
  31
0.0
   0
ARC
   8
LEVEL001
   6
CONTINUOUS
  62
7
  10
 555.000
  20
 355.436
  30
0.0
  40
 2.00000
  50
 359.998
  51
 90.0000
   0
LINE
   8
LEVEL001
   6
CONTINUOUS
  62
7
  10
 555.000
  20
 357.436
  30
0.0
  11
 505.000
  21
 357.436
  31
0.0
   0
ARC
   8
LEVEL001
   6
CONTINUOUS
  62
7
  10
 491.000
  20
 354.436
  30
0.0
  40
 1.00000
  50
 90.0000
  51
 179.997
   0
ARC
   8
LEVEL001
   6
CONTINUOUS
  62
7
  10
 519.000
  20
 354.436
  30
0.0
  40
 1.00000
  50
 0.349706E-2
  51
 90.0000
   0
LINE
   8
LEVEL001
   6
CONTINUOUS
  62
7
  10
 491.000
  20
 355.436
  30
0.0
  11
 519.000
  21
 355.436
  31
0.0
   0
ARC
   8
LEVEL001
   6
CONTINUOUS
  62
7
  10
 464.500
  20
 372.436
  30
0.0
  40
 3.00000
  50
 90.0000
  51
 180.000
   0
LINE
   8
LEVEL001
   6
CONTINUOUS
  62
7
  10
 464.500
  20
 375.436
  30
0.0
  11
 505.000
  21
 375.436
  31
0.0
   0
LINE
   8
LEVEL001
   6
CONTINUOUS
  62
7
  10
 461.500
  20
 357.436
  30
0.0
  11
 461.500
  21
 372.436
  31
0.0
   0
LINE
   8
LEVEL001
   6
CONTINUOUS
  62
7
  10
 545.500
  20
 375.436
  30
0.0
  11
 505.000
  21
 375.436
  31
0.0
   0
ARC
   8
LEVEL001
   6
CONTINUOUS
  62
7
  10
 545.500
  20
 372.436
  30
0.0
  40
 3.00000
  50
0.0
  51
 90.0000
   0
LINE
   8
LEVEL001
   6
CONTINUOUS
  62
7
  10
 548.500
  20
 357.436
  30
0.0
  11
 548.500
  21
 372.436
  31
0.0
   0
LINE
   8
LEVEL001
   6
DASHDOT
  62
1
  10
 505.000
  20
 90.0000
  30
0.0
  11
 505.000
  21
 380.000
  31
0.0
   0
LINE
   8
LEVEL003
   6
CONTINUOUS
  62
3
  10
 132.500
  20
 375.436
  30
0.0
  11
 96.0000
  21
 375.436
  31
0.0
   0
LINE
   8
LEVEL003
   6
CONTINUOUS
  62
3
  10
 123.000
  20
 357.436
  30
0.0
  11
 96.0000
  21
 357.436
  31
0.0
   0
LINE
   8
LEVEL003
   6
CONTINUOUS
  62
3
  10
 100.000
  20
 375.436
  30
0.0
  11
 100.000
  21
 357.436
  31
0.0
   0
LINE
   8
LEVEL003
   6
CONTINUOUS
  62
3
  10
 99.0000
  20
 369.436
  30
0.0
  11
 100.000
  21
 375.436
  31
0.0
   0
LINE
   8
LEVEL003
   6
CONTINUOUS
  62
3
  10
 100.000
  20
 375.436
  30
0.0
  11
 101.000
  21
 369.436
  31
0.0
   0
LINE
   8
LEVEL003
   6
CONTINUOUS
  62
3
  10
 100.000
  20
 375.436
  30
0.0
  11
 100.000
  21
 369.436
  31
0.0
   0
LINE
   8
LEVEL003
   6
CONTINUOUS
  62
3
  10
 101.000
  20
 363.436
  30
0.0
  11
 100.000
  21
 357.436
  31
0.0
   0
LINE
   8
LEVEL003
   6
CONTINUOUS
  62
3
  10
 100.000
  20
 357.436
  30
0.0
  11
 99.0000
  21
 363.436
  31
0.0
   0
LINE
   8
LEVEL003
   6
CONTINUOUS
  62
3
  10
 100.000
  20
 357.436
  30
0.0
  11
 100.000
  21
 363.436
  31
0.0
   0
TEXT
   8
LEVEL003
  62
3
  10
 103.733
  20
 362.436
  30
0.0
  40
 8.00000
   1
18
  50
 90.0000
  41
 0.500000
   7
STANDARD
  72
1
  11
 98.4000
  21
 366.436
  31
0.0
  73
2
   0
LINE
   8
LEVEL003
   6
CONTINUOUS
  62
3
  10
 102.500
  20
 95.4359
  30
0.0
  11
 61.0000
  21
 95.4359
  31
0.0
   0
LINE
   8
LEVEL003
   6
CONTINUOUS
  62
3
  10
 132.500
  20
 375.436
  30
0.0
  11
 61.0000
  21
 375.436
  31
0.0
   0
LINE
   8
LEVEL003
   6
CONTINUOUS
  62
3
  10
 65.0000
  20
 95.4359
  30
0.0
  11
 65.0000
  21
 375.436
  31
0.0
   0
LINE
   8
LEVEL003
   6
CONTINUOUS
  62
3
  10
 66.0000
  20
 101.436
  30
0.0
  11
 65.0000
  21
 95.4359
  31
0.0
   0
LINE
   8
LEVEL003
   6
CONTINUOUS
  62
3
  10
 65.0000
  20
 95.4359
  30
0.0
  11
 64.0000
  21
 101.436
  31
0.0
   0
LINE
   8
LEVEL003
   6
CONTINUOUS
  62
3
  10
 65.0000
  20
 95.4359
  30
0.0
  11
 65.0000
  21
 101.436
  31
0.0
   0
LINE
   8
LEVEL003
   6
CONTINUOUS
  62
3
  10
 64.0000
  20
 369.436
  30
0.0
  11
 65.0000
  21
 375.436
  31
0.0
   0
LINE
   8
LEVEL003
   6
CONTINUOUS
  62
3
  10
 65.0000
  20
 375.436
  30
0.0
  11
 66.0000
  21
 369.436
  31
0.0
   0
LINE
   8
LEVEL003
   6
CONTINUOUS
  62
3
  10
 65.0000
  20
 375.436
  30
0.0
  11
 65.0000
  21
 369.436
  31
0.0
   0
TEXT
   8
LEVEL003
  62
3
  10
 68.7333
  20
 229.436
  30
0.0
  40
 8.00000
   1
280
  50
 90.0000
  41
 0.500000
   7
STANDARD
  72
1
  11
 63.4000
  21
 235.436
  31
0.0
  73
2
   0
LINE
   8
LEVEL003
   6
CONTINUOUS
  62
3
  10
 131.500
  20
 374.436
  30
0.0
  11
 131.500
  21
 394.000
  31
0.0
   0
LINE
   8
LEVEL003
   6
CONTINUOUS
  62
3
  10
 218.500
  20
 374.436
  30
0.0
  11
 218.500
  21
 394.000
  31
0.0
   0
LINE
   8
LEVEL003
   6
CONTINUOUS
  62
3
  10
 131.500
  20
 390.000
  30
0.0
  11
 218.500
  21
 390.000
  31
0.0
   0
LINE
   8
LEVEL003
   6
CONTINUOUS
  62
3
  10
 137.500
  20
 389.000
  30
0.0
  11
 131.500
  21
 390.000
  31
0.0
   0
LINE
   8
LEVEL003
   6
CONTINUOUS
  62
3
  10
 131.500
  20
 390.000
  30
0.0
  11
 137.500
  21
 391.000
  31
0.0
   0
LINE
   8
LEVEL003
   6
CONTINUOUS
  62
3
  10
 131.500
  20
 390.000
  30
0.0
  11
 137.500
  21
 390.000
  31
0.0
   0
LINE
   8
LEVEL003
   6
CONTINUOUS
  62
3
  10
 212.500
  20
 391.000
  30
0.0
  11
 218.500
  21
 390.000
  31
0.0
   0
LINE
   8
LEVEL003
   6
CONTINUOUS
  62
3
  10
 218.500
  20
 390.000
  30
0.0
  11
 212.500
  21
 389.000
  31
0.0
   0
LINE
   8
LEVEL003
   6
CONTINUOUS
  62
3
  10
 218.500
  20
 390.000
  30
0.0
  11
 212.500
  21
 390.000
  31
0.0
   0
TEXT
   8
LEVEL003
  62
3
  10
 167.000
  20
 386.267
  30
0.0
  40
 8.00000
   1
%%c87
   7
STANDARD
  72
1
  11
 175.000
  21
 391.600
  31
0.0
  73
2
   0
LINE
   8
LEVEL003
   6
CONTINUOUS
  62
3
  10
 101.500
  20
 96.4359
  30
0.0
  11
 101.500
  21
 66.0000
  31
0.0
   0
LINE
   8
LEVEL003
   6
CONTINUOUS
  62
3
  10
 248.500
  20
 96.4359
  30
0.0
  11
 248.500
  21
 66.0000
  31
0.0
   0
LINE
   8
LEVEL003
   6
CONTINUOUS
  62
3
  10
 101.500
  20
 70.0000
  30
0.0
  11
 248.500
  21
 70.0000
  31
0.0
   0
LINE
   8
LEVEL003
   6
CONTINUOUS
  62
3
  10
 107.500
  20
 69.0000
  30
0.0
  11
 101.500
  21
 70.0000
  31
0.0
   0
LINE
   8
LEVEL003
   6
CONTINUOUS
  62
3
  10
 101.500
  20
 70.0000
  30
0.0
  11
 107.500
  21
 71.0000
  31
0.0
   0
LINE
   8
LEVEL003
   6
CONTINUOUS
  62
3
  10
 101.500
  20
 70.0000
  30
0.0
  11
 107.500
  21
 70.0000
  31
0.0
   0
LINE
   8
LEVEL003
   6
CONTINUOUS
  62
3
  10
 242.500
  20
 71.0000
  30
0.0
  11
 248.500
  21
 70.0000
  31
0.0
   0
LINE
   8
LEVEL003
   6
CONTINUOUS
  62
3
  10
 248.500
  20
 70.0000
  30
0.0
  11
 242.500
  21
 69.0000
  31
0.0
   0
LINE
   8
LEVEL003
   6
CONTINUOUS
  62
3
  10
 248.500
  20
 70.0000
  30
0.0
  11
 242.500
  21
 70.0000
  31
0.0
   0
TEXT
   8
LEVEL003
  62
3
  10
 165.000
  20
 66.2667
  30
0.0
  40
 8.00000
   1
%%c147
   7
STANDARD
  72
1
  11
 175.000
  21
 71.6000
  31
0.0
  73
2
   0
LINE
   8
LEVEL001
   6
CONTINUOUS
  62
7
  10
 229.000
  20
 351.936
  30
0.0
  11
 229.000
  21
 338.936
  31
0.0
   0
LINE
   8
LEVEL001
   6
CONTINUOUS
  62
7
  10
 229.000
  20
 338.936
  30
0.0
  11
 236.600
  21
 338.936
  31
0.0
   0
LINE
   8
LEVEL001
   6
CONTINUOUS
  62
7
  10
 236.600
  20
 338.936
  30
0.0
  11
 237.000
  21
 339.629
  31
0.0
   0
LINE
   8
LEVEL001
   6
CONTINUOUS
  62
7
  10
 237.000
  20
 339.629
  30
0.0
  11
 237.000
  21
 351.243
  31
0.0
   0
LINE
   8
LEVEL001
   6
CONTINUOUS
  62
7
  10
 237.000
  20
 351.243
  30
0.0
  11
 236.600
  21
 351.936
  31
0.0
   0
LINE
   8
LEVEL001
   6
CONTINUOUS
  62
7
  10
 236.600
  20
 351.936
  30
0.0
  11
 229.000
  21
 351.936
  31
0.0
   0
LINE
   8
LEVEL001
   6
CONTINUOUS
  62
7
  10
 236.600
  20
 351.936
  30
0.0
  11
 236.600
  21
 338.936
  31
0.0
   0
LINE
   8
LEVEL001
   6
DASHDOT
  62
1
  10
 240.000
  20
 345.436
  30
0.0
  11
 210.000
  21
 345.436
  31
0.0
   0
LINE
   8
LEVEL001
   6
CONTINUOUS
  62
7
  10
 229.000
  20
 329.936
  30
0.0
  11
 229.000
  21
 316.936
  31
0.0
   0
LINE
   8
LEVEL001
   6
CONTINUOUS
  62
7
  10
 229.000
  20
 316.936
  30
0.0
  11
 236.600
  21
 316.936
  31
0.0
   0
LINE
   8
LEVEL001
   6
CONTINUOUS
  62
7
  10
 236.600
  20
 316.936
  30
0.0
  11
 237.000
  21
 317.629
  31
0.0
   0
LINE
   8
LEVEL001
   6
CONTINUOUS
  62
7
  10
 237.000
  20
 317.629
  30
0.0
  11
 237.000
  21
 329.243
  31
0.0
   0
LINE
   8
LEVEL001
   6
CONTINUOUS
  62
7
  10
 237.000
  20
 329.243
  30
0.0
  11
 236.600
  21
 329.936
  31
0.0
   0
LINE
   8
LEVEL001
   6
CONTINUOUS
  62
7
  10
 236.600
  20
 329.936
  30
0.0
  11
 229.000
  21
 329.936
  31
0.0
   0
LINE
   8
LEVEL001
   6
CONTINUOUS
  62
7
  10
 236.600
  20
 329.936
  30
0.0
  11
 236.600
  21
 316.936
  31
0.0
   0
LINE
   8
LEVEL001
   6
DASHDOT
  62
1
  10
 240.000
  20
 323.436
  30
0.0
  11
 210.000
  21
 323.436
  31
0.0
   0
LINE
   8
LEVEL001
   6
CONTINUOUS
  62
7
  10
 229.000
  20
 355.436
  30
0.0
  11
 229.000
  21
 312.436
  31
0.0
   0
LINE
   8
LEVEL001
   6
CONTINUOUS
  62
7
  10
 123.000
  20
 355.436
  30
0.0
  11
 123.000
  21
 339.436
  31
0.0
   0
ARC
   8
LEVEL001
   6
CONTINUOUS
  62
7
  10
 122.839
  20
 336.070
  30
0.0
  40
 2.00000
  50
 356.749
  51
 57.3025
   0
ARC
   8
LEVEL001
   6
CONTINUOUS
  62
7
  10
 125.000
  20
 339.436
  30
0.0
  40
 2.00000
  50
 180.000
  51
 237.303
   0
ARC
   8
LEVEL001
   6
CONTINUOUS
  62
7
  10
 94.1151
  20
 235.947
  30
0.0
  40
 25.0000
  50
 324.382
  51
 356.749
   0
LINE
   8
LEVEL001
   6
CONTINUOUS
  62
7
  10
 124.836
  20
 335.956
  30
0.0
  11
 119.075
  21
 234.530
  31
0.0
   0
LINE
   8
LEVEL001
   6
CONTINUOUS
  62
7
  10
 123.173
  20
 338.622
  30
0.0
  11
 101.282
  21
 188.769
  31
0.0
   0
ARC
   8
LEVEL001
   6
CONTINUOUS
  62
7
  10
 228.617
  20
 310.436
  30
0.0
  40
 2.00000
  50
 90.0000
  51
 183.251
   0
LINE
   8
LEVEL001
   6
CONTINUOUS
  62
7
  10
 228.617
  20
 312.436
  30
0.0
  11
 229.000
  21
 312.436
  31
0.0
   0
ARC
   8
LEVEL001
   6
CONTINUOUS
  62
7
  10
 244.311
  20
 263.376
  30
0.0
  40
 15.0000
  50
 183.251
  51
 251.740
   0
ARC
   8
LEVEL001
   6
CONTINUOUS
  62
7
  10
 233.501
  20
 230.614
  30
0.0
  40
 19.5000
  50
 13.0529
  51
 71.7396
   0
LINE
   8
LEVEL001
   6
CONTINUOUS
  62
7
  10
 229.000
  20
 312.436
  30
0.0
  11
 243.035
  21
 267.069
  31
0.0
   0
ARC
   8
LEVEL001
   6
CONTINUOUS
  62
7
  10
 300.355
  20
 284.802
  30
0.0
  40
 60.0000
  50
 197.191
  51
 260.550
   0
LINE
   8
LEVEL001
   6
CONTINUOUS
  62
7
  10
 453.000
  20
 355.436
  30
0.0
  11
 453.000
  21
 339.436
  31
0.0
   0
ARC
   8
LEVEL001
   6
CONTINUOUS
  62
7
  10
 452.839
  20
 336.070
  30
0.0
  40
 2.00000
  50
 356.749
  51
 57.3027
   0
ARC
   8
LEVEL001
   6
CONTINUOUS
  62
7
  10
 455.000
  20
 339.436
  30
0.0
  40
 2.00000
  50
 180.000
  51
 237.302
   0
LINE
   8
LEVEL001
   6
CONTINUOUS
  62
7
  10
 454.836
  20
 335.956
  30
0.0
  11
 449.075
  21
 234.530
  31
0.0
   0
ARC
   8
LEVEL001
   6
CONTINUOUS
  62
7
  10
 505.000
  20
 178.000
  30
0.0
  40
 74.5000
  50
 144.382
  51
 180.000
   0
ARC
   8
LEVEL001
   6
CONTINUOUS
  62
7
  10
 424.115
  20
 235.947
  30
0.0
  40
 25.0000
  50
 324.382
  51
 356.749
   0
LINE
   8
LEVEL001
   6
CONTINUOUS
  62
7
  10
 556.827
  20
 338.622
  30
0.0
  11
 578.718
  21
 188.769
  31
0.0
   0
ARC
   8
LEVEL001
   6
CONTINUOUS
  62
7
  10
 585.885
  20
 235.947
  30
0.0
  40
 25.0000
  50
 183.251
  51
 215.618
   0
LINE
   8
LEVEL001
   6
CONTINUOUS
  62
7
  10
 557.000
  20
 355.436
  30
0.0
  11
 557.000
  21
 339.436
  31
0.0
   0
ARC
   8
LEVEL001
   6
CONTINUOUS
  62
7
  10
 557.161
  20
 336.070
  30
0.0
  40
 2.00000
  50
 122.697
  51
 183.251
   0
ARC
   8
LEVEL001
   6
CONTINUOUS
  62
7
  10
 555.000
  20
 339.436
  30
0.0
  40
 2.00000
  50
 302.699
  51
 0.861737E-3
   0
ARC
   8
LEVEL001
   6
CONTINUOUS
  62
7
  10
 505.000
  20
 178.000
  30
0.0
  40
 74.5000
  50
 5.17709
  51
 35.6184
   0
LINE
   8
LEVEL001
   6
CONTINUOUS
  62
7
  10
 505.000
  20
 348.900
  30
0.0
  11
 508.000
  21
 347.168
  31
0.0
   0
LINE
   8
LEVEL001
   6
CONTINUOUS
  62
7
  10
 508.000
  20
 347.168
  30
0.0
  11
 508.000
  21
 343.704
  31
0.0
   0
LINE
   8
LEVEL001
   6
CONTINUOUS
  62
7
  10
 508.000
  20
 343.704
  30
0.0
  11
 505.000
  21
 341.972
  31
0.0
   0
LINE
   8
LEVEL001
   6
CONTINUOUS
  62
7
  10
 505.000
  20
 341.972
  30
0.0
  11
 502.000
  21
 343.704
  31
0.0
   0
LINE
   8
LEVEL001
   6
CONTINUOUS
  62
7
  10
 502.000
  20
 343.704
  30
0.0
  11
 502.000
  21
 347.168
  31
0.0
   0
LINE
   8
LEVEL001
   6
CONTINUOUS
  62
7
  10
 502.000
  20
 347.168
  30
0.0
  11
 505.000
  21
 348.900
  31
0.0
   0
CIRCLE
   8
LEVEL001
   6
CONTINUOUS
  62
7
  10
 505.000
  20
 345.436
  30
0.0
  40
 6.50000
   0
CIRCLE
   8
LEVEL001
   6
CONTINUOUS
  62
7
  10
 505.000
  20
 345.436
  30
0.0
  40
 5.80718
   0
LINE
   8
LEVEL001
   6
DASHDOT
  62
1
  10
 514.500
  20
 345.436
  30
0.0
  11
 495.500
  21
 345.436
  31
0.0
   0
LINE
   8
LEVEL001
   6
CONTINUOUS
  62
7
  10
 505.000
  20
 326.900
  30
0.0
  11
 508.000
  21
 325.168
  31
0.0
   0
LINE
   8
LEVEL001
   6
CONTINUOUS
  62
7
  10
 508.000
  20
 325.168
  30
0.0
  11
 508.000
  21
 321.704
  31
0.0
   0
LINE
   8
LEVEL001
   6
CONTINUOUS
  62
7
  10
 508.000
  20
 321.704
  30
0.0
  11
 505.000
  21
 319.972
  31
0.0
   0
LINE
   8
LEVEL001
   6
CONTINUOUS
  62
7
  10
 505.000
  20
 319.972
  30
0.0
  11
 502.000
  21
 321.704
  31
0.0
   0
LINE
   8
LEVEL001
   6
CONTINUOUS
  62
7
  10
 502.000
  20
 321.704
  30
0.0
  11
 502.000
  21
 325.168
  31
0.0
   0
LINE
   8
LEVEL001
   6
CONTINUOUS
  62
7
  10
 502.000
  20
 325.168
  30
0.0
  11
 505.000
  21
 326.900
  31
0.0
   0
CIRCLE
   8
LEVEL001
   6
CONTINUOUS
  62
7
  10
 505.000
  20
 323.436
  30
0.0
  40
 6.50000
   0
CIRCLE
   8
LEVEL001
   6
CONTINUOUS
  62
7
  10
 505.000
  20
 323.436
  30
0.0
  40
 5.80718
   0
LINE
   8
LEVEL001
   6
DASHDOT
  62
1
  10
 514.500
  20
 323.436
  30
0.0
  11
 495.500
  21
 323.436
  31
0.0
   0
ARC
   8
LEVEL001
   6
CONTINUOUS
  62
7
  10
 510.500
  20
 309.436
  30
0.0
  40
 3.00000
  50
 90.0000
  51
 180.000
   0
ARC
   8
LEVEL001
   6
CONTINUOUS
  62
7
  10
 499.500
  20
 309.436
  30
0.0
  40
 3.00000
  50
0.0
  51
 90.0000
   0
ARC
   8
LEVEL001
   6
CONTINUOUS
  62
7
  10
 519.000
  20
 313.436
  30
0.0
  40
 1.00000
  50
 270.000
  51
 359.998
   0
ARC
   8
LEVEL001
   6
CONTINUOUS
  62
7
  10
 491.000
  20
 313.436
  30
0.0
  40
 1.00000
  50
 180.002
  51
 270.000
   0
LINE
   8
LEVEL001
   6
CONTINUOUS
  62
7
  10
 491.000
  20
 312.436
  30
0.0
  11
 519.000
  21
 312.436
  31
0.0
   0
LINE
   8
LEVEL001
   6
CONTINUOUS
  62
7
  10
 490.000
  20
 354.436
  30
0.0
  11
 490.000
  21
 313.436
  31
0.0
   0
LINE
   8
LEVEL001
   6
CONTINUOUS
  62
7
  10
 520.000
  20
 354.436
  30
0.0
  11
 520.000
  21
 313.436
  31
0.0
   0
LINE
   8
LEVEL001
   6
CONTINUOUS
  62
7
  10
 507.500
  20
 309.436
  30
0.0
  11
 507.500
  21
 231.900
  31
0.0
   0
LINE
   8
LEVEL001
   6
CONTINUOUS
  62
7
  10
 502.500
  20
 231.808
  30
0.0
  11
 502.500
  21
 309.436
  31
0.0
   0
LINE
   8
LEVEL001
   6
CONTINUOUS
  62
7
  10
 455.000
  20
 337.436
  30
0.0
  11
 490.000
  21
 337.436
  31
0.0
   0
LINE
   8
LEVEL001
   6
CONTINUOUS
  62
7
  10
 520.000
  20
 337.436
  30
0.0
  11
 555.000
  21
 337.436
  31
0.0
   0
ARC
   8
LEVEL001
   6
CONTINUOUS
  62
7
  10
 434.353
  20
 257.493
  30
0.0
  40
 16.0000
  50
 356.749
  51
 145.011
   0
ARC
   8
LEVEL001
   6
CONTINUOUS
  62
7
  10
 435.352
  20
 257.436
  30
0.0
  40
 15.0000
  50
 356.749
  51
 146.798
   0
ARC
   8
LEVEL001
   6
CONTINUOUS
  62
7
  10
 415.610
  20
 182.436
  30
0.0
  40
 15.0000
  50
 177.159
  51
 357.159
   0
ARC
   8
LEVEL001
   6
CONTINUOUS
  62
7
  10
 414.611
  20
 182.485
  30
0.0
  40
 16.0000
  50
 177.159
  51
 357.159
   0
ARC
   8
LEVEL001
   6
CONTINUOUS
  62
7
  10
 538.383
  20
 190.010
  30
0.0
  40
 155.000
  50
 146.798
  51
 183.479
   0
ARC
   8
LEVEL001
   6
CONTINUOUS
  62
7
  10
 538.383
  20
 190.010
  30
0.0
  40
 138.133
  50
 146.798
  51
 183.479
   0
ARC
   8
LEVEL001
   6
CONTINUOUS
  62
7
  10
 538.383
  20
 190.010
  30
0.0
  40
 145.000
  50
 146.798
  51
 182.565
   0
ARC
   8
LEVEL001
   6
CONTINUOUS
  62
7
  10
 538.383
  20
 190.010
  30
0.0
  40
 140.000
  50
 146.798
  51
 183.479
   0
ARC
   8
LEVEL001
   6
CONTINUOUS
  62
7
  10
 441.425
  20
 292.791
  30
0.0
  40
 5.00000
  50
 258.671
  51
 351.689
   0
ARC
   8
LEVEL001
   6
CONTINUOUS
  62
7
  10
 434.353
  20
 257.493
  30
0.0
  40
 31.0000
  50
 78.6714
  51
 145.876
   0
ARC
   8
LEVEL001
   6
CONTINUOUS
  62
7
  10
 439.977
  20
 282.877
  30
0.0
  40
 5.00000
  50
 257.509
  51
 351.689
   0
LINE
   8
LEVEL001
   6
CONTINUOUS
  62
7
  10
 453.173
  20
 338.622
  30
0.0
  11
 444.924
  21
 282.154
  31
0.0
   0
ARC
   8
LEVEL001
   6
CONTINUOUS
  62
7
  10
 434.353
  20
 257.493
  30
0.0
  40
 21.0000
  50
 77.5089
  51
 145.436
   0
ARC
   8
LEVEL001
   6
CONTINUOUS
  62
7
  10
 420.500
  20
 141.911
  30
0.0
  40
 10.0000
  50
0.0
  51
 98.2580
   0
ARC
   8
LEVEL001
   6
CONTINUOUS
  62
7
  10
 414.611
  20
 182.485
  30
0.0
  40
 31.0000
  50
 183.479
  51
 278.258
   0
ARC
   8
LEVEL001
   6
CONTINUOUS
  62
7
  10
 425.500
  20
 158.875
  30
0.0
  40
 5.00000
  50
 0.593779E-4
  51
 114.759
   0
ARC
   8
LEVEL001
   6
CONTINUOUS
  62
7
  10
 414.611
  20
 182.485
  30
0.0
  40
 21.0000
  50
 177.159
  51
 294.759
   0
LINE
   8
LEVEL001
   6
CONTINUOUS
  62
7
  10
 430.500
  20
 134.436
  30
0.0
  11
 430.500
  21
 178.000
  31
0.0
   0
TEXT
   8
LEVEL020
  62
6
  10
 290.000
  20
 452.000
  30
0.0
  40
 10.0000
   1
質　　　量
   7
STANDARD
   0
TEXT
   8
LEVEL020
  62
6
  10
 404.000
  20
 494.000
  30
0.0
  40
 10.0000
   1
　　　　３５０
  41
 0.700000
   7
STANDARD
   0
TEXT
   8
LEVEL020
  62
6
  10
 460.000
  20
 494.000
  30
0.0
  40
 10.0000
   1
ｋＮ
  41
 0.700000
   7
STANDARD
   0
LINE
   8
LEVEL001
   6
DASHDOT
  62
1
  10
 490.500
  20
 370.218
  30
0.0
  11
 490.500
  21
 380.000
  31
0.0
   0
LINE
   8
LEVEL001
   6
DASHDOT
  62
1
  10
 476.000
  20
 370.218
  30
0.0
  11
 476.000
  21
 380.000
  31
0.0
   0
LINE
   8
LEVEL001
   6
DASHDOT
  62
1
  10
 519.500
  20
 370.218
  30
0.0
  11
 519.500
  21
 380.000
  31
0.0
   0
LINE
   8
LEVEL001
   6
DASHDOT
  62
1
  10
 534.000
  20
 370.218
  30
0.0
  11
 534.000
  21
 380.000
  31
0.0
   0
LINE
   8
LEVEL001
   6
DASHDOT
  62
1
  10
 487.500
  20
 100.000
  30
0.0
  11
 487.500
  21
 92.7180
  31
0.0
   0
LINE
   8
LEVEL001
   6
DASHDOT
  62
1
  10
 467.500
  20
 100.000
  30
0.0
  11
 467.500
  21
 92.7180
  31
0.0
   0
LINE
   8
LEVEL001
   6
DASHDOT
  62
1
  10
 450.000
  20
 100.000
  30
0.0
  11
 450.000
  21
 92.7180
  31
0.0
   0
LINE
   8
LEVEL001
   6
DASHDOT
  62
1
  10
 522.500
  20
 100.000
  30
0.0
  11
 522.500
  21
 92.7180
  31
0.0
   0
LINE
   8
LEVEL001
   6
DASHDOT
  62
1
  10
 542.500
  20
 100.000
  30
0.0
  11
 542.500
  21
 92.7180
  31
0.0
   0
LINE
   8
LEVEL001
   6
DASHDOT
  62
1
  10
 560.000
  20
 100.000
  30
0.0
  11
 560.000
  21
 92.7180
  31
0.0
   0
ARC
   8
LEVEL001
   6
CONTINUOUS
  62
7
  10
 348.000
  20
 184.000
  30
0.0
  40
 1.00000
  50
 270.000
  51
0.0
   0
LINE
   8
LEVEL001
   6
CONTINUOUS
  62
7
  10
 349.000
  20
 184.000
  30
0.0
  11
 349.000
  21
 198.000
  31
0.0
   0
LINE
   8
LEVEL001
   6
CONTINUOUS
  62
7
  10
 346.650
  20
 183.000
  30
0.0
  11
 348.000
  21
 183.000
  31
0.0
   0
ARC
   8
LEVEL001
   6
CONTINUOUS
  62
7
  10
 348.000
  20
 212.000
  30
0.0
  40
 1.00000
  50
0.0
  51
 90.0000
   0
LINE
   8
LEVEL001
   6
CONTINUOUS
  62
7
  10
 349.000
  20
 212.000
  30
0.0
  11
 349.000
  21
 198.000
  31
0.0
   0
LINE
   8
LEVEL001
   6
CONTINUOUS
  62
7
  10
 346.650
  20
 213.000
  30
0.0
  11
 348.000
  21
 213.000
  31
0.0
   0
LINE
   8
LEVEL001
   6
CONTINUOUS
  62
7
  10
 345.000
  20
 198.000
  30
0.0
  11
 345.000
  21
 175.500
  31
0.0
   0
LINE
   8
LEVEL001
   6
CONTINUOUS
  62
7
  10
 345.000
  20
 220.500
  30
0.0
  11
 343.000
  21
 220.500
  31
0.0
   0
LINE
   8
LEVEL001
   6
CONTINUOUS
  62
7
  10
 345.000
  20
 175.500
  30
0.0
  11
 343.000
  21
 175.500
  31
0.0
   0
LINE
   8
LEVEL001
   6
CONTINUOUS
  62
7
  10
 345.000
  20
 175.500
  30
0.0
  11
 345.000
  21
 220.500
  31
0.0
   0
LINE
   8
LEVEL001
   6
CONTINUOUS
  62
7
  10
 346.650
  20
 198.000
  30
0.0
  11
 346.650
  21
 217.100
  31
0.0
   0
LINE
   8
LEVEL001
   6
CONTINUOUS
  62
7
  10
 346.650
  20
 198.000
  30
0.0
  11
 346.650
  21
 180.200
  31
0.0
   0
LINE
   8
LEVEL003
   6
CONTINUOUS
  62
7
  10
 345.000
  20
 217.100
  30
0.0
  11
 346.650
  21
 217.100
  31
0.0
   0
LINE
   8
LEVEL003
   6
CONTINUOUS
  62
7
  10
 345.000
  20
 180.200
  30
0.0
  11
 346.650
  21
 180.200
  31
0.0
   0
ARC
   8
LEVEL003
   6
CONTINUOUS
  62
7
  10
 98.5000
  20
 179.436
  30
0.0
  40
 2.00000
  50
 0.895644E-11
  51
 57.3987
   0
ARC
   8
LEVEL001
   6
CONTINUOUS
  62
7
  10
 175.000
  20
 178.000
  30
0.0
  40
 74.5000
  50
 144.382
  51
 172.654
   0
ARC
   8
LEVEL001
   6
CONTINUOUS
  62
7
  10
 96.1526
  20
 188.165
  30
0.0
  40
 5.00000
  50
 310.033
  51
 352.654
   0
ARC
   8
LEVEL003
   6
CONTINUOUS
  62
7
  10
 100.655
  20
 182.806
  30
0.0
  40
 2.00000
  50
 130.033
  51
 237.399
   0
LINE
   8
LEVEL001
   6
CONTINUOUS
  62
7
  10
 100.500
  20
 145.436
  30
0.0
  11
 100.500
  21
 179.436
  31
0.0
   0
ARC
   8
LEVEL003
   6
CONTINUOUS
  62
7
  10
 98.5000
  20
 145.436
  30
0.0
  40
 2.00000
  50
 300.000
  51
0.0
   0
LINE
   8
LEVEL001
   6
CONTINUOUS
  62
7
  10
 100.500
  20
 134.436
  30
0.0
  11
 100.500
  21
 137.073
  31
0.0
   0
ARC
   8
LEVEL003
   6
CONTINUOUS
  62
7
  10
 95.5000
  20
 137.073
  30
0.0
  40
 5.00000
  50
 0.227982E-11
  51
 44.4153
   0
ARC
   8
LEVEL003
   6
CONTINUOUS
  62
7
  10
 100.500
  20
 141.972
  30
0.0
  40
 2.00000
  50
 120.000
  51
 224.415
   0
ARC
   8
LEVEL001
   6
CONTINUOUS
  62
7
  10
 477.000
  20
 159.966
  30
0.0
  40
 3.00000
  50
0.0
  51
 90.0000
   0
ARC
   8
LEVEL001
   6
CONTINUOUS
  62
7
  10
 533.000
  20
 159.966
  30
0.0
  40
 3.00000
  50
 90.0000
  51
 180.000
   0
LINE
   8
LEVEL003
   6
CONTINUOUS
  62
7
  10
 474.693
  20
 167.500
  30
0.0
  11
 472.693
  21
 169.500
  31
0.0
   0
LINE
   8
LEVEL003
   6
CONTINUOUS
  62
7
  10
 472.693
  20
 169.500
  30
0.0
  11
 472.693
  21
 168.500
  31
0.0
   0
LINE
   8
LEVEL003
   6
CONTINUOUS
  62
7
  10
 472.693
  20
 168.500
  30
0.0
  11
 465.693
  21
 168.500
  31
0.0
   0
LINE
   8
LEVEL003
   6
CONTINUOUS
  62
7
  10
 465.693
  20
 168.500
  30
0.0
  11
 465.693
  21
 166.500
  31
0.0
   0
LINE
   8
LEVEL003
   6
CONTINUOUS
  62
7
  10
 465.693
  20
 166.500
  30
0.0
  11
 472.693
  21
 166.500
  31
0.0
   0
LINE
   8
LEVEL003
   6
CONTINUOUS
  62
7
  10
 472.693
  20
 166.500
  30
0.0
  11
 472.693
  21
 165.500
  31
0.0
   0
LINE
   8
LEVEL003
   6
CONTINUOUS
  62
7
  10
 472.693
  20
 165.500
  30
0.0
  11
 474.693
  21
 167.500
  31
0.0
   0
LINE
   8
LEVEL003
   6
CONTINUOUS
  62
7
  10
 523.420
  20
 167.500
  30
0.0
  11
 525.420
  21
 169.500
  31
0.0
   0
LINE
   8
LEVEL003
   6
CONTINUOUS
  62
7
  10
 525.420
  20
 169.500
  30
0.0
  11
 525.420
  21
 168.500
  31
0.0
   0
LINE
   8
LEVEL003
   6
CONTINUOUS
  62
7
  10
 525.420
  20
 168.500
  30
0.0
  11
 532.420
  21
 168.500
  31
0.0
   0
LINE
   8
LEVEL003
   6
CONTINUOUS
  62
7
  10
 532.420
  20
 168.500
  30
0.0
  11
 532.420
  21
 166.500
  31
0.0
   0
LINE
   8
LEVEL003
   6
CONTINUOUS
  62
7
  10
 532.420
  20
 166.500
  30
0.0
  11
 525.420
  21
 166.500
  31
0.0
   0
LINE
   8
LEVEL003
   6
CONTINUOUS
  62
7
  10
 525.420
  20
 166.500
  30
0.0
  11
 525.420
  21
 165.500
  31
0.0
   0
LINE
   8
LEVEL003
   6
CONTINUOUS
  62
7
  10
 525.420
  20
 165.500
  30
0.0
  11
 523.420
  21
 167.500
  31
0.0
   0
TEXT
   8
LEVEL003
  62
7
  10
 462.036
  20
 171.702
  30
0.0
  40
 8.00000
   1
ＵＰ
  50
 180.000
  41
 0.875000
   7
STANDARD
   0
TEXT
   8
LEVEL003
  62
7
  10
 563.788
  20
 171.702
  30
0.0
  40
 8.00000
   1
ＤＯＷＮ
  50
 180.000
  41
 0.875000
   7
STANDARD
   0
ARC
   8
LEVEL003
   6
CONTINUOUS
  62
7
  10
 489.000
  20
 157.200
  30
0.0
  40
 2.00000
  50
 0.195413E-10
  51
 90.0000
   0
ARC
   8
LEVEL003
   6
CONTINUOUS
  62
7
  10
 521.000
  20
 157.200
  30
0.0
  40
 2.00000
  50
 90.0000
  51
 180.000
   0
ARC
   8
LEVEL003
   6
CONTINUOUS
  62
7
  10
 494.000
  20
 147.000
  30
0.0
  40
 3.00000
  50
 180.000
  51
 270.000
   0
LINE
   8
LEVEL003
   6
CONTINUOUS
  62
7
  10
 494.000
  20
 144.000
  30
0.0
  11
 516.000
  21
 144.000
  31
0.0
   0
ARC
   8
LEVEL003
   6
CONTINUOUS
  62
7
  10
 516.000
  20
 147.000
  30
0.0
  40
 3.00000
  50
 270.000
  51
 0.217126E-11
   0
LINE
   8
LEVEL003
   6
CONTINUOUS
  62
7
  10
 519.000
  20
 147.000
  30
0.0
  11
 519.000
  21
 157.200
  31
0.0
   0
LINE
   8
LEVEL003
   6
CONTINUOUS
  62
7
  10
 491.000
  20
 147.000
  30
0.0
  11
 491.000
  21
 157.200
  31
0.0
   0
CIRCLE
   8
0
   6
CONTINUOUS
  62
7
  10
 507.523
  20
 150.040
  30
0.0
  40
 3.33333
   0
LINE
   8
0
   6
CONTINUOUS
  62
7
  10
 500.980
  20
 146.706
  30
0.0
  11
 505.214
  21
 154.040
  31
0.0
   0
LINE
   8
0
   6
CONTINUOUS
  62
7
  10
 505.214
  20
 154.040
  30
0.0
  11
 513.682
  21
 154.040
  31
0.0
   0
LINE
   8
0
   6
CONTINUOUS
  62
7
  10
 513.682
  20
 154.040
  30
0.0
  11
 514.644
  21
 155.706
  31
0.0
   0
LINE
   8
0
   6
CONTINUOUS
  62
7
  10
 514.644
  20
 155.706
  30
0.0
  11
 499.510
  21
 155.706
  31
0.0
   0
LINE
   8
0
   6
CONTINUOUS
  62
7
  10
 499.510
  20
 155.706
  30
0.0
  11
 494.313
  21
 146.706
  31
0.0
   0
LINE
   8
0
   6
CONTINUOUS
  62
7
  10
 494.313
  20
 146.706
  30
0.0
  11
 500.980
  21
 146.706
  31
0.0
   0
LINE
   8
LEVEL001
   6
CONTINUOUS
  62
7
  10
 480.000
  20
 159.966
  30
0.0
  11
 480.000
  21
 112.880
  31
0.0
   0
LINE
   8
LEVEL001
   6
CONTINUOUS
  62
7
  10
 530.000
  20
 159.966
  30
0.0
  11
 530.000
  21
 112.880
  31
0.0
   0
LINE
   8
LEVEL001
   6
CONTINUOUS
  62
7
  10
 559.511
  20
 259.434
  30
0.0
  11
 560.925
  21
 234.530
  31
0.0
   0
ARC
   8
LEVEL003
   6
CONTINUOUS
  62
7
  10
 554.362
  20
 332.436
  30
0.0
  40
 2.00000
  50
 2.49145
  51
 90.0000
   0
LINE
   8
LEVEL003
   6
CONTINUOUS
  62
7
  10
 556.360
  20
 332.523
  30
0.0
  11
 559.450
  21
 261.523
  31
0.0
   0
ARC
   8
LEVEL003
   6
CONTINUOUS
  62
7
  10
 557.452
  20
 261.436
  30
0.0
  40
 2.00000
  50
 270.000
  51
 2.49145
   0
ARC
   8
LEVEL003
   6
CONTINUOUS
  62
7
  10
 532.657
  20
 261.436
  30
0.0
  40
 2.00000
  50
 182.491
  51
 270.000
   0
LINE
   8
LEVEL003
   6
CONTINUOUS
  62
7
  10
 527.570
  20
 332.349
  30
0.0
  11
 530.659
  21
 261.349
  31
0.0
   0
ARC
   8
LEVEL003
   6
CONTINUOUS
  62
7
  10
 529.568
  20
 332.436
  30
0.0
  40
 2.00000
  50
 90.0000
  51
 182.491
   0
ARC
   8
LEVEL003
   6
CONTINUOUS
  62
7
  10
 532.192
  20
 256.436
  30
0.0
  40
 3.00000
  50
 90.0000
  51
 182.679
   0
LINE
   8
LEVEL003
   6
CONTINUOUS
  62
7
  10
 532.192
  20
 259.436
  30
0.0
  11
 557.452
  21
 259.436
  31
0.0
   0
LINE
   8
LEVEL003
   6
CONTINUOUS
  62
7
  10
 528.403
  20
 334.436
  30
0.0
  11
 554.362
  21
 334.436
  31
0.0
   0
LINE
   8
LEVEL003
   6
CONTINUOUS
  62
7
  10
 525.642
  20
 332.259
  30
0.0
  11
 528.963
  21
 261.270
  31
0.0
   0
ARC
   8
LEVEL003
   6
CONTINUOUS
  62
7
  10
 557.452
  20
 256.436
  30
0.0
  40
 3.00000
  50
 90.0000
  51
 182.679
   0
ARC
   8
LEVEL003
   6
CONTINUOUS
  62
7
  10
 554.362
  20
 337.436
  30
0.0
  40
 3.00000
  50
 216.694
  51
 270.000
   0
ARC
   8
LEVEL003
   6
CONTINUOUS
  62
7
  10
 528.403
  20
 337.436
  30
0.0
  40
 3.00000
  50
 214.708
  51
 270.000
   0
LINE
   8
LEVEL001
   6
CONTINUOUS
  62
7
  10
 125.000
  20
 357.436
  30
0.0
  11
 225.000
  21
 357.436
  31
0.0
   0
ARC
   8
LEVEL001
   6
CONTINUOUS
  62
7
  10
 342.374
  20
 173.500
  30
0.0
  40
 1.00000
  50
 90.0009
  51
 180.002
   0
ARC
   8
LEVEL001
   6
CONTINUOUS
  62
7
  10
 342.374
  20
 100.000
  30
0.0
  40
 2.00000
  50
 270.000
  51
0.0
   0
ARC
   8
LEVEL001
   6
CONTINUOUS
  62
7
  10
 343.374
  20
 107.000
  30
0.0
  40
 1.00000
  50
 359.998
  51
 89.9991
   0
ARC
   8
LEVEL001
   6
CONTINUOUS
  62
7
  10
 342.874
  20
 109.000
  30
0.0
  40
 1.00000
  50
 180.001
  51
 269.999
   0
LINE
   8
LEVEL001
   6
CONTINUOUS
  62
7
  10
 342.874
  20
 108.000
  30
0.0
  11
 343.374
  21
 108.000
  31
0.0
   0
LINE
   8
LEVEL001
   6
DASHDOT
  62
1
  10
 330.000
  20
 118.000
  30
0.0
  11
 375.000
  21
 118.000
  31
0.0
   0
ARC
   8
LEVEL001
   6
CONTINUOUS
  62
7
  10
 331.874
  20
 164.377
  30
0.0
  40
 10.0000
  50
 0.130276E-11
  51
 18.1960
   0
LINE
   8
LEVEL001
   6
CONTINUOUS
  62
7
  10
 292.374
  20
 172.500
  30
0.0
  11
 292.374
  21
 167.500
  31
0.0
   0
ARC
   8
LEVEL001
   6
CONTINUOUS
  62
7
  10
 291.374
  20
 100.000
  30
0.0
  40
 2.00000
  50
 180.001
  51
 270.000
   0
ARC
   8
LEVEL001
   6
CONTINUOUS
  62
7
  10
 290.874
  20
 109.000
  30
0.0
  40
 1.00000
  50
 270.001
  51
 0.830506E-10
   0
LINE
   8
LEVEL001
   6
CONTINUOUS
  62
7
  10
 290.874
  20
 108.000
  30
0.0
  11
 290.374
  21
 108.000
  31
0.0
   0
ARC
   8
LEVEL001
   6
CONTINUOUS
  62
7
  10
 301.874
  20
 164.377
  30
0.0
  40
 10.0000
  50
 161.804
  51
 180.000
   0
ARC
   8
LEVEL001
   6
CONTINUOUS
  62
7
  10
 342.374
  20
 222.500
  30
0.0
  40
 1.00000
  50
 180.001
  51
 269.999
   0
LINE
   8
LEVEL001
   6
CONTINUOUS
  62
7
  10
 293.124
  20
 231.900
  30
0.0
  11
 340.624
  21
 231.900
  31
0.0
   0
LINE
   8
LEVEL001
   6
CONTINUOUS
  62
7
  10
 292.374
  20
 223.500
  30
0.0
  11
 292.374
  21
 230.500
  31
0.0
   0
LINE
   8
LEVEL001
   6
CONTINUOUS
  62
7
  10
 291.874
  20
 164.377
  30
0.0
  11
 291.874
  21
 109.000
  31
0.0
   0
ARC
   8
LEVEL001
   6
CONTINUOUS
  62
7
  10
 290.374
  20
 107.000
  30
0.0
  40
 1.00000
  50
 90.0009
  51
 180.002
   0
LINE
   8
LEVEL001
   6
CONTINUOUS
  62
7
  10
 342.374
  20
 221.500
  30
0.0
  11
 342.374
  21
 198.000
  31
0.0
   0
LINE
   8
LEVEL001
   6
CONTINUOUS
  62
7
  10
 342.374
  20
 174.500
  30
0.0
  11
 342.374
  21
 198.000
  31
0.0
   0
LINE
   8
LEVEL001
   6
CONTINUOUS
  62
7
  10
 292.500
  20
 223.500
  30
0.0
  11
 292.500
  21
 198.000
  31
0.0
   0
LINE
   8
LEVEL001
   6
CONTINUOUS
  62
7
  10
 292.500
  20
 172.500
  30
0.0
  11
 292.500
  21
 198.000
  31
0.0
   0
LINE
   8
LEVEL001
   6
DASHDOT
  62
1
  10
 286.874
  20
 167.500
  30
0.0
  11
 346.874
  21
 167.500
  31
0.0
   0
LINE
   8
LEVEL001
   6
CONTINUOUS
  62
7
  10
 353.009
  20
 122.179
  30
0.0
  11
 369.095
  21
 120.992
  31
0.0
   0
ARC
   8
LEVEL001
   6
CONTINUOUS
  62
7
  10
 353.376
  20
 127.165
  30
0.0
  40
 5.00000
  50
 240.154
  51
 265.781
   0
LINE
   8
LEVEL001
   6
CONTINUOUS
  62
7
  10
 350.888
  20
 122.828
  30
0.0
  11
 344.386
  21
 126.559
  31
0.0
   0
ARC
   8
LEVEL001
   6
CONTINUOUS
  62
7
  10
 346.874
  20
 130.896
  30
0.0
  40
 5.00000
  50
 180.000
  51
 240.154
   0
ARC
   8
LEVEL001
   6
DOT
  62
3
  10
 330.874
  20
 143.750
  30
0.0
  40
 2.50000
  50
0.0
  51
 89.9996
   0
LINE
   8
LEVEL001
   6
DOT
  62
3
  10
 330.874
  20
 146.250
  30
0.0
  11
 316.874
  21
 146.250
  31
0.0
   0
ARC
   8
LEVEL001
   6
DOT
  62
3
  10
 335.874
  20
 100.500
  30
0.0
  40
 2.50000
  50
 179.999
  51
 270.000
   0
LINE
   8
LEVEL001
   6
DOT
  62
3
  10
 333.374
  20
 100.500
  30
0.0
  11
 333.374
  21
 143.750
  31
0.0
   0
ARC
   8
LEVEL001
   6
DOT
  62
3
  10
 302.874
  20
 143.750
  30
0.0
  40
 2.50000
  50
 90.0004
  51
 180.001
   0
LINE
   8
LEVEL001
   6
DOT
  62
3
  10
 302.874
  20
 146.250
  30
0.0
  11
 316.874
  21
 146.250
  31
0.0
   0
ARC
   8
LEVEL001
   6
DOT
  62
3
  10
 297.874
  20
 100.500
  30
0.0
  40
 2.50000
  50
 270.000
  51
 0.696680E-3
   0
LINE
   8
LEVEL001
   6
DOT
  62
3
  10
 300.374
  20
 100.500
  30
0.0
  11
 300.374
  21
 143.750
  31
0.0
   0
ARC
   8
LEVEL001
   6
CONTINUOUS
  62
7
  10
 353.376
  20
 108.835
  30
0.0
  40
 5.00000
  50
 94.2191
  51
 119.846
   0
LINE
   8
LEVEL001
   6
CONTINUOUS
  62
7
  10
 350.888
  20
 113.172
  30
0.0
  11
 346.886
  21
 110.875
  31
0.0
   0
ARC
   8
LEVEL001
   6
CONTINUOUS
  62
7
  10
 349.374
  20
 106.539
  30
0.0
  40
 5.00000
  50
 119.846
  51
 180.000
   0
LINE
   8
LEVEL001
   6
CONTINUOUS
  62
7
  10
 344.374
  20
 106.539
  30
0.0
  11
 344.374
  21
 99.9999
  31
0.0
   0
LINE
   8
LEVEL001
   6
CONTINUOUS
  62
7
  10
 351.874
  20
 121.386
  30
0.0
  11
 351.874
  21
 114.705
  31
0.0
   0
LINE
   8
LEVEL001
   6
CONTINUOUS
  62
7
  10
 353.009
  20
 113.821
  30
0.0
  11
 369.095
  21
 115.008
  31
0.0
   0
LINE
   8
LEVEL001
   6
CONTINUOUS
  62
7
  10
 341.874
  20
 164.377
  30
0.0
  11
 341.874
  21
 109.000
  31
0.0
   0
LINE
   8
LEVEL001
   6
CONTINUOUS
  62
7
  10
 292.374
  20
 230.500
  30
0.0
  11
 293.124
  21
 230.500
  31
0.0
   0
LINE
   8
LEVEL001
   6
CONTINUOUS
  62
7
  10
 340.624
  20
 230.500
  30
0.0
  11
 341.374
  21
 230.500
  31
0.0
   0
LINE
   8
LEVEL001
   6
CONTINUOUS
  62
7
  10
 340.624
  20
 194.043
  30
0.0
  11
 293.124
  21
 194.043
  31
0.0
   0
LINE
   8
LEVEL001
   6
CONTINUOUS
  62
7
  10
 340.624
  20
 192.649
  30
0.0
  11
 293.124
  21
 192.649
  31
0.0
   0
LINE
   8
LEVEL001
   6
CONTINUOUS
  62
7
  10
 293.124
  20
 231.900
  30
0.0
  11
 293.124
  21
 192.649
  31
0.0
   0
LINE
   8
LEVEL001
   6
CONTINUOUS
  62
7
  10
 340.624
  20
 231.900
  30
0.0
  11
 340.624
  21
 192.649
  31
0.0
   0
CIRCLE
   8
LEVEL001
   6
CONTINUOUS
  62
7
  10
 316.874
  20
 167.500
  30
0.0
  40
 17.2500
   0
ARC
   8
LEVEL001
   6
CONTINUOUS
  62
7
  10
 316.874
  20
 192.822
  30
0.0
  40
 5.40000
  50
 90.0016
  51
 123.949
   0
ARC
   8
LEVEL001
   6
CONTINUOUS
  62
7
  10
 315.757
  20
 194.482
  30
0.0
  40
 3.40000
  50
 123.949
  51
 174.247
   0
ARC
   8
LEVEL001
   6
CONTINUOUS
  62
7
  10
 316.875
  20
 192.822
  30
0.0
  40
 5.40000
  50
 56.0555
  51
 90.0029
   0
ARC
   8
LEVEL001
   6
CONTINUOUS
  62
7
  10
 317.991
  20
 194.482
  30
0.0
  40
 3.40000
  50
 5.75739
  51
 56.0552
   0
LINE
   8
LEVEL001
   6
CONTINUOUS
  62
7
  10
 321.374
  20
 194.823
  30
0.0
  11
 312.375
  21
 194.823
  31
0.0
   0
LINE
   8
LEVEL001
   6
CONTINUOUS
  62
7
  10
 341.374
  20
 230.500
  30
0.0
  11
 341.374
  21
 167.500
  31
0.0
   0
ARC
   8
LEVEL001
   6
CONTINUOUS
  62
7
  10
 316.874
  20
 47.3219
  30
0.0
  40
 54.1227
  50
 69.4482
  51
 110.552
   0
LINE
   8
LEVEL001
   6
CONTINUOUS
  62
7
  10
 335.874
  20
 98.0000
  30
0.0
  11
 342.374
  21
 98.0000
  31
0.0
   0
LINE
   8
LEVEL001
   6
CONTINUOUS
  62
7
  10
 297.874
  20
 98.0000
  30
0.0
  11
 291.374
  21
 98.0000
  31
0.0
   0
ARC
   8
LEVEL001
   6
CONTINUOUS
  62
7
  10
 316.874
  20
 48.8929
  30
0.0
  40
 54.1227
  50
 65.1388
  51
 114.861
   0
ARC
   8
LEVEL001
   6
CONTINUOUS
  62
7
  10
 322.374
  20
 114.746
  30
0.0
  40
 3.00000
  50
 180.000
  51
 266.548
   0
ARC
   8
LEVEL001
   6
CONTINUOUS
  62
7
  10
 311.374
  20
 114.746
  30
0.0
  40
 3.00000
  50
 273.452
  51
 0.154702E-10
   0
ARC
   8
LEVEL001
   6
CONTINUOUS
  62
7
  10
 316.874
  20
 23.5593
  30
0.0
  40
 88.3529
  50
 72.8860
  51
 107.114
   0
LINE
   8
LEVEL001
   6
CONTINUOUS
  62
7
  10
 314.374
  20
 140.556
  30
0.0
  11
 314.374
  21
 114.746
  31
0.0
   0
ARC
   8
LEVEL001
   6
CONTINUOUS
  62
7
  10
 311.374
  20
 140.556
  30
0.0
  40
 3.00000
  50
0.0
  51
 78.4630
   0
LINE
   8
LEVEL001
   6
CONTINUOUS
  62
7
  10
 319.374
  20
 140.556
  30
0.0
  11
 319.374
  21
 114.746
  31
0.0
   0
ARC
   8
LEVEL001
   6
CONTINUOUS
  62
7
  10
 322.374
  20
 140.556
  30
0.0
  40
 3.00000
  50
 101.537
  51
 180.000
   0
ARC
   8
LEVEL001
   6
CONTINUOUS
  62
7
  10
 316.874
  20
 167.500
  30
0.0
  40
 24.5000
  50
 180.000
  51
0.0
   0
LINE
   8
LEVEL001
   6
CONTINUOUS
  62
7
  10
 289.374
  20
 107.000
  30
0.0
  11
 289.374
  21
 99.9999
  31
0.0
   0
ARC
   8
LEVEL001
   6
CONTINUOUS
  62
7
  10
 368.874
  20
 118.000
  30
0.0
  40
 3.00000
  50
 274.224
  51
 85.7766
   0
LINE
   8
LEVEL001
   6
DASHDOT
  62
1
  10
 316.874
  20
 203.896
  30
0.0
  11
 316.874
  21
 95.0000
  31
0.0
   0
LINE
   8
LEVEL001
   6
CONTINUOUS
  62
7
  10
 342.374
  20
 183.000
  30
0.0
  11
 343.000
  21
 183.000
  31
0.0
   0
LINE
   8
LEVEL001
   6
CONTINUOUS
  62
7
  10
 342.374
  20
 213.000
  30
0.0
  11
 343.000
  21
 213.000
  31
0.0
   0
LINE
   8
LEVEL001
   6
CONTINUOUS
  62
7
  10
 343.000
  20
 220.500
  30
0.0
  11
 343.000
  21
 198.000
  31
0.0
   0
LINE
   8
LEVEL001
   6
CONTINUOUS
  62
7
  10
 343.000
  20
 198.000
  30
0.0
  11
 343.000
  21
 175.668
  31
0.0
   0
LINE
   8
LEVEL003
   6
CONTINUOUS
  62
7
  10
 290.503
  20
 225.616
  30
0.0
  11
 290.503
  21
 170.384
  31
0.0
   0
LINE
   8
LEVEL003
   6
CONTINUOUS
  62
7
  10
 224.790
  20
 338.622
  30
0.0
  11
 224.790
  21
 355.436
  31
0.0
   0
LINE
   8
LEVEL003
   6
CONTINUOUS
  62
7
  10
 124.836
  20
 337.436
  30
0.0
  11
 225.078
  21
 337.436
  31
0.0
   0
LINE
   8
LEVEL001
   6
CONTINUOUS
  62
7
  10
 225.216
  20
 335.049
  30
0.0
  11
 229.335
  21
 262.526
  31
0.0
   0
ARC
   8
LEVEL001
   6
CONTINUOUS
  62
7
  10
 167.500
  20
 285.088
  30
0.0
  40
 5.00000
  50
 270.000
  51
0.0
   0
ARC
   8
LEVEL001
   6
CONTINUOUS
  62
7
  10
 167.500
  20
 277.588
  30
0.0
  40
 2.50000
  50
 90.0000
  51
 180.000
   0
ARC
   8
LEVEL001
   6
CONTINUOUS
  62
7
  10
 182.500
  20
 285.088
  30
0.0
  40
 5.00000
  50
 180.000
  51
 270.000
   0
ARC
   8
LEVEL001
   6
CONTINUOUS
  62
7
  10
 182.500
  20
 277.588
  30
0.0
  40
 2.50000
  50
0.0
  51
 90.0000
   0
ARC
   8
LEVEL001
   6
CONTINUOUS
  62
7
  10
 175.000
  20
 285.993
  30
0.0
  40
 2.50000
  50
0.0
  51
 180.000
   0
ARC
   8
LEVEL001
   6
CONTINUOUS
  62
7
  10
 190.000
  20
 278.248
  30
0.0
  40
 5.00000
  50
 90.0000
  51
 180.000
   0
ARC
   8
LEVEL001
   6
CONTINUOUS
  62
7
  10
 160.000
  20
 278.248
  30
0.0
  40
 5.00000
  50
 0.260551E-11
  51
 90.0000
   0
ARC
   8
LEVEL001
   6
CONTINUOUS
  62
7
  10
 167.500
  20
 154.890
  30
0.0
  40
 5.00000
  50
0.0
  51
 90.0000
   0
ARC
   8
LEVEL001
   6
CONTINUOUS
  62
7
  10
 167.500
  20
 162.390
  30
0.0
  40
 2.50000
  50
 180.000
  51
 270.000
   0
ARC
   8
LEVEL001
   6
CONTINUOUS
  62
7
  10
 182.500
  20
 154.890
  30
0.0
  40
 5.00000
  50
 90.0000
  51
 180.000
   0
ARC
   8
LEVEL001
   6
CONTINUOUS
  62
7
  10
 182.500
  20
 162.390
  30
0.0
  40
 2.50000
  50
 270.000
  51
 0.651378E-11
   0
ARC
   8
LEVEL001
   6
CONTINUOUS
  62
7
  10
 175.000
  20
 153.985
  30
0.0
  40
 2.50000
  50
 180.000
  51
0.0
   0
LINE
   8
LEVEL001
   6
CONTINUOUS
  62
7
  10
 185.000
  20
 278.248
  30
0.0
  11
 185.000
  21
 161.966
  31
0.0
   0
LINE
   8
LEVEL001
   6
CONTINUOUS
  62
7
  10
 165.000
  20
 278.248
  30
0.0
  11
 165.000
  21
 161.966
  31
0.0
   0
ARC
   8
LEVEL001
   6
CONTINUOUS
  62
7
  10
 169.500
  20
 144.911
  30
0.0
  40
 3.00000
  50
 270.000
  51
0.0
   0
ARC
   8
LEVEL001
   6
CONTINUOUS
  62
7
  10
 180.500
  20
 144.911
  30
0.0
  40
 3.00000
  50
 180.000
  51
 270.000
   0
ARC
   8
LEVEL001
   6
CONTINUOUS
  62
7
  10
 160.000
  20
 163.875
  30
0.0
  40
 5.00000
  50
 270.000
  51
0.0
   0
ARC
   8
LEVEL001
   6
CONTINUOUS
  62
7
  10
 190.000
  20
 163.875
  30
0.0
  40
 5.00000
  50
 180.000
  51
 270.000
   0
LINE
   8
LEVEL003
   6
CONTINUOUS
  62
7
  10
 290.503
  20
 200.500
  30
0.0
  11
 261.658
  21
 200.500
  31
0.0
   0
LINE
   8
LEVEL003
   6
CONTINUOUS
  62
7
  10
 290.503
  20
 195.500
  30
0.0
  11
 261.658
  21
 195.500
  31
0.0
   0
LINE
   8
LEVEL001
   6
CONTINUOUS
  62
7
  10
 104.150
  20
 121.436
  30
0.0
  11
 104.150
  21
 107.436
  31
0.0
   0
LINE
   8
LEVEL001
   6
CONTINUOUS
  62
7
  10
 245.850
  20
 121.436
  30
0.0
  11
 245.850
  21
 107.436
  31
0.0
   0
LINE
   8
LEVEL001
   6
CONTINUOUS
  62
7
  10
 94.5000
  20
 107.436
  30
0.0
  11
 255.500
  21
 107.436
  31
0.0
   0
LINE
   8
LEVEL001
   6
CONTINUOUS
  62
7
  10
 202.500
  20
 107.436
  30
0.0
  11
 202.500
  21
 121.436
  31
0.0
   0
LINE
   8
LEVEL001
   6
CONTINUOUS
  62
7
  10
 202.500
  20
 121.436
  30
0.0
  11
 245.850
  21
 121.436
  31
0.0
   0
LINE
   8
LEVEL001
   6
CONTINUOUS
  62
7
  10
 147.500
  20
 121.436
  30
0.0
  11
 104.150
  21
 121.436
  31
0.0
   0
LINE
   8
LEVEL001
   6
CONTINUOUS
  62
7
  10
 147.500
  20
 107.436
  30
0.0
  11
 147.500
  21
 121.436
  31
0.0
   0
LINE
   8
LEVEL001
   6
CONTINUOUS
  62
7
  10
 245.850
  20
 119.436
  30
0.0
  11
 255.500
  21
 119.436
  31
0.0
   0
LINE
   8
LEVEL001
   6
CONTINUOUS
  62
7
  10
 202.500
  20
 119.436
  30
0.0
  11
 147.500
  21
 119.436
  31
0.0
   0
LINE
   8
LEVEL001
   6
CONTINUOUS
  62
7
  10
 104.150
  20
 119.436
  30
0.0
  11
 94.5000
  21
 119.436
  31
0.0
   0
LINE
   8
LEVEL001
   6
CONTINUOUS
  62
7
  10
 175.000
  20
 134.436
  30
0.0
  11
 99.0000
  21
 134.436
  31
0.0
   0
LINE
   8
LEVEL001
   6
CONTINUOUS
  62
7
  10
 175.000
  20
 134.436
  30
0.0
  11
 251.000
  21
 134.436
  31
0.0
   0
POLYLINE
   8
LEVEL001
   6
CONTINUOUS
  62
7
  66
1
  10
0.0
  20
0.0
  30
0.0
  70
0
   0
VERTEX
   8
LEVEL001
   6
CONTINUOUS
  62
7
  10
 99.4935
  20
 143.779
  30
0.0
   0
VERTEX
   8
LEVEL001
   6
CONTINUOUS
  62
7
  10
 100.572
  20
 144.189
  30
0.0
   0
VERTEX
   8
LEVEL001
   6
CONTINUOUS
  62
7
  10
 101.618
  20
 144.883
  30
0.0
   0
VERTEX
   8
LEVEL001
   6
CONTINUOUS
  62
7
  10
 102.616
  20
 145.850
  30
0.0
   0
VERTEX
   8
LEVEL001
   6
CONTINUOUS
  62
7
  10
 103.549
  20
 147.075
  30
0.0
   0
VERTEX
   8
LEVEL001
   6
CONTINUOUS
  62
7
  10
 104.404
  20
 148.539
  30
0.0
   0
VERTEX
   8
LEVEL001
   6
CONTINUOUS
  62
7
  10
 105.166
  20
 150.219
  30
0.0
   0
VERTEX
   8
LEVEL001
   6
CONTINUOUS
  62
7
  10
 105.825
  20
 152.089
  30
0.0
   0
VERTEX
   8
LEVEL001
   6
CONTINUOUS
  62
7
  10
 106.369
  20
 154.119
  30
0.0
   0
VERTEX
   8
LEVEL001
   6
CONTINUOUS
  62
7
  10
 106.790
  20
 156.279
  30
0.0
   0
VERTEX
   8
LEVEL001
   6
CONTINUOUS
  62
7
  10
 107.082
  20
 158.534
  30
0.0
   0
VERTEX
   8
LEVEL001
   6
CONTINUOUS
  62
7
  10
 107.240
  20
 160.849
  30
0.0
   0
VERTEX
   8
LEVEL001
   6
CONTINUOUS
  62
7
  10
 107.262
  20
 163.189
  30
0.0
   0
VERTEX
   8
LEVEL001
   6
CONTINUOUS
  62
7
  10
 107.147
  20
 165.516
  30
0.0
   0
VERTEX
   8
LEVEL001
   6
CONTINUOUS
  62
7
  10
 106.897
  20
 167.794
  30
0.0
   0
VERTEX
   8
LEVEL001
   6
CONTINUOUS
  62
7
  10
 106.516
  20
 169.987
  30
0.0
   0
VERTEX
   8
LEVEL001
   6
CONTINUOUS
  62
7
  10
 106.010
  20
 172.062
  30
0.0
   0
VERTEX
   8
LEVEL001
   6
CONTINUOUS
  62
7
  10
 105.386
  20
 173.986
  30
0.0
   0
VERTEX
   8
LEVEL001
   6
CONTINUOUS
  62
7
  10
 104.656
  20
 175.730
  30
0.0
   0
VERTEX
   8
LEVEL001
   6
CONTINUOUS
  62
7
  10
 103.829
  20
 177.265
  30
0.0
   0
VERTEX
   8
LEVEL001
   6
CONTINUOUS
  62
7
  10
 102.919
  20
 178.567
  30
0.0
   0
VERTEX
   8
LEVEL001
   6
CONTINUOUS
  62
7
  10
 101.940
  20
 179.618
  30
0.0
   0
VERTEX
   8
LEVEL001
   6
CONTINUOUS
  62
7
  10
 100.907
  20
 180.399
  30
0.0
   0
VERTEX
   8
LEVEL001
   6
CONTINUOUS
  62
7
  10
 99.8372
  20
 180.900
  30
0.0
   0
VERTEX
   8
LEVEL001
   6
CONTINUOUS
  62
7
  10
 99.7940
  20
 180.914
  30
0.0
   0
SEQEND
   0
POLYLINE
   8
LEVEL001
   6
CONTINUOUS
  62
7
  66
1
  10
0.0
  20
0.0
  30
0.0
  70
0
   0
VERTEX
   8
LEVEL001
   6
CONTINUOUS
  62
7
  10
 102.052
  20
 140.477
  30
0.0
   0
VERTEX
   8
LEVEL001
   6
CONTINUOUS
  62
7
  10
 103.555
  20
 141.439
  30
0.0
   0
VERTEX
   8
LEVEL001
   6
CONTINUOUS
  62
7
  10
 104.979
  20
 142.727
  30
0.0
   0
VERTEX
   8
LEVEL001
   6
CONTINUOUS
  62
7
  10
 106.301
  20
 144.322
  30
0.0
   0
VERTEX
   8
LEVEL001
   6
CONTINUOUS
  62
7
  10
 107.503
  20
 146.199
  30
0.0
   0
VERTEX
   8
LEVEL001
   6
CONTINUOUS
  62
7
  10
 108.563
  20
 148.328
  30
0.0
   0
VERTEX
   8
LEVEL001
   6
CONTINUOUS
  62
7
  10
 109.467
  20
 150.677
  30
0.0
   0
VERTEX
   8
LEVEL001
   6
CONTINUOUS
  62
7
  10
 110.199
  20
 153.209
  30
0.0
   0
VERTEX
   8
LEVEL001
   6
CONTINUOUS
  62
7
  10
 110.749
  20
 155.884
  30
0.0
   0
VERTEX
   8
LEVEL001
   6
CONTINUOUS
  62
7
  10
 111.108
  20
 158.661
  30
0.0
   0
VERTEX
   8
LEVEL001
   6
CONTINUOUS
  62
7
  10
 111.270
  20
 161.495
  30
0.0
   0
VERTEX
   8
LEVEL001
   6
CONTINUOUS
  62
7
  10
 111.233
  20
 164.344
  30
0.0
   0
VERTEX
   8
LEVEL001
   6
CONTINUOUS
  62
7
  10
 110.997
  20
 167.162
  30
0.0
   0
VERTEX
   8
LEVEL001
   6
CONTINUOUS
  62
7
  10
 110.566
  20
 169.906
  30
0.0
   0
VERTEX
   8
LEVEL001
   6
CONTINUOUS
  62
7
  10
 109.947
  20
 172.532
  30
0.0
   0
VERTEX
   8
LEVEL001
   6
CONTINUOUS
  62
7
  10
 109.149
  20
 175.000
  30
0.0
   0
VERTEX
   8
LEVEL001
   6
CONTINUOUS
  62
7
  10
 108.185
  20
 177.271
  30
0.0
   0
VERTEX
   8
LEVEL001
   6
CONTINUOUS
  62
7
  10
 107.070
  20
 179.310
  30
0.0
   0
VERTEX
   8
LEVEL001
   6
CONTINUOUS
  62
7
  10
 105.821
  20
 181.085
  30
0.0
   0
VERTEX
   8
LEVEL001
   6
CONTINUOUS
  62
7
  10
 104.458
  20
 182.568
  30
0.0
   0
VERTEX
   8
LEVEL001
   6
CONTINUOUS
  62
7
  10
 103.002
  20
 183.737
  30
0.0
   0
VERTEX
   8
LEVEL001
   6
CONTINUOUS
  62
7
  10
 102.075
  20
 184.288
  30
0.0
   0
SEQEND
   0
LINE
   8
LEVEL001
   6
CONTINUOUS
  62
7
  10
 172.500
  20
 144.911
  30
0.0
  11
 172.500
  21
 335.956
  31
0.0
   0
LINE
   8
LEVEL001
   6
CONTINUOUS
  62
7
  10
 177.500
  20
 144.911
  30
0.0
  11
 177.500
  21
 335.956
  31
0.0
   0
CIRCLE
   8
LEVEL003
   6
CONTINUOUS
  62
7
  10
 614.743
  20
 49.7205
  30
0.0
  40
 6.22080
   0
LINE
   8
LEVEL003
   6
CONTINUOUS
  62
7
  10
 626.953
  20
 55.9413
  30
0.0
  11
 619.052
  21
 42.2556
  31
0.0
   0
LINE
   8
LEVEL003
   6
CONTINUOUS
  62
7
  10
 619.052
  20
 42.2556
  30
0.0
  11
 603.250
  21
 42.2556
  31
0.0
   0
LINE
   8
LEVEL003
   6
CONTINUOUS
  62
7
  10
 601.454
  20
 39.1452
  30
0.0
  11
 629.698
  21
 39.1452
  31
0.0
   0
LINE
   8
LEVEL003
   6
CONTINUOUS
  62
7
  10
 629.698
  20
 39.1452
  30
0.0
  11
 639.394
  21
 55.9413
  31
0.0
   0
LINE
   8
LEVEL003
   6
CONTINUOUS
  62
7
  10
 639.394
  20
 55.9413
  30
0.0
  11
 626.953
  21
 55.9413
  31
0.0
   0
LINE
   8
LEVEL003
   6
CONTINUOUS
  62
7
  10
 603.250
  20
 42.2556
  30
0.0
  11
 601.454
  21
 39.1452
  31
0.0
   0
TEXT
   8
LEVEL003
  62
7
  10
 647.328
  20
 35.6487
  30
0.0
  40
 15.5520
   1
ＯＳＡＫＡ ＪＡＣＫ
   7
STANDARD
   0
TEXT
   8
LEVEL003
  62
7
  10
 647.610
  20
 66.4676
  30
0.0
  40
 10.3680
   1
Model : ＪＪ－３５１３
   7
STANDARD
   0
ENDSEC
   0
EOF
