   0
SECTION
   2
HEADER
   9
$LIMMIN
  10
0.0
  20
0.0
   9
$LIMMAX
  10
 1260.00
  20
 891.000
   9
$EXTMIN
  10
0.0
  20
0.0
   9
$EXTMAX
  10
 1260.00
  20
 891.000
   9
$LTSCALE
  40
 25.2000
   0
ENDSEC
   0
SECTION
   2
TABLES
  0
TABLE
  2
LTYPE
 70
    25
  0
LTYPE
  2
CONTINUOUS
 70
    64
  3
Solid line
 72
    65
 73
     0
 40
0.0
  0
LTYPE
  2
BORDER
 70
    64
  3
__ __ . __ __ . __ __ . __ __ . __ __ . __ __ .
 72
    65
 73
     6
 40
1.75
 49
0.5
 49
-0.25
 49
0.5
 49
-0.25
 49
0.0
 49
-0.25
  0
LTYPE
  2
BORDER2
 70
    64
  3
__.__.__.__.__.__.__.__.__.__.__.__.__.__.__.__
 72
    65
 73
     6
 40
0.875
 49
0.25
 49
-0.125
 49
0.25
 49
-0.125
 49
0.0
 49
-0.125
  0
LTYPE
  2
BORDERX2
 70
    64
  3
____  ____  .  ____  ____  .  ____  ____  .  __
 72
    65
 73
     6
 40
3.5
 49
1.0
 49
-0.5
 49
1.0
 49
-0.5
 49
0.0
 49
-0.5
  0
LTYPE
  2
CENTER
 70
    64
  3
____ _ ____ _ ____ _ ____ _ ____ _ ____ _ ____ 
 72
    65
 73
     4
 40
2.0
 49
1.25
 49
-0.25
 49
0.25
 49
-0.25
  0
LTYPE
  2
CENTER2
 70
    64
  3
___ _ ___ _ ___ _ ___ _ ___ _ ___ _ ___ _ ___ _
 72
    65
 73
     4
 40
1.125
 49
0.75
 49
-0.125
 49
0.125
 49
-0.125
  0
LTYPE
  2
CENTERX2
 70
    64
  3
________  __  ________  __  ________  __  _____
 72
    65
 73
     4
 40
4.0
 49
2.5
 49
-0.5
 49
0.5
 49
-0.5
  0
LTYPE
  2
DASHDOT
 70
    64
  3
__ . __ . __ . __ . __ . __ . __ . __ . __ . __
 72
    65
 73
     4
 40
1.0
 49
0.5
 49
-0.25
 49
0.0
 49
-0.25
  0
LTYPE
  2
DASHDOT2
 70
    64
  3
_._._._._._._._._._._._._._._._._._._._._._._._
 72
    65
 73
     4
 40
0.5
 49
0.25
 49
-0.125
 49
0.0
 49
-0.125
  0
LTYPE
  2
DASHDOTX2
 70
    64
  3
____  .  ____  .  ____  .  ____  .  ____  .  __
 72
    65
 73
     4
 40
2.0
 49
1.0
 49
-0.5
 49
0.0
 49
-0.5
  0
LTYPE
  2
DASHED
 70
    64
  3
__ __ __ __ __ __ __ __ __ __ __ __ __ __ __ __
 72
    65
 73
     2
 40
0.75
 49
0.5
 49
-0.25
  0
LTYPE
  2
DASHED2
 70
    64
  3
_ _ _ _ _ _ _ _ _ _ _ _ _ _ _ _ _ _ _ _ _ _ _ _
 72
    65
 73
     2
 40
0.375
 49
0.25
 49
-0.125
  0
LTYPE
  2
DASHEDX2
 70
    64
  3
____  ____  ____  ____  ____  ____  ____  ____ 
 72
    65
 73
     2
 40
1.5
 49
1.0
 49
-0.5
  0
LTYPE
  2
DIVIDE
 70
    64
  3
____ . . ____ . . ____ . . ____ . . ____ . . __
 72
    65
 73
     6
 40
1.25
 49
0.5
 49
-0.25
 49
0.0
 49
-0.25
 49
0.0
 49
-0.25
  0
LTYPE
  2
DIVIDE2
 70
    64
  3
__..__..__..__..__..__..__..__..__..__..__..__.
 72
    65
 73
     6
 40
0.625
 49
0.25
 49
-0.125
 49
0.0
 49
-0.125
 49
0.0
 49
-0.125
  0
LTYPE
  2
DIVIDEX2
 70
    64
  3
________  .  .  ________  .  .  ________  .  . 
 72
    65
 73
     6
 40
2.5
 49
1.0
 49
-0.5
 49
0.0
 49
-0.5
 49
0.0
 49
-0.5
  0
LTYPE
  2
DOT
 70
    64
  3
. . . . . . . . . . . . . . . . . . . . . . . .
 72
    65
 73
     2
 40
0.25
 49
0.0
 49
-0.25
  0
LTYPE
  2
DOT2
 70
    64
  3
...............................................
 72
    65
 73
     2
 40
0.125
 49
0.0
 49
-0.125
  0
LTYPE
  2
DOTX2
 70
    64
  3
.  .  .  .  .  .  .  .  .  .  .  .  .  .  .  . 
 72
    65
 73
     2
 40
0.5
 49
0.0
 49
-0.5
  0
LTYPE
  2
HIDDEN
 70
    64
  3
__ __ __ __ __ __ __ __ __ __ __ __ __ __ __ __
 72
    65
 73
     2
 40
0.375
 49
0.25
 49
-0.125
  0
LTYPE
  2
HIDDEN2
 70
    64
  3
_ _ _ _ _ _ _ _ _ _ _ _ _ _ _ _ _ _ _ _ _ _ _ _
 72
    65
 73
     2
 40
0.1875
 49
0.125
 49
-0.0625
  0
LTYPE
  2
HIDDENX2
 70
    64
  3
____ ____ ____ ____ ____ ____ ____ ____ ____ __
 72
    65
 73
     2
 40
0.75
 49
0.5
 49
-0.25
  0
LTYPE
  2
PHANTOM
 70
    64
  3
______  __  __  ______  __  __  ______  __  __ 
 72
    65
 73
     6
 40
2.5
 49
1.25
 49
-0.25
 49
0.25
 49
-0.25
 49
0.25
 49
-0.25
  0
LTYPE
  2
PHANTOM2
 70
    64
  3
___ _ _ ___ _ _ ___ _ _ ___ _ _ ___ _ _ ___ _ _
 72
    65
 73
     6
 40
1.25
 49
0.625
 49
-0.125
 49
0.125
 49
-0.125
 49
0.125
 49
-0.125
  0
LTYPE
  2
PHANTOMX2
 70
    64
  3
____________    ____    ____    ____________   
 72
    65
 73
     6
 40
5.0
 49
2.5
 49
-0.5
 49
0.5
 49
-0.5
 49
0.5
 49
-0.5
  0
ENDTAB
  0
TABLE
  2
STYLE
 70
     2
  0
STYLE
  2
STANDARD
 70
0
 40
0.0
 41
1.0
 50
0.0
 71
0
 42
0.2
  3
TXT
  4
BIGFONT
  0
STYLE
  2
STANDARD1
 70
     4
 40
0.0
 41
1.0
 50
0.0
 71
     0
 42
0.2
  3
TXT
  4
BIGFONT
  0
ENDTAB
   0
TABLE
   2
LAYER
  70
7
   0
LAYER
   2
0
  70
0
  62
7
   6
CONTINUOUS
   0
LAYER
   2
LEVEL001
  70
0
  62
7
   6
CONTINUOUS
   0
LAYER
   2
LEVEL003
  70
0
  62
7
   6
CONTINUOUS
   0
LAYER
   2
LEVEL020
  70
0
  62
7
   6
CONTINUOUS
   0
LAYER
   2
LEVEL050
  70
0
  62
7
   6
CONTINUOUS
   0
LAYER
   2
LEVEL100
  70
0
  62
-7
   6
CONTINUOUS
   0
LAYER
   2
LEVEL110
  70
0
  62
7
   6
CONTINUOUS
   0
ENDTAB
   0
ENDSEC
   0
SECTION
   2
ENTITIES
   0
LINE
   8
LEVEL100
   6
CONTINUOUS
  62
7
  10
 933.750
  20
 192.000
  30
0.0
  11
 933.750
  21
 171.000
  31
0.0
   0
LINE
   8
LEVEL100
   6
CONTINUOUS
  62
7
  10
 1023.75
  20
 192.000
  30
0.0
  11
 1023.75
  21
 123.000
  31
0.0
   0
LINE
   8
LEVEL100
   6
CONTINUOUS
  62
7
  10
 1083.75
  20
 192.000
  30
0.0
  11
 1083.75
  21
 171.000
  31
0.0
   0
LINE
   8
LEVEL100
   6
CONTINUOUS
  62
7
  10
 1107.75
  20
 192.000
  30
0.0
  11
 1107.75
  21
 171.000
  31
0.0
   0
LINE
   8
LEVEL100
   6
CONTINUOUS
  62
7
  10
 1142.25
  20
 192.000
  30
0.0
  11
 1142.25
  21
 171.000
  31
0.0
   0
LINE
   8
LEVEL100
   6
CONTINUOUS
  62
7
  10
 995.250
  20
 171.000
  30
0.0
  11
 995.250
  21
 123.000
  31
0.0
   0
LINE
   8
LEVEL100
   6
CONTINUOUS
  62
7
  10
 945.750
  20
 79.5000
  30
0.0
  11
 960.750
  21
 94.5000
  31
0.0
   0
CIRCLE
   8
LEVEL100
   6
CONTINUOUS
  62
7
  10
 924.750
  20
 34.5000
  30
0.0
  40
 1.20000
   0
CIRCLE
   8
LEVEL100
   6
CONTINUOUS
  62
7
  10
 945.750
  20
 34.5000
  30
0.0
  40
 1.20000
   0
CIRCLE
   8
LEVEL100
   6
CONTINUOUS
  62
7
  10
 924.750
  20
 34.5000
  30
0.0
  40
 0.750000
   0
CIRCLE
   8
LEVEL100
   6
CONTINUOUS
  62
7
  10
 945.750
  20
 34.5000
  30
0.0
  40
 0.750000
   0
LINE
   8
LEVEL100
   6
CONTINUOUS
  62
7
  10
 1038.00
  20
 46.5000
  30
0.0
  11
 1038.00
  21
 49.5000
  31
0.0
   0
LINE
   8
LEVEL100
   6
CONTINUOUS
  62
7
  10
 1038.00
  20
 49.5000
  30
0.0
  11
 1047.00
  21
 49.5000
  31
0.0
   0
LINE
   8
LEVEL100
   6
CONTINUOUS
  62
7
  10
 1047.00
  20
 49.5000
  30
0.0
  11
 1047.00
  21
 46.5000
  31
0.0
   0
LINE
   8
LEVEL100
   6
CONTINUOUS
  62
7
  10
 1047.00
  20
 46.5000
  30
0.0
  11
 1038.00
  21
 46.5000
  31
0.0
   0
LINE
   8
LEVEL100
   6
CONTINUOUS
  62
7
  10
 903.750
  20
 30.0000
  30
0.0
  11
 903.750
  21
 192.000
  31
0.0
   0
LINE
   8
LEVEL100
   6
CONTINUOUS
  62
7
  10
 966.750
  20
 171.000
  30
0.0
  11
 966.750
  21
 30.0000
  31
0.0
   0
LINE
   8
LEVEL100
   6
CONTINUOUS
  62
7
  10
 903.750
  20
 99.0000
  30
0.0
  11
 966.750
  21
 99.0000
  31
0.0
   0
LINE
   8
LEVEL100
   6
CONTINUOUS
  62
7
  10
 903.750
  20
 171.000
  30
0.0
  11
 1224.45
  21
 171.000
  31
0.0
   0
LINE
   8
LEVEL100
   6
CONTINUOUS
  62
7
  10
 903.750
  20
 159.000
  30
0.0
  11
 1224.45
  21
 159.000
  31
0.0
   0
LINE
   8
LEVEL100
   6
CONTINUOUS
  62
7
  10
 903.750
  20
 192.000
  30
0.0
  11
 1224.45
  21
 192.000
  31
0.0
   0
LINE
   8
LEVEL100
   6
CONTINUOUS
  62
7
  10
 981.450
  20
 789.000
  30
0.0
  11
 981.450
  21
 864.000
  31
0.0
   0
LINE
   8
LEVEL100
   6
CONTINUOUS
  62
7
  10
 981.450
  20
 849.000
  30
0.0
  11
 1224.45
  21
 849.000
  31
0.0
   0
LINE
   8
LEVEL100
   6
CONTINUOUS
  62
7
  10
 981.450
  20
 834.000
  30
0.0
  11
 1224.45
  21
 834.000
  31
0.0
   0
LINE
   8
LEVEL100
   6
CONTINUOUS
  62
7
  10
 1008.45
  20
 849.000
  30
0.0
  11
 1008.45
  21
 834.000
  31
0.0
   0
LINE
   8
LEVEL100
   6
CONTINUOUS
  62
7
  10
 1164.45
  20
 849.000
  30
0.0
  11
 1164.45
  21
 834.000
  31
0.0
   0
LINE
   8
LEVEL100
   6
CONTINUOUS
  62
7
  10
 1200.45
  20
 849.000
  30
0.0
  11
 1200.45
  21
 834.000
  31
0.0
   0
LINE
   8
LEVEL100
   6
CONTINUOUS
  62
7
  10
 903.750
  20
 123.000
  30
0.0
  11
 1224.45
  21
 123.000
  31
0.0
   0
LINE
   8
LEVEL100
   6
CONTINUOUS
  62
7
  10
 903.750
  20
 75.0000
  30
0.0
  11
 1224.45
  21
 75.0000
  31
0.0
   0
LINE
   8
LEVEL100
   6
CONTINUOUS
  62
7
  10
 1140.45
  20
 75.0000
  30
0.0
  11
 1140.45
  21
 30.0000
  31
0.0
   0
LINE
   8
LEVEL100
   6
CONTINUOUS
  62
7
  10
 1152.45
  20
 30.0000
  30
0.0
  11
 1203.45
  21
 60.0000
  31
0.0
   0
LINE
   8
LEVEL100
   6
CONTINUOUS
  62
7
  10
 75.0000
  20
 864.000
  30
0.0
  11
 1224.45
  21
 864.000
  31
0.0
   0
LINE
   8
LEVEL100
   6
CONTINUOUS
  62
7
  10
 1224.45
  20
 864.000
  30
0.0
  11
 1224.45
  21
 30.0000
  31
0.0
   0
LINE
   8
LEVEL100
   6
CONTINUOUS
  62
7
  10
 1224.45
  20
 30.0000
  30
0.0
  11
 75.0000
  21
 30.0000
  31
0.0
   0
LINE
   8
LEVEL100
   6
CONTINUOUS
  62
7
  10
 75.0000
  20
 837.600
  30
0.0
  11
 225.450
  21
 837.600
  31
0.0
   0
LINE
   8
LEVEL100
   6
CONTINUOUS
  62
7
  10
 225.450
  20
 837.600
  30
0.0
  11
 225.450
  21
 864.000
  31
0.0
   0
TEXT
   8
LEVEL100
  62
7
  10
 222.450
  20
 858.300
  30
0.0
  40
 15.0000
   1
ＯＪ．
  50
 180.000
  41
 0.900000
   7
STANDARD
   0
LINE
   8
LEVEL100
   6
CONTINUOUS
  62
7
  10
 171.450
  20
 852.300
  30
0.0
  11
 162.450
  21
 852.300
  31
0.0
   0
LINE
   8
LEVEL100
   6
CONTINUOUS
  62
7
  10
 162.450
  20
 852.300
  30
0.0
  11
 162.450
  21
 849.300
  31
0.0
   0
LINE
   8
LEVEL100
   6
CONTINUOUS
  62
7
  10
 162.450
  20
 849.300
  30
0.0
  11
 171.450
  21
 849.300
  31
0.0
   0
LINE
   8
LEVEL100
   6
CONTINUOUS
  62
7
  10
 171.450
  20
 849.300
  30
0.0
  11
 171.450
  21
 852.300
  31
0.0
   0
TEXT
   8
LEVEL100
  62
7
  10
 936.750
  20
 174.000
  30
0.0
  40
 12.0000
   1
Ｓ．ＩＭＡＮＩＳＨＩ
  41
 0.625000
   7
STANDARD
   0
TEXT
   8
LEVEL020
  62
6
  10
 435.000
  20
 720.000
  30
0.0
  40
 15.0000
   1
ストローク
   7
STANDARD
   0
TEXT
   8
LEVEL020
  62
6
  10
 435.000
  20
 741.000
  30
0.0
  40
 15.0000
   1
揚　　　力
   7
STANDARD
   0
TEXT
   8
LEVEL020
  62
6
  10
 690.000
  20
 720.000
  30
0.0
  40
 15.0000
   1
ｍｍ
  41
 0.700000
   7
STANDARD
   0
LINE
   8
LEVEL020
   6
CONTINUOUS
  62
6
  10
 435.000
  20
 759.000
  30
0.0
  11
 735.000
  21
 759.000
  31
0.0
   0
LINE
   8
LEVEL020
   6
CONTINUOUS
  62
6
  10
 435.000
  20
 738.000
  30
0.0
  11
 735.000
  21
 738.000
  31
0.0
   0
LINE
   8
LEVEL020
   6
CONTINUOUS
  62
6
  10
 435.000
  20
 717.000
  30
0.0
  11
 735.000
  21
 717.000
  31
0.0
   0
TEXT
   8
LEVEL020
  62
6
  10
 435.000
  20
 762.000
  30
0.0
  40
 15.0000
   1
形　　　式
   7
STANDARD
   0
TEXT
   8
LEVEL020
  62
6
  10
 435.000
  20
 783.000
  30
0.0
  40
 15.0000
   1
仕　　　様
   7
STANDARD
   0
LINE
   8
LEVEL020
   6
CONTINUOUS
  62
6
  10
 435.000
  20
 780.000
  30
0.0
  11
 510.000
  21
 780.000
  31
0.0
   0
TEXT
   8
LEVEL020
  62
6
  10
 435.000
  20
 699.000
  30
0.0
  40
 15.0000
   1
最低高さ
   7
STANDARD
   0
TEXT
   8
LEVEL020
  62
6
  10
 690.000
  20
 699.000
  30
0.0
  40
 15.0000
   1
ｍｍ
  41
 0.700000
   7
STANDARD
   0
LINE
   8
LEVEL020
   6
CONTINUOUS
  62
6
  10
 435.000
  20
 696.000
  30
0.0
  11
 735.000
  21
 696.000
  31
0.0
   0
LINE
   8
LEVEL020
   6
CONTINUOUS
  62
6
  10
 435.000
  20
 675.000
  30
0.0
  11
 735.000
  21
 675.000
  31
0.0
   0
LINE
   8
LEVEL020
   6
CONTINUOUS
  62
6
  10
 435.000
  20
 654.000
  30
0.0
  11
 735.000
  21
 654.000
  31
0.0
   0
TEXT
   8
LEVEL020
  62
6
  10
 435.000
  20
 657.000
  30
0.0
  40
 15.0000
   1
付　属　品
   7
STANDARD
   0
TEXT
   8
LEVEL020
  62
6
  10
 606.000
  20
 657.000
  30
0.0
  40
 15.0000
   1
　　　　　　１
  41
 0.700000
   7
STANDARD
   0
TEXT
   8
LEVEL020
  62
6
  10
 690.000
  20
 657.000
  30
0.0
  40
 15.0000
   1
本
  41
 0.500000
   7
STANDARD
   0
TEXT
   8
LEVEL020
  62
6
  10
 690.000
  20
 678.000
  30
0.0
  40
 15.0000
   1
ｋｇ
  41
 0.700000
   7
STANDARD
   0
TEXT
   8
LEVEL020
  62
6
  10
 520.500
  20
 657.000
  30
0.0
  40
 15.0000
   1
ハンドル棒（%%c３２×７００Ｌ）
  41
 0.600000
   7
STANDARD
   0
TEXT
   8
LEVEL020
  62
6
  10
 606.000
  20
 762.000
  30
0.0
  40
 15.0000
   1
　　　ＪＪ－３５２５
  41
 0.700000
   7
STANDARD
   0
TEXT
   8
LEVEL020
  62
6
  10
 606.000
  20
 720.000
  30
0.0
  40
 15.0000
   1
　　　　２５０
  41
 0.700000
   7
STANDARD
   0
TEXT
   8
LEVEL020
  62
6
  10
 606.000
  20
 699.000
  30
0.0
  40
 15.0000
   1
　　　　４１０
  41
 0.700000
   7
STANDARD
   0
TEXT
   8
LEVEL020
  62
6
  10
 606.000
  20
 678.000
  30
0.0
  40
 15.0000
   1
　　　約　３２
  41
 0.700000
   7
STANDARD
   0
TEXT
   8
LEVEL100
  62
7
  10
 977.250
  20
 40.5000
  30
0.0
  40
 15.0000
   1
ＯＪ
  41
 0.700000
   7
STANDARD
   0
TEXT
   8
LEVEL020
  62
6
  10
 606.000
  20
 741.000
  30
0.0
  40
 15.0000
   1
　　　　３５０
  41
 0.700000
   7
STANDARD
   0
TEXT
   8
LEVEL020
  62
6
  10
 690.000
  20
 741.000
  30
0.0
  40
 15.0000
   1
ｋＮ
  41
 0.700000
   7
STANDARD
   0
TEXT
   8
LEVEL020
  62
6
  10
 435.000
  20
 678.000
  30
0.0
  40
 15.0000
   1
質　　　量
   7
STANDARD
   0
LINE
   8
LEVEL001
   6
DASHDOT
  62
1
  10
 262.500
  20
 237.564
  30
0.0
  11
 450.000
  21
 237.564
  31
0.0
   0
ARC
   8
LEVEL001
   6
CONTINUOUS
  62
7
  10
 340.500
  20
 138.000
  30
0.0
  40
 3.00000
  50
 270.000
  51
 0.705659E-11
   0
LINE
   8
LEVEL001
   6
CONTINUOUS
  62
7
  10
 270.000
  20
 135.000
  30
0.0
  11
 340.500
  21
 135.000
  31
0.0
   0
LINE
   8
LEVEL001
   6
CONTINUOUS
  62
7
  10
 343.500
  20
 138.000
  30
0.0
  11
 343.500
  21
 147.000
  31
0.0
   0
LINE
   8
LEVEL001
   6
DASHDOT
  62
1
  10
 287.500
  20
 139.564
  30
0.0
  11
 287.500
  21
 132.282
  31
0.0
   0
LINE
   8
LEVEL001
   6
DASHDOT
  62
1
  10
 307.500
  20
 139.564
  30
0.0
  11
 307.500
  21
 132.282
  31
0.0
   0
LINE
   8
LEVEL001
   6
DASHDOT
  62
1
  10
 325.000
  20
 139.564
  30
0.0
  11
 325.000
  21
 132.282
  31
0.0
   0
LINE
   8
LEVEL001
   6
CONTINUOUS
  62
7
  10
 350.500
  20
 147.000
  30
0.0
  11
 350.500
  21
 159.000
  31
0.0
   0
LINE
   8
LEVEL001
   6
CONTINUOUS
  62
7
  10
 346.000
  20
 159.000
  30
0.0
  11
 346.000
  21
 174.000
  31
0.0
   0
ARC
   8
LEVEL001
   6
CONTINUOUS
  62
7
  10
 346.500
  20
 177.000
  30
0.0
  40
 2.00000
  50
 89.9996
  51
 180.000
   0
ARC
   8
LEVEL001
   6
CONTINUOUS
  62
7
  10
 199.500
  20
 138.000
  30
0.0
  40
 3.00000
  50
 180.000
  51
 270.000
   0
LINE
   8
LEVEL001
   6
CONTINUOUS
  62
7
  10
 270.000
  20
 135.000
  30
0.0
  11
 199.500
  21
 135.000
  31
0.0
   0
LINE
   8
LEVEL001
   6
CONTINUOUS
  62
7
  10
 196.500
  20
 138.000
  30
0.0
  11
 196.500
  21
 147.000
  31
0.0
   0
LINE
   8
LEVEL001
   6
DASHDOT
  62
1
  10
 252.500
  20
 139.564
  30
0.0
  11
 252.500
  21
 132.282
  31
0.0
   0
LINE
   8
LEVEL001
   6
DASHDOT
  62
1
  10
 232.500
  20
 139.564
  30
0.0
  11
 232.500
  21
 132.282
  31
0.0
   0
LINE
   8
LEVEL001
   6
DASHDOT
  62
1
  10
 215.000
  20
 139.564
  30
0.0
  11
 215.000
  21
 132.282
  31
0.0
   0
LINE
   8
LEVEL001
   6
CONTINUOUS
  62
7
  10
 189.500
  20
 147.000
  30
0.0
  11
 189.500
  21
 159.000
  31
0.0
   0
LINE
   8
LEVEL001
   6
CONTINUOUS
  62
7
  10
 194.000
  20
 159.000
  30
0.0
  11
 194.000
  21
 174.000
  31
0.0
   0
ARC
   8
LEVEL001
   6
CONTINUOUS
  62
7
  10
 364.500
  20
 188.693
  30
0.0
  40
 20.0000
  50
 93.3275
  51
 180.000
   0
LINE
   8
LEVEL001
   6
CONTINUOUS
  62
7
  10
 344.500
  20
 174.000
  30
0.0
  11
 344.500
  21
 188.693
  31
0.0
   0
ARC
   8
LEVEL001
   6
CONTINUOUS
  62
7
  10
 348.365
  20
 182.000
  30
0.0
  40
 3.00000
  50
 270.000
  51
 311.430
   0
LINE
   8
LEVEL001
   6
CONTINUOUS
  62
7
  10
 346.500
  20
 179.000
  30
0.0
  11
 348.365
  21
 179.000
  31
0.0
   0
LINE
   8
LEVEL001
   6
CONTINUOUS
  62
7
  10
 384.500
  20
 209.890
  30
0.0
  11
 350.351
  21
 179.751
  31
0.0
   0
LINE
   8
LEVEL001
   6
CONTINUOUS
  62
7
  10
 387.500
  20
 212.064
  30
0.0
  11
 385.503
  21
 209.948
  31
0.0
   0
LINE
   8
LEVEL001
   6
CONTINUOUS
  62
7
  10
 363.339
  20
 208.659
  30
0.0
  11
 385.503
  21
 209.948
  31
0.0
   0
LINE
   8
LEVEL001
   6
CONTINUOUS
  62
7
  10
 387.500
  20
 263.064
  30
0.0
  11
 385.503
  21
 265.180
  31
0.0
   0
ARC
   8
LEVEL001
   6
CONTINUOUS
  62
7
  10
 357.238
  20
 276.840
  30
0.0
  40
 10.0000
  50
 193.053
  51
 266.673
   0
LINE
   8
LEVEL001
   6
CONTINUOUS
  62
7
  10
 356.658
  20
 266.857
  30
0.0
  11
 385.503
  21
 265.180
  31
0.0
   0
LINE
   8
LEVEL001
   6
DASHDOT
  62
1
  10
 332.500
  20
 153.000
  30
0.0
  11
 353.500
  21
 153.000
  31
0.0
   0
LINE
   8
LEVEL003
   6
CONTINUOUS
  62
3
  10
 196.500
  20
 135.000
  30
0.0
  11
 196.500
  21
 98.5641
  31
0.0
   0
LINE
   8
LEVEL003
   6
CONTINUOUS
  62
3
  10
 343.500
  20
 135.000
  30
0.0
  11
 343.500
  21
 98.5641
  31
0.0
   0
LINE
   8
LEVEL003
   6
CONTINUOUS
  62
3
  10
 196.500
  20
 104.564
  30
0.0
  11
 343.500
  21
 104.564
  31
0.0
   0
LINE
   8
LEVEL003
   6
CONTINUOUS
  62
3
  10
 205.500
  20
 103.064
  30
0.0
  11
 196.500
  21
 104.564
  31
0.0
   0
LINE
   8
LEVEL003
   6
CONTINUOUS
  62
3
  10
 196.500
  20
 104.564
  30
0.0
  11
 205.500
  21
 106.064
  31
0.0
   0
LINE
   8
LEVEL003
   6
CONTINUOUS
  62
3
  10
 196.500
  20
 104.564
  30
0.0
  11
 205.500
  21
 104.564
  31
0.0
   0
LINE
   8
LEVEL003
   6
CONTINUOUS
  62
3
  10
 334.500
  20
 106.064
  30
0.0
  11
 343.500
  21
 104.564
  31
0.0
   0
LINE
   8
LEVEL003
   6
CONTINUOUS
  62
3
  10
 343.500
  20
 104.564
  30
0.0
  11
 334.500
  21
 103.064
  31
0.0
   0
LINE
   8
LEVEL003
   6
CONTINUOUS
  62
3
  10
 343.500
  20
 104.564
  30
0.0
  11
 334.500
  21
 104.564
  31
0.0
   0
TEXT
   8
LEVEL003
  62
3
  10
 255.000
  20
 98.9641
  30
0.0
  40
 12.0000
   1
%%c147
   7
STANDARD
  72
1
  11
 270.000
  21
 106.964
  31
0.0
  73
2
   0
ARC
   8
LEVEL001
   6
CONTINUOUS
  62
7
  10
 220.000
  20
 525.000
  30
0.0
  40
 2.00000
  50
 90.0002
  51
 180.000
   0
ARC
   8
LEVEL001
   6
CONTINUOUS
  62
7
  10
 320.000
  20
 525.000
  30
0.0
  40
 2.00000
  50
0.0
  51
 89.9998
   0
LINE
   8
LEVEL001
   6
CONTINUOUS
  62
7
  10
 322.000
  20
 525.000
  30
0.0
  11
 324.000
  21
 525.000
  31
0.0
   0
LINE
   8
LEVEL001
   6
CONTINUOUS
  62
7
  10
 324.000
  20
 520.500
  30
0.0
  11
 324.000
  21
 507.500
  31
0.0
   0
LINE
   8
LEVEL001
   6
CONTINUOUS
  62
7
  10
 324.000
  20
 507.500
  30
0.0
  11
 331.600
  21
 507.500
  31
0.0
   0
LINE
   8
LEVEL001
   6
CONTINUOUS
  62
7
  10
 331.600
  20
 507.500
  30
0.0
  11
 332.000
  21
 508.193
  31
0.0
   0
LINE
   8
LEVEL001
   6
CONTINUOUS
  62
7
  10
 332.000
  20
 508.193
  30
0.0
  11
 332.000
  21
 519.807
  31
0.0
   0
LINE
   8
LEVEL001
   6
CONTINUOUS
  62
7
  10
 332.000
  20
 519.807
  30
0.0
  11
 331.600
  21
 520.500
  31
0.0
   0
LINE
   8
LEVEL001
   6
CONTINUOUS
  62
7
  10
 331.600
  20
 520.500
  30
0.0
  11
 324.000
  21
 520.500
  31
0.0
   0
LINE
   8
LEVEL001
   6
CONTINUOUS
  62
7
  10
 331.600
  20
 520.500
  30
0.0
  11
 331.600
  21
 507.500
  31
0.0
   0
LINE
   8
LEVEL001
   6
DASHDOT
  62
1
  10
 335.000
  20
 514.000
  30
0.0
  11
 305.000
  21
 514.000
  31
0.0
   0
ARC
   8
LEVEL001
   6
CONTINUOUS
  62
7
  10
 229.500
  20
 542.000
  30
0.0
  40
 3.00000
  50
 90.0000
  51
 180.000
   0
LINE
   8
LEVEL001
   6
CONTINUOUS
  62
7
  10
 229.500
  20
 545.000
  30
0.0
  11
 270.000
  21
 545.000
  31
0.0
   0
LINE
   8
LEVEL001
   6
CONTINUOUS
  62
7
  10
 226.500
  20
 527.000
  30
0.0
  11
 226.500
  21
 542.000
  31
0.0
   0
LINE
   8
LEVEL001
   6
DASHDOT
  62
1
  10
 255.500
  20
 539.782
  30
0.0
  11
 255.500
  21
 549.564
  31
0.0
   0
LINE
   8
LEVEL001
   6
DASHDOT
  62
1
  10
 241.000
  20
 539.782
  30
0.0
  11
 241.000
  21
 549.564
  31
0.0
   0
LINE
   8
LEVEL001
   6
DASHDOT
  62
1
  10
 270.000
  20
 129.564
  30
0.0
  11
 270.000
  21
 549.564
  31
0.0
   0
LINE
   8
LEVEL001
   6
CONTINUOUS
  62
7
  10
 310.500
  20
 545.000
  30
0.0
  11
 270.000
  21
 545.000
  31
0.0
   0
LINE
   8
LEVEL001
   6
DASHDOT
  62
1
  10
 284.500
  20
 539.782
  30
0.0
  11
 284.500
  21
 549.564
  31
0.0
   0
LINE
   8
LEVEL001
   6
DASHDOT
  62
1
  10
 299.000
  20
 539.782
  30
0.0
  11
 299.000
  21
 549.564
  31
0.0
   0
ARC
   8
LEVEL001
   6
CONTINUOUS
  62
7
  10
 310.500
  20
 542.000
  30
0.0
  40
 3.00000
  50
0.0
  51
 90.0000
   0
LINE
   8
LEVEL001
   6
CONTINUOUS
  62
7
  10
 313.500
  20
 527.000
  30
0.0
  11
 313.500
  21
 542.000
  31
0.0
   0
LINE
   8
LEVEL003
   6
CONTINUOUS
  62
3
  10
 226.500
  20
 545.000
  30
0.0
  11
 226.500
  21
 585.564
  31
0.0
   0
LINE
   8
LEVEL003
   6
CONTINUOUS
  62
3
  10
 313.500
  20
 545.000
  30
0.0
  11
 313.500
  21
 585.564
  31
0.0
   0
LINE
   8
LEVEL003
   6
CONTINUOUS
  62
3
  10
 226.500
  20
 579.564
  30
0.0
  11
 313.500
  21
 579.564
  31
0.0
   0
LINE
   8
LEVEL003
   6
CONTINUOUS
  62
3
  10
 235.500
  20
 578.064
  30
0.0
  11
 226.500
  21
 579.564
  31
0.0
   0
LINE
   8
LEVEL003
   6
CONTINUOUS
  62
3
  10
 226.500
  20
 579.564
  30
0.0
  11
 235.500
  21
 581.064
  31
0.0
   0
LINE
   8
LEVEL003
   6
CONTINUOUS
  62
3
  10
 226.500
  20
 579.564
  30
0.0
  11
 235.500
  21
 579.564
  31
0.0
   0
LINE
   8
LEVEL003
   6
CONTINUOUS
  62
3
  10
 304.500
  20
 581.064
  30
0.0
  11
 313.500
  21
 579.564
  31
0.0
   0
LINE
   8
LEVEL003
   6
CONTINUOUS
  62
3
  10
 313.500
  20
 579.564
  30
0.0
  11
 304.500
  21
 578.064
  31
0.0
   0
LINE
   8
LEVEL003
   6
CONTINUOUS
  62
3
  10
 313.500
  20
 579.564
  30
0.0
  11
 304.500
  21
 579.564
  31
0.0
   0
TEXT
   8
LEVEL003
  62
3
  10
 258.000
  20
 573.964
  30
0.0
  40
 12.0000
   1
%%c87
   7
STANDARD
  72
1
  11
 270.000
  21
 581.964
  31
0.0
  73
2
   0
LINE
   8
LEVEL003
   6
CONTINUOUS
  62
3
  10
 196.500
  20
 135.000
  30
0.0
  11
 134.000
  21
 135.000
  31
0.0
   0
LINE
   8
LEVEL003
   6
CONTINUOUS
  62
3
  10
 226.500
  20
 545.000
  30
0.0
  11
 134.000
  21
 545.000
  31
0.0
   0
LINE
   8
LEVEL003
   6
CONTINUOUS
  62
3
  10
 140.000
  20
 135.000
  30
0.0
  11
 140.000
  21
 545.000
  31
0.0
   0
LINE
   8
LEVEL003
   6
CONTINUOUS
  62
3
  10
 141.500
  20
 144.000
  30
0.0
  11
 140.000
  21
 135.000
  31
0.0
   0
LINE
   8
LEVEL003
   6
CONTINUOUS
  62
3
  10
 140.000
  20
 135.000
  30
0.0
  11
 138.500
  21
 144.000
  31
0.0
   0
LINE
   8
LEVEL003
   6
CONTINUOUS
  62
3
  10
 140.000
  20
 135.000
  30
0.0
  11
 140.000
  21
 144.000
  31
0.0
   0
LINE
   8
LEVEL003
   6
CONTINUOUS
  62
3
  10
 138.500
  20
 536.000
  30
0.0
  11
 140.000
  21
 545.000
  31
0.0
   0
LINE
   8
LEVEL003
   6
CONTINUOUS
  62
3
  10
 140.000
  20
 545.000
  30
0.0
  11
 141.500
  21
 536.000
  31
0.0
   0
LINE
   8
LEVEL003
   6
CONTINUOUS
  62
3
  10
 140.000
  20
 545.000
  30
0.0
  11
 140.000
  21
 536.000
  31
0.0
   0
TEXT
   8
LEVEL003
  62
3
  10
 145.600
  20
 331.000
  30
0.0
  40
 12.0000
   1
410
  50
 90.0000
  41
 0.500000
   7
STANDARD
  72
1
  11
 137.600
  21
 340.000
  31
0.0
  73
2
   0
LINE
   8
LEVEL003
   6
CONTINUOUS
  62
3
  10
 226.500
  20
 545.000
  30
0.0
  11
 164.000
  21
 545.000
  31
0.0
   0
LINE
   8
LEVEL003
   6
CONTINUOUS
  62
3
  10
 217.000
  20
 527.000
  30
0.0
  11
 164.000
  21
 527.000
  31
0.0
   0
LINE
   8
LEVEL003
   6
CONTINUOUS
  62
3
  10
 170.000
  20
 545.000
  30
0.0
  11
 170.000
  21
 527.000
  31
0.0
   0
LINE
   8
LEVEL003
   6
CONTINUOUS
  62
3
  10
 168.500
  20
 536.000
  30
0.0
  11
 170.000
  21
 545.000
  31
0.0
   0
LINE
   8
LEVEL003
   6
CONTINUOUS
  62
3
  10
 170.000
  20
 545.000
  30
0.0
  11
 171.500
  21
 536.000
  31
0.0
   0
LINE
   8
LEVEL003
   6
CONTINUOUS
  62
3
  10
 170.000
  20
 545.000
  30
0.0
  11
 170.000
  21
 536.000
  31
0.0
   0
LINE
   8
LEVEL003
   6
CONTINUOUS
  62
3
  10
 171.500
  20
 536.000
  30
0.0
  11
 170.000
  21
 527.000
  31
0.0
   0
LINE
   8
LEVEL003
   6
CONTINUOUS
  62
3
  10
 170.000
  20
 527.000
  30
0.0
  11
 168.500
  21
 536.000
  31
0.0
   0
LINE
   8
LEVEL003
   6
CONTINUOUS
  62
3
  10
 170.000
  20
 527.000
  30
0.0
  11
 170.000
  21
 536.000
  31
0.0
   0
TEXT
   8
LEVEL003
  62
3
  10
 175.600
  20
 530.000
  30
0.0
  40
 12.0000
   1
18
  50
 90.0000
  41
 0.500000
   7
STANDARD
  72
1
  11
 167.600
  21
 536.000
  31
0.0
  73
2
   0
ARC
   8
LEVEL001
   6
CONTINUOUS
  62
7
  10
 324.607
  20
 474.062
  30
0.0
  40
 3.00000
  50
 101.683
  51
 181.995
   0
LINE
   8
LEVEL001
   6
CONTINUOUS
  62
7
  10
 324.000
  20
 525.000
  30
0.0
  11
 324.000
  21
 477.000
  31
0.0
   0
LINE
   8
LEVEL001
   6
CONTINUOUS
  62
7
  10
 324.000
  20
 498.500
  30
0.0
  11
 324.000
  21
 485.500
  31
0.0
   0
LINE
   8
LEVEL001
   6
CONTINUOUS
  62
7
  10
 324.000
  20
 485.500
  30
0.0
  11
 331.600
  21
 485.500
  31
0.0
   0
LINE
   8
LEVEL001
   6
CONTINUOUS
  62
7
  10
 331.600
  20
 485.500
  30
0.0
  11
 332.000
  21
 486.193
  31
0.0
   0
LINE
   8
LEVEL001
   6
CONTINUOUS
  62
7
  10
 332.000
  20
 486.193
  30
0.0
  11
 332.000
  21
 497.807
  31
0.0
   0
LINE
   8
LEVEL001
   6
CONTINUOUS
  62
7
  10
 332.000
  20
 497.807
  30
0.0
  11
 331.600
  21
 498.500
  31
0.0
   0
LINE
   8
LEVEL001
   6
CONTINUOUS
  62
7
  10
 331.600
  20
 498.500
  30
0.0
  11
 324.000
  21
 498.500
  31
0.0
   0
LINE
   8
LEVEL001
   6
CONTINUOUS
  62
7
  10
 331.600
  20
 498.500
  30
0.0
  11
 331.600
  21
 485.500
  31
0.0
   0
LINE
   8
LEVEL001
   6
DASHDOT
  62
1
  10
 335.000
  20
 492.000
  30
0.0
  11
 305.000
  21
 492.000
  31
0.0
   0
LINE
   8
LEVEL001
   6
CONTINUOUS
  62
7
  10
 218.000
  20
 525.000
  30
0.0
  11
 218.000
  21
 509.000
  31
0.0
   0
ARC
   8
LEVEL001
   6
CONTINUOUS
  62
7
  10
 216.100
  20
 508.110
  30
0.0
  40
 2.00000
  50
 354.335
  51
 12.8571
   0
ARC
   8
LEVEL001
   6
CONTINUOUS
  62
7
  10
 217.923
  20
 505.581
  30
0.0
  40
 2.00000
  50
 357.131
  51
 58.7188
   0
ARC
   8
LEVEL001
   6
CONTINUOUS
  62
7
  10
 220.000
  20
 509.000
  30
0.0
  40
 2.00000
  50
 180.000
  51
 238.718
   0
ARC
   8
LEVEL003
   6
CONTINUOUS
  62
7
  10
 202.748
  20
 302.571
  30
0.0
  40
 5.00000
  50
 174.338
  51
 178.470
   0
LINE
   8
LEVEL003
   6
CONTINUOUS
  62
7
  10
 197.773
  20
 303.064
  30
0.0
  11
 218.090
  21
 507.912
  31
0.0
   0
ARC
   8
LEVEL001
   6
CONTINUOUS
  62
7
  10
 182.867
  20
 265.607
  30
0.0
  40
 25.0000
  50
 331.129
  51
 357.131
   0
LINE
   8
LEVEL003
   6
CONTINUOUS
  62
7
  10
 219.920
  20
 505.481
  30
0.0
  11
 207.836
  21
 264.356
  31
0.0
   0
ARC
   8
LEVEL003
   6
CONTINUOUS
  62
7
  10
 345.383
  20
 300.265
  30
0.0
  40
 15.0000
  50
 182.869
  51
 240.702
   0
ARC
   8
LEVEL001
   6
CONTINUOUS
  62
7
  10
 328.501
  20
 270.178
  30
0.0
  40
 19.5000
  50
 13.0529
  51
 60.7020
   0
ARC
   8
LEVEL003
   6
CONTINUOUS
  62
7
  10
 400.347
  20
 324.446
  30
0.0
  40
 60.0000
  50
 185.994
  51
 245.065
   0
LINE
   8
LEVEL003
   6
CONTINUOUS
  62
7
  10
 324.000
  20
 477.000
  30
0.0
  11
 340.675
  21
 318.181
  31
0.0
   0
LINE
   8
LEVEL001
   6
CONTINUOUS
  62
7
  10
 385.503
  20
 265.180
  30
0.0
  11
 375.052
  21
 270.039
  31
0.0
   0
ARC
   8
LEVEL003
   6
CONTINUOUS
  62
7
  10
 193.500
  20
 185.000
  30
0.0
  40
 2.00000
  50
 300.000
  51
 0.512960E-10
   0
ARC
   8
LEVEL003
   6
CONTINUOUS
  62
7
  10
 190.500
  20
 176.637
  30
0.0
  40
 5.00000
  50
0.0
  51
 44.4153
   0
ARC
   8
LEVEL003
   6
CONTINUOUS
  62
7
  10
 195.500
  20
 181.536
  30
0.0
  40
 2.00000
  50
 120.000
  51
 224.415
   0
ARC
   8
LEVEL003
   6
CONTINUOUS
  62
7
  10
 193.500
  20
 219.000
  30
0.0
  40
 2.00000
  50
0.0
  51
 57.3987
   0
ARC
   8
LEVEL001
   6
CONTINUOUS
  62
7
  10
 191.153
  20
 227.730
  30
0.0
  40
 5.00000
  50
 310.033
  51
 352.654
   0
ARC
   8
LEVEL003
   6
CONTINUOUS
  62
7
  10
 195.655
  20
 222.370
  30
0.0
  40
 2.00000
  50
 130.033
  51
 237.399
   0
LINE
   8
LEVEL001
   6
CONTINUOUS
  62
7
  10
 195.500
  20
 174.000
  30
0.0
  11
 195.500
  21
 176.637
  31
0.0
   0
ARC
   8
LEVEL001
   6
CONTINUOUS
  62
7
  10
 270.000
  20
 217.564
  30
0.0
  40
 74.5000
  50
 151.129
  51
 172.654
   0
LINE
   8
LEVEL003
   6
CONTINUOUS
  62
7
  10
 197.750
  20
 302.704
  30
0.0
  11
 195.689
  21
 225.627
  31
0.0
   0
LINE
   8
LEVEL001
   6
CONTINUOUS
  62
7
  10
 195.500
  20
 185.000
  30
0.0
  11
 195.500
  21
 219.000
  31
0.0
   0
ARC
   8
LEVEL001
   6
CONTINUOUS
  62
7
  10
 634.500
  20
 138.000
  30
0.0
  40
 3.00000
  50
 180.000
  51
 270.000
   0
LINE
   8
LEVEL001
   6
CONTINUOUS
  62
7
  10
 631.500
  20
 138.000
  30
0.0
  11
 631.500
  21
 147.000
  31
0.0
   0
LINE
   8
LEVEL001
   6
CONTINUOUS
  62
7
  10
 624.500
  20
 147.000
  30
0.0
  11
 624.500
  21
 159.000
  31
0.0
   0
LINE
   8
LEVEL001
   6
CONTINUOUS
  62
7
  10
 629.000
  20
 159.000
  30
0.0
  11
 629.000
  21
 174.000
  31
0.0
   0
LINE
   8
LEVEL001
   6
CONTINUOUS
  62
7
  10
 705.000
  20
 135.000
  30
0.0
  11
 634.500
  21
 135.000
  31
0.0
   0
ARC
   8
LEVEL001
   6
CONTINUOUS
  62
7
  10
 775.500
  20
 138.000
  30
0.0
  40
 3.00000
  50
 270.000
  51
0.0
   0
LINE
   8
LEVEL001
   6
CONTINUOUS
  62
7
  10
 778.500
  20
 138.000
  30
0.0
  11
 778.500
  21
 147.000
  31
0.0
   0
LINE
   8
LEVEL001
   6
CONTINUOUS
  62
7
  10
 781.000
  20
 159.000
  30
0.0
  11
 785.500
  21
 159.000
  31
0.0
   0
LINE
   8
LEVEL001
   6
CONTINUOUS
  62
7
  10
 785.500
  20
 147.000
  30
0.0
  11
 785.500
  21
 159.000
  31
0.0
   0
LINE
   8
LEVEL001
   6
CONTINUOUS
  62
7
  10
 781.000
  20
 159.000
  30
0.0
  11
 781.000
  21
 174.000
  31
0.0
   0
LINE
   8
LEVEL001
   6
CONTINUOUS
  62
7
  10
 779.500
  20
 174.000
  30
0.0
  11
 781.000
  21
 174.000
  31
0.0
   0
LINE
   8
LEVEL001
   6
CONTINUOUS
  62
7
  10
 705.000
  20
 135.000
  30
0.0
  11
 775.500
  21
 135.000
  31
0.0
   0
LINE
   8
LEVEL001
   6
CONTINUOUS
  62
7
  10
 634.150
  20
 161.000
  30
0.0
  11
 634.150
  21
 147.000
  31
0.0
   0
LINE
   8
LEVEL001
   6
CONTINUOUS
  62
7
  10
 775.850
  20
 161.000
  30
0.0
  11
 775.850
  21
 147.000
  31
0.0
   0
LINE
   8
LEVEL001
   6
CONTINUOUS
  62
7
  10
 634.150
  20
 159.000
  30
0.0
  11
 624.500
  21
 159.000
  31
0.0
   0
LINE
   8
LEVEL001
   6
CONTINUOUS
  62
7
  10
 781.000
  20
 159.000
  30
0.0
  11
 775.850
  21
 159.000
  31
0.0
   0
ARC
   8
LEVEL001
   6
CONTINUOUS
  62
7
  10
 710.500
  20
 290.214
  30
0.0
  40
 3.00000
  50
 174.520
  51
 264.036
   0
ARC
   8
LEVEL001
   6
CONTINUOUS
  62
7
  10
 699.500
  20
 290.214
  30
0.0
  40
 3.00000
  50
 275.964
  51
 5.48013
   0
LINE
   8
LEVEL001
   6
DASHDOT
  62
1
  10
 645.000
  20
 237.564
  30
0.0
  11
 760.000
  21
 237.564
  31
0.0
   0
CIRCLE
   8
LEVEL001
   6
CONTINUOUS
  62
7
  10
 705.000
  20
 237.564
  30
0.0
  40
 22.5000
   0
CIRCLE
   8
LEVEL001
   6
CONTINUOUS
  62
7
  10
 705.000
  20
 237.564
  30
0.0
  40
 23.5000
   0
ARC
   8
LEVEL001
   6
CONTINUOUS
  62
7
  10
 646.000
  20
 231.152
  30
0.0
  40
 1.00000
  50
 95.2380
  51
 180.001
   0
ARC
   8
LEVEL001
   6
CONTINUOUS
  62
7
  10
 646.000
  20
 183.064
  30
0.0
  40
 1.00000
  50
 180.000
  51
 269.999
   0
LINE
   8
LEVEL001
   6
CONTINUOUS
  62
7
  10
 645.000
  20
 231.152
  30
0.0
  11
 645.000
  21
 183.064
  31
0.0
   0
ARC
   8
LEVEL001
   6
CONTINUOUS
  62
7
  10
 764.000
  20
 231.152
  30
0.0
  40
 1.00000
  50
 0.159671E-2
  51
 84.7620
   0
ARC
   8
LEVEL001
   6
CONTINUOUS
  62
7
  10
 764.000
  20
 183.064
  30
0.0
  40
 1.00000
  50
 270.001
  51
 0.435432E-3
   0
LINE
   8
LEVEL001
   6
CONTINUOUS
  62
7
  10
 765.000
  20
 231.152
  30
0.0
  11
 765.000
  21
 183.064
  31
0.0
   0
ARC
   8
LEVEL001
   6
CONTINUOUS
  62
7
  10
 662.953
  20
 243.752
  30
0.0
  40
 10.0000
  50
 275.238
  51
 351.629
   0
LINE
   8
LEVEL001
   6
CONTINUOUS
  62
7
  10
 645.909
  20
 232.147
  30
0.0
  11
 663.866
  21
 233.793
  31
0.0
   0
ARC
   8
LEVEL001
   6
CONTINUOUS
  62
7
  10
 662.953
  20
 243.752
  30
0.0
  40
 8.60000
  50
 275.238
  51
 351.628
   0
ARC
   8
LEVEL001
   6
CONTINUOUS
  62
7
  10
 747.047
  20
 243.752
  30
0.0
  40
 8.60000
  50
 188.371
  51
 264.763
   0
ARC
   8
LEVEL001
   6
CONTINUOUS
  62
7
  10
 705.000
  20
 237.564
  30
0.0
  40
 33.9000
  50
 8.37164
  51
 171.628
   0
ARC
   8
LEVEL001
   6
CONTINUOUS
  62
7
  10
 747.047
  20
 243.752
  30
0.0
  40
 10.0000
  50
 188.371
  51
 264.762
   0
LINE
   8
LEVEL001
   6
CONTINUOUS
  62
7
  10
 746.134
  20
 233.793
  30
0.0
  11
 764.091
  21
 232.147
  31
0.0
   0
ARC
   8
LEVEL001
   6
CONTINUOUS
  62
7
  10
 705.000
  20
 237.564
  30
0.0
  40
 32.5000
  50
 8.37126
  51
 171.629
   0
LINE
   8
LEVEL001
   6
CONTINUOUS
  62
7
  10
 646.628
  20
 232.213
  30
0.0
  11
 646.500
  21
 233.607
  31
0.0
   0
LINE
   8
LEVEL001
   6
CONTINUOUS
  62
7
  10
 763.372
  20
 232.213
  30
0.0
  11
 763.500
  21
 233.607
  31
0.0
   0
LINE
   8
LEVEL001
   6
CONTINUOUS
  62
7
  10
 746.262
  20
 235.188
  30
0.0
  11
 763.500
  21
 233.607
  31
0.0
   0
LINE
   8
LEVEL001
   6
CONTINUOUS
  62
7
  10
 646.500
  20
 233.607
  30
0.0
  11
 663.738
  21
 235.188
  31
0.0
   0
ARC
   8
LEVEL001
   6
CONTINUOUS
  62
7
  10
 655.183
  20
 232.395
  30
0.0
  40
 5.40000
  50
 95.2376
  51
 129.185
   0
ARC
   8
LEVEL001
   6
CONTINUOUS
  62
7
  10
 653.919
  20
 233.945
  30
0.0
  40
 3.40000
  50
 129.185
  51
 179.483
   0
ARC
   8
LEVEL001
   6
CONTINUOUS
  62
7
  10
 655.183
  20
 232.395
  30
0.0
  40
 5.40000
  50
 61.2915
  51
 95.2389
   0
ARC
   8
LEVEL001
   6
CONTINUOUS
  62
7
  10
 656.143
  20
 234.149
  30
0.0
  40
 3.40000
  50
 10.9934
  51
 61.2913
   0
ARC
   8
LEVEL001
   6
CONTINUOUS
  62
7
  10
 705.000
  20
 237.564
  30
0.0
  40
 49.9367
  50
 95.9637
  51
 179.737
   0
ARC
   8
LEVEL001
   6
CONTINUOUS
  62
7
  10
 754.817
  20
 232.395
  30
0.0
  40
 5.40000
  50
 50.8154
  51
 84.7624
   0
ARC
   8
LEVEL001
   6
CONTINUOUS
  62
7
  10
 756.081
  20
 233.945
  30
0.0
  40
 3.40000
  50
 0.517102
  51
 50.8152
   0
ARC
   8
LEVEL001
   6
CONTINUOUS
  62
7
  10
 754.817
  20
 232.395
  30
0.0
  40
 5.40000
  50
 84.7611
  51
 118.708
   0
ARC
   8
LEVEL001
   6
CONTINUOUS
  62
7
  10
 753.857
  20
 234.149
  30
0.0
  40
 3.40000
  50
 118.709
  51
 169.007
   0
ARC
   8
LEVEL001
   6
CONTINUOUS
  62
7
  10
 705.000
  20
 237.564
  30
0.0
  40
 49.9367
  50
 0.237220
  51
 84.0363
   0
LINE
   8
LEVEL001
   6
DASHDOT
  62
1
  10
 654.530
  20
 239.521
  30
0.0
  11
 655.893
  21
 224.646
  31
0.0
   0
LINE
   8
LEVEL001
   6
DASHDOT
  62
1
  10
 755.470
  20
 239.521
  30
0.0
  11
 754.107
  21
 224.646
  31
0.0
   0
ARC
   8
LEVEL001
   6
CONTINUOUS
  62
7
  10
 679.500
  20
 142.940
  30
0.0
  40
 2.00000
  50
 180.000
  51
 254.918
   0
ARC
   8
LEVEL001
   6
CONTINUOUS
  62
7
  10
 730.500
  20
 142.940
  30
0.0
  40
 2.00000
  50
 285.081
  51
 0.124398E-3
   0
ARC
   8
LEVEL001
   6
CONTINUOUS
  62
7
  10
 705.000
  20
 237.564
  30
0.0
  40
 100.000
  50
 254.918
  51
 285.082
   0
LINE
   8
LEVEL001
   6
CONTINUOUS
  62
7
  10
 677.500
  20
 142.940
  30
0.0
  11
 677.500
  21
 150.508
  31
0.0
   0
LINE
   8
LEVEL001
   6
CONTINUOUS
  62
7
  10
 732.500
  20
 150.508
  30
0.0
  11
 732.500
  21
 142.940
  31
0.0
   0
ARC
   8
LEVEL001
   6
CONTINUOUS
  62
7
  10
 705.000
  20
 237.564
  30
0.0
  40
 90.0000
  50
 253.070
  51
 286.930
   0
ARC
   8
LEVEL001
   6
CONTINUOUS
  62
7
  10
 679.000
  20
 152.445
  30
0.0
  40
 1.00000
  50
 255.522
  51
 0.206812E-9
   0
ARC
   8
LEVEL001
   6
CONTINUOUS
  62
7
  10
 678.500
  20
 150.508
  30
0.0
  40
 1.00000
  50
 75.5216
  51
 180.000
   0
ARC
   8
LEVEL001
   6
CONTINUOUS
  62
7
  10
 731.000
  20
 152.445
  30
0.0
  40
 1.00000
  50
 180.000
  51
 284.476
   0
ARC
   8
LEVEL001
   6
CONTINUOUS
  62
7
  10
 731.500
  20
 150.508
  30
0.0
  40
 1.00000
  50
 0.855054E-3
  51
 104.476
   0
LINE
   8
LEVEL001
   6
CONTINUOUS
  62
7
  10
 624.500
  20
 147.000
  30
0.0
  11
 677.500
  21
 147.000
  31
0.0
   0
LINE
   8
LEVEL001
   6
CONTINUOUS
  62
7
  10
 732.500
  20
 147.000
  30
0.0
  11
 785.500
  21
 147.000
  31
0.0
   0
ARC
   8
LEVEL001
   6
CONTINUOUS
  62
7
  10
 673.328
  20
 168.064
  30
0.0
  40
 8.00000
  50
 189.040
  51
 270.000
   0
ARC
   8
LEVEL001
   6
CONTINUOUS
  62
7
  10
 658.733
  20
 177.064
  30
0.0
  40
 5.00000
  50
 9.03949
  51
 89.9999
   0
LINE
   8
LEVEL001
   6
CONTINUOUS
  62
7
  10
 663.670
  20
 177.850
  30
0.0
  11
 665.427
  21
 166.807
  31
0.0
   0
ARC
   8
LEVEL001
   6
CONTINUOUS
  62
7
  10
 675.000
  20
 155.064
  30
0.0
  40
 5.00000
  50
 0.901582E-4
  51
 90.0002
   0
LINE
   8
LEVEL001
   6
CONTINUOUS
  62
7
  10
 673.328
  20
 160.064
  30
0.0
  11
 675.000
  21
 160.064
  31
0.0
   0
LINE
   8
LEVEL001
   6
CONTINUOUS
  62
7
  10
 664.283
  20
 174.000
  30
0.0
  11
 629.000
  21
 174.000
  31
0.0
   0
LINE
   8
LEVEL001
   6
CONTINUOUS
  62
7
  10
 677.500
  20
 150.508
  30
0.0
  11
 677.500
  21
 159.000
  31
0.0
   0
LINE
   8
LEVEL001
   6
CONTINUOUS
  62
7
  10
 669.573
  20
 161.000
  30
0.0
  11
 634.150
  21
 161.000
  31
0.0
   0
LINE
   8
LEVEL001
   6
CONTINUOUS
  62
7
  10
 678.084
  20
 159.000
  30
0.0
  11
 677.500
  21
 159.000
  31
0.0
   0
ARC
   8
LEVEL001
   6
CONTINUOUS
  62
7
  10
 779.904
  20
 134.607
  30
0.0
  40
 50.0000
  50
 108.171
  51
 161.457
   0
LINE
   8
LEVEL001
   6
CONTINUOUS
  62
7
  10
 779.500
  20
 174.000
  30
0.0
  11
 749.111
  21
 174.000
  31
0.0
   0
LINE
   8
LEVEL001
   6
CONTINUOUS
  62
7
  10
 737.437
  20
 161.000
  30
0.0
  11
 775.850
  21
 161.000
  31
0.0
   0
ARC
   8
LEVEL001
   6
CONTINUOUS
  62
7
  10
 733.000
  20
 179.064
  30
0.0
  40
 3.00000
  50
 90.0000
  51
 180.000
   0
LINE
   8
LEVEL001
   6
CONTINUOUS
  62
7
  10
 733.000
  20
 182.064
  30
0.0
  11
 764.000
  21
 182.064
  31
0.0
   0
ARC
   8
LEVEL001
   6
CONTINUOUS
  62
7
  10
 677.000
  20
 179.064
  30
0.0
  40
 3.00000
  50
 0.108563E-10
  51
 90.0000
   0
LINE
   8
LEVEL001
   6
CONTINUOUS
  62
7
  10
 646.000
  20
 182.064
  30
0.0
  11
 677.000
  21
 182.064
  31
0.0
   0
CIRCLE
   8
LEVEL001
   6
CONTINUOUS
  62
7
  10
 705.000
  20
 157.564
  30
0.0
  40
 5.00000
   0
LINE
   8
LEVEL001
   6
DASHDOT
  62
1
  10
 695.000
  20
 157.564
  30
0.0
  11
 715.000
  21
 157.564
  31
0.0
   0
LINE
   8
LEVEL001
   6
DASHDOT
  62
1
  10
 640.000
  20
 207.064
  30
0.0
  11
 785.500
  21
 207.064
  31
0.0
   0
ARC
   8
LEVEL001
   6
CONTINUOUS
  62
7
  10
 642.500
  20
 222.814
  30
0.0
  40
 1.50000
  50
 90.0000
  51
 180.000
   0
LINE
   8
LEVEL001
   6
CONTINUOUS
  62
7
  10
 642.500
  20
 224.314
  30
0.0
  11
 645.000
  21
 224.314
  31
0.0
   0
ARC
   8
LEVEL001
   6
CONTINUOUS
  62
7
  10
 642.500
  20
 191.314
  30
0.0
  40
 1.50000
  50
 180.000
  51
 270.000
   0
LINE
   8
LEVEL001
   6
CONTINUOUS
  62
7
  10
 641.000
  20
 222.814
  30
0.0
  11
 641.000
  21
 191.314
  31
0.0
   0
LINE
   8
LEVEL001
   6
CONTINUOUS
  62
7
  10
 642.500
  20
 189.814
  30
0.0
  11
 645.000
  21
 189.814
  31
0.0
   0
ARC
   8
LEVEL001
   6
CONTINUOUS
  62
7
  10
 779.500
  20
 222.814
  30
0.0
  40
 1.50000
  50
0.0
  51
 89.9983
   0
LINE
   8
LEVEL001
   6
CONTINUOUS
  62
7
  10
 765.000
  20
 224.314
  30
0.0
  11
 779.500
  21
 224.314
  31
0.0
   0
ARC
   8
LEVEL001
   6
CONTINUOUS
  62
7
  10
 779.500
  20
 191.314
  30
0.0
  40
 1.50000
  50
 270.002
  51
 0.270115E-7
   0
LINE
   8
LEVEL001
   6
CONTINUOUS
  62
7
  10
 781.000
  20
 222.814
  30
0.0
  11
 781.000
  21
 191.314
  31
0.0
   0
LINE
   8
LEVEL001
   6
CONTINUOUS
  62
7
  10
 765.000
  20
 189.814
  30
0.0
  11
 779.500
  21
 189.814
  31
0.0
   0
LINE
   8
LEVEL001
   6
CONTINUOUS
  62
7
  10
 779.500
  20
 174.000
  30
0.0
  11
 779.500
  21
 189.814
  31
0.0
   0
CIRCLE
   8
LEVEL003
   6
CONTINUOUS
  62
7
  10
 705.000
  20
 237.564
  30
0.0
  40
 15.0000
   0
CIRCLE
   8
LEVEL003
   6
CONTINUOUS
  62
7
  10
 702.000
  20
 254.264
  30
0.0
  40
 1.00000
   0
ARC
   8
LEVEL003
   6
CONTINUOUS
  62
7
  10
 701.000
  20
 255.664
  30
0.0
  40
 1.00000
  50
 90.0009
  51
 180.000
   0
ARC
   8
LEVEL003
   6
CONTINUOUS
  62
7
  10
 703.500
  20
 256.164
  30
0.0
  40
 0.500000
  50
 0.875943E-3
  51
 90.0017
   0
LINE
   8
LEVEL003
   6
CONTINUOUS
  62
7
  10
 703.500
  20
 256.664
  30
0.0
  11
 701.000
  21
 256.664
  31
0.0
   0
LINE
   8
LEVEL003
   6
CONTINUOUS
  62
7
  10
 704.000
  20
 256.164
  30
0.0
  11
 704.000
  21
 252.531
  31
0.0
   0
ARC
   8
LEVEL003
   6
CONTINUOUS
  62
7
  10
 699.000
  20
 253.219
  30
0.0
  40
 1.00000
  50
 289.757
  51
 0.179348E-3
   0
LINE
   8
LEVEL003
   6
CONTINUOUS
  62
7
  10
 700.000
  20
 255.664
  30
0.0
  11
 700.000
  21
 253.219
  31
0.0
   0
ARC
   8
LEVEL003
   6
CONTINUOUS
  62
7
  10
 705.000
  20
 236.514
  30
0.0
  40
 16.7500
  50
 109.757
  51
 270.000
   0
CIRCLE
   8
LEVEL003
   6
CONTINUOUS
  62
7
  10
 708.000
  20
 254.264
  30
0.0
  40
 1.00000
   0
ARC
   8
LEVEL003
   6
CONTINUOUS
  62
7
  10
 709.000
  20
 255.664
  30
0.0
  40
 1.00000
  50
 0.162844E-11
  51
 89.9991
   0
ARC
   8
LEVEL003
   6
CONTINUOUS
  62
7
  10
 706.500
  20
 256.164
  30
0.0
  40
 0.500000
  50
 89.9983
  51
 179.999
   0
LINE
   8
LEVEL003
   6
CONTINUOUS
  62
7
  10
 706.500
  20
 256.664
  30
0.0
  11
 709.000
  21
 256.664
  31
0.0
   0
LINE
   8
LEVEL003
   6
CONTINUOUS
  62
7
  10
 706.000
  20
 256.164
  30
0.0
  11
 706.000
  21
 252.531
  31
0.0
   0
ARC
   8
LEVEL003
   6
CONTINUOUS
  62
7
  10
 711.000
  20
 253.219
  30
0.0
  40
 1.00000
  50
 180.000
  51
 250.243
   0
LINE
   8
LEVEL003
   6
CONTINUOUS
  62
7
  10
 710.000
  20
 255.664
  30
0.0
  11
 710.000
  21
 253.219
  31
0.0
   0
ARC
   8
LEVEL003
   6
CONTINUOUS
  62
7
  10
 705.000
  20
 236.514
  30
0.0
  40
 16.7500
  50
 270.000
  51
 70.2434
   0
ARC
   8
LEVEL001
   6
CONTINUOUS
  62
7
  10
 655.000
  20
 525.000
  30
0.0
  40
 2.00000
  50
 90.0009
  51
 180.000
   0
LINE
   8
LEVEL001
   6
CONTINUOUS
  62
7
  10
 655.000
  20
 527.000
  30
0.0
  11
 705.000
  21
 527.000
  31
0.0
   0
ARC
   8
LEVEL001
   6
CONTINUOUS
  62
7
  10
 755.000
  20
 525.000
  30
0.0
  40
 2.00000
  50
0.0
  51
 89.9991
   0
LINE
   8
LEVEL001
   6
CONTINUOUS
  62
7
  10
 755.000
  20
 527.000
  30
0.0
  11
 705.000
  21
 527.000
  31
0.0
   0
ARC
   8
LEVEL001
   6
CONTINUOUS
  62
7
  10
 691.000
  20
 524.000
  30
0.0
  40
 1.00000
  50
 90.0009
  51
 179.999
   0
ARC
   8
LEVEL001
   6
CONTINUOUS
  62
7
  10
 719.000
  20
 524.000
  30
0.0
  40
 1.00000
  50
 0.875964E-3
  51
 89.9991
   0
LINE
   8
LEVEL001
   6
CONTINUOUS
  62
7
  10
 691.000
  20
 525.000
  30
0.0
  11
 719.000
  21
 525.000
  31
0.0
   0
LINE
   8
LEVEL001
   6
CONTINUOUS
  62
7
  10
 705.000
  20
 517.464
  30
0.0
  11
 708.000
  21
 515.732
  31
0.0
   0
LINE
   8
LEVEL001
   6
CONTINUOUS
  62
7
  10
 708.000
  20
 515.732
  30
0.0
  11
 708.000
  21
 512.268
  31
0.0
   0
LINE
   8
LEVEL001
   6
CONTINUOUS
  62
7
  10
 708.000
  20
 512.268
  30
0.0
  11
 705.000
  21
 510.536
  31
0.0
   0
LINE
   8
LEVEL001
   6
CONTINUOUS
  62
7
  10
 705.000
  20
 510.536
  30
0.0
  11
 702.000
  21
 512.268
  31
0.0
   0
LINE
   8
LEVEL001
   6
CONTINUOUS
  62
7
  10
 702.000
  20
 512.268
  30
0.0
  11
 702.000
  21
 515.732
  31
0.0
   0
LINE
   8
LEVEL001
   6
CONTINUOUS
  62
7
  10
 702.000
  20
 515.732
  30
0.0
  11
 705.000
  21
 517.464
  31
0.0
   0
CIRCLE
   8
LEVEL001
   6
CONTINUOUS
  62
7
  10
 705.000
  20
 514.000
  30
0.0
  40
 6.50000
   0
CIRCLE
   8
LEVEL001
   6
CONTINUOUS
  62
7
  10
 705.000
  20
 514.000
  30
0.0
  40
 5.80718
   0
LINE
   8
LEVEL001
   6
DASHDOT
  62
1
  10
 714.500
  20
 514.000
  30
0.0
  11
 695.500
  21
 514.000
  31
0.0
   0
ARC
   8
LEVEL001
   6
CONTINUOUS
  62
7
  10
 664.500
  20
 542.000
  30
0.0
  40
 3.00000
  50
 90.0000
  51
 180.000
   0
LINE
   8
LEVEL001
   6
CONTINUOUS
  62
7
  10
 664.500
  20
 545.000
  30
0.0
  11
 705.000
  21
 545.000
  31
0.0
   0
LINE
   8
LEVEL001
   6
CONTINUOUS
  62
7
  10
 661.500
  20
 527.000
  30
0.0
  11
 661.500
  21
 542.000
  31
0.0
   0
LINE
   8
LEVEL001
   6
CONTINUOUS
  62
7
  10
 745.500
  20
 545.000
  30
0.0
  11
 705.000
  21
 545.000
  31
0.0
   0
ARC
   8
LEVEL001
   6
CONTINUOUS
  62
7
  10
 745.500
  20
 542.000
  30
0.0
  40
 3.00000
  50
0.0
  51
 90.0000
   0
LINE
   8
LEVEL001
   6
CONTINUOUS
  62
7
  10
 748.500
  20
 527.000
  30
0.0
  11
 748.500
  21
 542.000
  31
0.0
   0
LINE
   8
LEVEL001
   6
DASHDOT
  62
1
  10
 705.000
  20
 129.564
  30
0.0
  11
 705.000
  21
 549.564
  31
0.0
   0
ARC
   8
LEVEL001
   6
CONTINUOUS
  62
7
  10
 617.867
  20
 265.607
  30
0.0
  40
 25.0000
  50
 331.129
  51
 357.131
   0
ARC
   8
LEVEL001
   6
CONTINUOUS
  62
7
  10
 705.000
  20
 217.564
  30
0.0
  40
 74.5000
  50
 151.129
  51
 180.000
   0
LINE
   8
LEVEL001
   6
CONTINUOUS
  62
7
  10
 653.000
  20
 525.000
  30
0.0
  11
 653.000
  21
 509.000
  31
0.0
   0
ARC
   8
LEVEL001
   6
CONTINUOUS
  62
7
  10
 653.012
  20
 505.529
  30
0.0
  40
 2.00000
  50
 358.005
  51
 60.1984
   0
ARC
   8
LEVEL001
   6
CONTINUOUS
  62
7
  10
 655.000
  20
 509.000
  30
0.0
  40
 2.00000
  50
 179.999
  51
 240.198
   0
LINE
   8
LEVEL001
   6
CONTINUOUS
  62
7
  10
 757.000
  20
 525.000
  30
0.0
  11
 757.000
  21
 509.000
  31
0.0
   0
ARC
   8
LEVEL001
   6
CONTINUOUS
  62
7
  10
 756.988
  20
 505.529
  30
0.0
  40
 2.00000
  50
 119.802
  51
 181.995
   0
ARC
   8
LEVEL001
   6
CONTINUOUS
  62
7
  10
 755.000
  20
 509.000
  30
0.0
  40
 2.00000
  50
 299.802
  51
 0.828536E-3
   0
LINE
   8
LEVEL001
   6
CONTINUOUS
  62
7
  10
 655.000
  20
 507.000
  30
0.0
  11
 690.000
  21
 507.000
  31
0.0
   0
LINE
   8
LEVEL001
   6
CONTINUOUS
  62
7
  10
 720.000
  20
 507.000
  30
0.0
  11
 755.000
  21
 507.000
  31
0.0
   0
LINE
   8
LEVEL003
   6
CONTINUOUS
  62
7
  10
 755.079
  20
 505.481
  30
0.0
  11
 767.164
  21
 264.356
  31
0.0
   0
ARC
   8
LEVEL001
   6
CONTINUOUS
  62
7
  10
 792.133
  20
 265.607
  30
0.0
  40
 25.0000
  50
 182.869
  51
 208.871
   0
ARC
   8
LEVEL001
   6
CONTINUOUS
  62
7
  10
 705.000
  20
 217.564
  30
0.0
  40
 74.5000
  50
 5.19838
  51
 28.8712
   0
LINE
   8
LEVEL001
   6
CONTINUOUS
  62
7
  10
 705.000
  20
 495.464
  30
0.0
  11
 708.000
  21
 493.732
  31
0.0
   0
LINE
   8
LEVEL001
   6
CONTINUOUS
  62
7
  10
 708.000
  20
 493.732
  30
0.0
  11
 708.000
  21
 490.268
  31
0.0
   0
LINE
   8
LEVEL001
   6
CONTINUOUS
  62
7
  10
 708.000
  20
 490.268
  30
0.0
  11
 705.000
  21
 488.536
  31
0.0
   0
LINE
   8
LEVEL001
   6
CONTINUOUS
  62
7
  10
 705.000
  20
 488.536
  30
0.0
  11
 702.000
  21
 490.268
  31
0.0
   0
LINE
   8
LEVEL001
   6
CONTINUOUS
  62
7
  10
 702.000
  20
 490.268
  30
0.0
  11
 702.000
  21
 493.732
  31
0.0
   0
LINE
   8
LEVEL001
   6
CONTINUOUS
  62
7
  10
 702.000
  20
 493.732
  30
0.0
  11
 705.000
  21
 495.464
  31
0.0
   0
CIRCLE
   8
LEVEL001
   6
CONTINUOUS
  62
7
  10
 705.000
  20
 492.000
  30
0.0
  40
 6.50000
   0
CIRCLE
   8
LEVEL001
   6
CONTINUOUS
  62
7
  10
 705.000
  20
 492.000
  30
0.0
  40
 5.80718
   0
LINE
   8
LEVEL001
   6
DASHDOT
  62
1
  10
 714.500
  20
 492.000
  30
0.0
  11
 695.500
  21
 492.000
  31
0.0
   0
ARC
   8
LEVEL001
   6
CONTINUOUS
  62
7
  10
 710.500
  20
 474.000
  30
0.0
  40
 3.00000
  50
 90.0000
  51
 180.000
   0
ARC
   8
LEVEL001
   6
CONTINUOUS
  62
7
  10
 699.500
  20
 474.000
  30
0.0
  40
 3.00000
  50
 0.553671E-10
  51
 90.0000
   0
ARC
   8
LEVEL001
   6
CONTINUOUS
  62
7
  10
 719.000
  20
 478.000
  30
0.0
  40
 1.00000
  50
 270.001
  51
 0.807708E-9
   0
ARC
   8
LEVEL001
   6
CONTINUOUS
  62
7
  10
 691.000
  20
 478.000
  30
0.0
  40
 1.00000
  50
 180.001
  51
 269.999
   0
LINE
   8
LEVEL001
   6
CONTINUOUS
  62
7
  10
 691.000
  20
 477.000
  30
0.0
  11
 719.000
  21
 477.000
  31
0.0
   0
LINE
   8
LEVEL001
   6
CONTINUOUS
  62
7
  10
 690.000
  20
 524.000
  30
0.0
  11
 690.000
  21
 478.000
  31
0.0
   0
LINE
   8
LEVEL001
   6
CONTINUOUS
  62
7
  10
 720.000
  20
 524.000
  30
0.0
  11
 720.000
  21
 478.000
  31
0.0
   0
LINE
   8
LEVEL001
   6
CONTINUOUS
  62
7
  10
 707.500
  20
 474.000
  30
0.0
  11
 707.500
  21
 271.464
  31
0.0
   0
LINE
   8
LEVEL001
   6
CONTINUOUS
  62
7
  10
 702.500
  20
 271.372
  30
0.0
  11
 702.500
  21
 474.000
  31
0.0
   0
LINE
   8
LEVEL003
   6
CONTINUOUS
  62
7
  10
 757.000
  20
 509.000
  30
0.0
  11
 772.234
  21
 249.656
  31
0.0
   0
ARC
   8
LEVEL003
   6
CONTINUOUS
  62
7
  10
 738.993
  20
 259.838
  30
0.0
  40
 155.000
  50
 152.001
  51
 190.036
   0
ARC
   8
LEVEL003
   6
CONTINUOUS
  62
7
  10
 738.993
  20
 259.838
  30
0.0
  40
 145.000
  50
 152.001
  51
 190.036
   0
ARC
   8
LEVEL003
   6
CONTINUOUS
  62
7
  10
 738.993
  20
 259.838
  30
0.0
  40
 140.000
  50
 151.803
  51
 190.222
   0
ARC
   8
LEVEL003
   6
CONTINUOUS
  62
7
  10
 738.904
  20
 259.873
  30
0.0
  40
 138.000
  50
 151.798
  51
 190.243
   0
ARC
   8
LEVEL003
   6
CONTINUOUS
  62
7
  10
 630.506
  20
 318.000
  30
0.0
  40
 15.0000
  50
 357.131
  51
 151.799
   0
ARC
   8
LEVEL003
   6
CONTINUOUS
  62
7
  10
 629.507
  20
 318.050
  30
0.0
  40
 16.0000
  50
 357.131
  51
 150.267
   0
ARC
   8
LEVEL003
   6
CONTINUOUS
  62
7
  10
 616.891
  20
 238.228
  30
0.0
  40
 16.0000
  50
 191.665
  51
 346.801
   0
ARC
   8
LEVEL003
   6
CONTINUOUS
  62
7
  10
 617.864
  20
 238.000
  30
0.0
  40
 15.0000
  50
 190.243
  51
 346.801
   0
ARC
   8
LEVEL003
   6
CONTINUOUS
  62
7
  10
 638.818
  20
 352.825
  30
0.0
  40
 5.00000
  50
 255.011
  51
 356.638
   0
LINE
   8
LEVEL003
   6
CONTINUOUS
  62
7
  10
 653.000
  20
 509.000
  30
0.0
  11
 643.809
  21
 352.532
  31
0.0
   0
ARC
   8
LEVEL003
   6
CONTINUOUS
  62
7
  10
 629.507
  20
 318.050
  30
0.0
  40
 31.0000
  50
 75.0108
  51
 152.001
   0
ARC
   8
LEVEL003
   6
CONTINUOUS
  62
7
  10
 641.672
  20
 341.028
  30
0.0
  40
 5.00000
  50
 242.101
  51
 357.131
   0
ARC
   8
LEVEL003
   6
CONTINUOUS
  62
7
  10
 629.507
  20
 318.050
  30
0.0
  40
 21.0000
  50
 62.1020
  51
 152.001
   0
LINE
   8
LEVEL003
   6
CONTINUOUS
  62
7
  10
 654.921
  20
 505.481
  30
0.0
  11
 642.836
  21
 264.356
  31
0.0
   0
ARC
   8
LEVEL003
   6
CONTINUOUS
  62
7
  10
 620.500
  20
 197.387
  30
0.0
  40
 10.0000
  50
 0.890059E-4
  51
 95.0501
   0
ARC
   8
LEVEL003
   6
CONTINUOUS
  62
7
  10
 616.891
  20
 238.228
  30
0.0
  40
 31.0000
  50
 190.036
  51
 275.050
   0
ARC
   8
LEVEL003
   6
CONTINUOUS
  62
7
  10
 625.500
  20
 213.695
  30
0.0
  40
 5.00000
  50
 0.146560E-10
  51
 109.337
   0
ARC
   8
LEVEL003
   6
CONTINUOUS
  62
7
  10
 616.891
  20
 238.228
  30
0.0
  40
 21.0000
  50
 190.036
  51
 289.337
   0
LINE
   8
LEVEL001
   6
CONTINUOUS
  62
7
  10
 630.500
  20
 174.000
  30
0.0
  11
 630.500
  21
 217.564
  31
0.0
   0
LINE
   8
LEVEL001
   6
DASHDOT
  62
1
  10
 690.500
  20
 539.782
  30
0.0
  11
 690.500
  21
 549.564
  31
0.0
   0
LINE
   8
LEVEL001
   6
DASHDOT
  62
1
  10
 676.000
  20
 539.782
  30
0.0
  11
 676.000
  21
 549.564
  31
0.0
   0
LINE
   8
LEVEL001
   6
DASHDOT
  62
1
  10
 719.500
  20
 539.782
  30
0.0
  11
 719.500
  21
 549.564
  31
0.0
   0
LINE
   8
LEVEL001
   6
DASHDOT
  62
1
  10
 734.000
  20
 539.782
  30
0.0
  11
 734.000
  21
 549.564
  31
0.0
   0
LINE
   8
LEVEL001
   6
DASHDOT
  62
1
  10
 687.500
  20
 139.564
  30
0.0
  11
 687.500
  21
 132.282
  31
0.0
   0
LINE
   8
LEVEL001
   6
DASHDOT
  62
1
  10
 667.500
  20
 139.564
  30
0.0
  11
 667.500
  21
 132.282
  31
0.0
   0
LINE
   8
LEVEL001
   6
DASHDOT
  62
1
  10
 650.000
  20
 139.564
  30
0.0
  11
 650.000
  21
 132.282
  31
0.0
   0
LINE
   8
LEVEL001
   6
DASHDOT
  62
1
  10
 722.500
  20
 139.564
  30
0.0
  11
 722.500
  21
 132.282
  31
0.0
   0
LINE
   8
LEVEL001
   6
DASHDOT
  62
1
  10
 742.500
  20
 139.564
  30
0.0
  11
 742.500
  21
 132.282
  31
0.0
   0
LINE
   8
LEVEL001
   6
DASHDOT
  62
1
  10
 760.000
  20
 139.564
  30
0.0
  11
 760.000
  21
 132.282
  31
0.0
   0
ARC
   8
LEVEL001
   6
CONTINUOUS
  62
7
  10
 677.000
  20
 199.530
  30
0.0
  40
 3.00000
  50
0.0
  51
 90.0000
   0
ARC
   8
LEVEL001
   6
CONTINUOUS
  62
7
  10
 733.000
  20
 199.530
  30
0.0
  40
 3.00000
  50
 90.0000
  51
 180.000
   0
LINE
   8
LEVEL003
   6
CONTINUOUS
  62
7
  10
 674.693
  20
 207.064
  30
0.0
  11
 672.693
  21
 209.064
  31
0.0
   0
LINE
   8
LEVEL003
   6
CONTINUOUS
  62
7
  10
 672.693
  20
 209.064
  30
0.0
  11
 672.693
  21
 208.064
  31
0.0
   0
LINE
   8
LEVEL003
   6
CONTINUOUS
  62
7
  10
 672.693
  20
 208.064
  30
0.0
  11
 665.693
  21
 208.064
  31
0.0
   0
LINE
   8
LEVEL003
   6
CONTINUOUS
  62
7
  10
 665.693
  20
 208.064
  30
0.0
  11
 665.693
  21
 206.064
  31
0.0
   0
LINE
   8
LEVEL003
   6
CONTINUOUS
  62
7
  10
 665.693
  20
 206.064
  30
0.0
  11
 672.693
  21
 206.064
  31
0.0
   0
LINE
   8
LEVEL003
   6
CONTINUOUS
  62
7
  10
 672.693
  20
 206.064
  30
0.0
  11
 672.693
  21
 205.064
  31
0.0
   0
LINE
   8
LEVEL003
   6
CONTINUOUS
  62
7
  10
 672.693
  20
 205.064
  30
0.0
  11
 674.693
  21
 207.064
  31
0.0
   0
LINE
   8
LEVEL003
   6
CONTINUOUS
  62
7
  10
 723.420
  20
 207.064
  30
0.0
  11
 725.420
  21
 209.064
  31
0.0
   0
LINE
   8
LEVEL003
   6
CONTINUOUS
  62
7
  10
 725.420
  20
 209.064
  30
0.0
  11
 725.420
  21
 208.064
  31
0.0
   0
LINE
   8
LEVEL003
   6
CONTINUOUS
  62
7
  10
 725.420
  20
 208.064
  30
0.0
  11
 732.420
  21
 208.064
  31
0.0
   0
LINE
   8
LEVEL003
   6
CONTINUOUS
  62
7
  10
 732.420
  20
 208.064
  30
0.0
  11
 732.420
  21
 206.064
  31
0.0
   0
LINE
   8
LEVEL003
   6
CONTINUOUS
  62
7
  10
 732.420
  20
 206.064
  30
0.0
  11
 725.420
  21
 206.064
  31
0.0
   0
LINE
   8
LEVEL003
   6
CONTINUOUS
  62
7
  10
 725.420
  20
 206.064
  30
0.0
  11
 725.420
  21
 205.064
  31
0.0
   0
LINE
   8
LEVEL003
   6
CONTINUOUS
  62
7
  10
 725.420
  20
 205.064
  30
0.0
  11
 723.420
  21
 207.064
  31
0.0
   0
ARC
   8
LEVEL003
   6
CONTINUOUS
  62
7
  10
 689.000
  20
 196.764
  30
0.0
  40
 2.00000
  50
 0.162844E-11
  51
 90.0000
   0
ARC
   8
LEVEL003
   6
CONTINUOUS
  62
7
  10
 721.000
  20
 196.764
  30
0.0
  40
 2.00000
  50
 90.0000
  51
 180.000
   0
ARC
   8
LEVEL003
   6
CONTINUOUS
  62
7
  10
 694.000
  20
 186.564
  30
0.0
  40
 3.00000
  50
 180.000
  51
 270.000
   0
LINE
   8
LEVEL003
   6
CONTINUOUS
  62
7
  10
 694.000
  20
 183.564
  30
0.0
  11
 716.000
  21
 183.564
  31
0.0
   0
ARC
   8
LEVEL003
   6
CONTINUOUS
  62
7
  10
 716.000
  20
 186.564
  30
0.0
  40
 3.00000
  50
 270.000
  51
 0.325689E-11
   0
LINE
   8
LEVEL003
   6
CONTINUOUS
  62
7
  10
 719.000
  20
 186.564
  30
0.0
  11
 719.000
  21
 196.764
  31
0.0
   0
LINE
   8
LEVEL003
   6
CONTINUOUS
  62
7
  10
 691.000
  20
 186.564
  30
0.0
  11
 691.000
  21
 196.764
  31
0.0
   0
CIRCLE
   8
0
   6
CONTINUOUS
  62
7
  10
 707.523
  20
 189.604
  30
0.0
  40
 3.33333
   0
LINE
   8
0
   6
CONTINUOUS
  62
7
  10
 700.980
  20
 186.271
  30
0.0
  11
 705.214
  21
 193.604
  31
0.0
   0
LINE
   8
0
   6
CONTINUOUS
  62
7
  10
 705.214
  20
 193.604
  30
0.0
  11
 713.682
  21
 193.604
  31
0.0
   0
LINE
   8
0
   6
CONTINUOUS
  62
7
  10
 713.682
  20
 193.604
  30
0.0
  11
 714.644
  21
 195.271
  31
0.0
   0
LINE
   8
0
   6
CONTINUOUS
  62
7
  10
 714.644
  20
 195.271
  30
0.0
  11
 699.510
  21
 195.271
  31
0.0
   0
LINE
   8
0
   6
CONTINUOUS
  62
7
  10
 699.510
  20
 195.271
  30
0.0
  11
 694.313
  21
 186.271
  31
0.0
   0
LINE
   8
0
   6
CONTINUOUS
  62
7
  10
 694.313
  20
 186.271
  30
0.0
  11
 700.980
  21
 186.271
  31
0.0
   0
TEXT
   8
LEVEL003
  62
7
  10
 662.036
  20
 211.266
  30
0.0
  40
 8.10000
   1
ＵＰ
  50
 180.000
  41
 0.851852
   7
STANDARD
   0
TEXT
   8
LEVEL003
  62
7
  10
 763.788
  20
 211.266
  30
0.0
  40
 8.10000
   1
ＤＯＷＮ
  50
 180.000
  41
 0.851852
   7
STANDARD
   0
LINE
   8
LEVEL001
   6
CONTINUOUS
  62
7
  10
 730.000
  20
 199.530
  30
0.0
  11
 730.000
  21
 152.445
  31
0.0
   0
LINE
   8
LEVEL001
   6
CONTINUOUS
  62
7
  10
 680.000
  20
 199.530
  30
0.0
  11
 680.000
  21
 152.445
  31
0.0
   0
ARC
   8
LEVEL003
   6
CONTINUOUS
  62
7
  10
 755.788
  20
 420.000
  30
0.0
  40
 2.00000
  50
 2.02963
  51
 90.0000
   0
LINE
   8
LEVEL003
   6
CONTINUOUS
  62
7
  10
 757.787
  20
 420.071
  30
0.0
  11
 760.303
  21
 349.071
  31
0.0
   0
ARC
   8
LEVEL003
   6
CONTINUOUS
  62
7
  10
 758.304
  20
 349.000
  30
0.0
  40
 2.00000
  50
 270.000
  51
 2.02963
   0
ARC
   8
LEVEL003
   6
CONTINUOUS
  62
7
  10
 730.627
  20
 349.000
  30
0.0
  40
 2.00000
  50
 182.030
  51
 270.000
   0
LINE
   8
LEVEL003
   6
CONTINUOUS
  62
7
  10
 728.628
  20
 348.929
  30
0.0
  11
 726.112
  21
 419.929
  31
0.0
   0
ARC
   8
LEVEL003
   6
CONTINUOUS
  62
7
  10
 728.111
  20
 420.000
  30
0.0
  40
 2.00000
  50
 90.0000
  51
 182.030
   0
ARC
   8
LEVEL003
   6
CONTINUOUS
  62
7
  10
 727.396
  20
 425.000
  30
0.0
  40
 3.00000
  50
 182.159
  51
 270.000
   0
LINE
   8
LEVEL003
   6
CONTINUOUS
  62
7
  10
 727.396
  20
 422.000
  30
0.0
  11
 755.788
  21
 422.000
  31
0.0
   0
ARC
   8
LEVEL003
   6
CONTINUOUS
  62
7
  10
 730.450
  20
 344.000
  30
0.0
  40
 3.00000
  50
 90.0000
  51
 182.159
   0
LINE
   8
LEVEL003
   6
CONTINUOUS
  62
7
  10
 730.450
  20
 347.000
  30
0.0
  11
 758.304
  21
 347.000
  31
0.0
   0
LINE
   8
LEVEL003
   6
CONTINUOUS
  62
7
  10
 724.588
  20
 419.872
  30
0.0
  11
 727.264
  21
 348.878
  31
0.0
   0
ARC
   8
LEVEL003
   6
CONTINUOUS
  62
7
  10
 755.788
  20
 425.000
  30
0.0
  40
 3.00000
  50
 182.159
  51
 270.000
   0
ARC
   8
LEVEL003
   6
CONTINUOUS
  62
7
  10
 758.304
  20
 344.000
  30
0.0
  40
 3.00000
  50
 90.0000
  51
 182.159
   0
LINE
   8
LEVEL001
   6
CONTINUOUS
  62
7
  10
 220.000
  20
 527.000
  30
0.0
  11
 320.000
  21
 527.000
  31
0.0
   0
LINE
   8
LEVEL001
   6
CONTINUOUS
  62
7
  10
 387.500
  20
 263.064
  30
0.0
  11
 387.500
  21
 212.064
  31
0.0
   0
LINE
   8
LEVEL001
   6
CONTINUOUS
  62
7
  10
 199.150
  20
 161.000
  30
0.0
  11
 199.150
  21
 147.000
  31
0.0
   0
LINE
   8
LEVEL001
   6
CONTINUOUS
  62
7
  10
 340.850
  20
 161.000
  30
0.0
  11
 340.850
  21
 147.000
  31
0.0
   0
LINE
   8
LEVEL001
   6
CONTINUOUS
  62
7
  10
 189.500
  20
 147.000
  30
0.0
  11
 350.500
  21
 147.000
  31
0.0
   0
LINE
   8
LEVEL001
   6
CONTINUOUS
  62
7
  10
 340.850
  20
 159.000
  30
0.0
  11
 350.500
  21
 159.000
  31
0.0
   0
LINE
   8
LEVEL001
   6
CONTINUOUS
  62
7
  10
 242.500
  20
 161.000
  30
0.0
  11
 199.150
  21
 161.000
  31
0.0
   0
LINE
   8
LEVEL001
   6
CONTINUOUS
  62
7
  10
 242.500
  20
 147.000
  30
0.0
  11
 242.500
  21
 161.000
  31
0.0
   0
LINE
   8
LEVEL001
   6
CONTINUOUS
  62
7
  10
 297.500
  20
 147.000
  30
0.0
  11
 297.500
  21
 161.000
  31
0.0
   0
LINE
   8
LEVEL001
   6
CONTINUOUS
  62
7
  10
 297.500
  20
 161.000
  30
0.0
  11
 340.850
  21
 161.000
  31
0.0
   0
LINE
   8
LEVEL001
   6
CONTINUOUS
  62
7
  10
 297.500
  20
 159.000
  30
0.0
  11
 242.500
  21
 159.000
  31
0.0
   0
LINE
   8
LEVEL001
   6
CONTINUOUS
  62
7
  10
 199.150
  20
 159.000
  30
0.0
  11
 189.500
  21
 159.000
  31
0.0
   0
LINE
   8
LEVEL001
   6
CONTINUOUS
  62
7
  10
 270.000
  20
 174.000
  30
0.0
  11
 194.000
  21
 174.000
  31
0.0
   0
LINE
   8
LEVEL001
   6
CONTINUOUS
  62
7
  10
 270.000
  20
 174.000
  30
0.0
  11
 346.000
  21
 174.000
  31
0.0
   0
LINE
   8
LEVEL003
   6
CONTINUOUS
  62
7
  10
 385.503
  20
 265.180
  30
0.0
  11
 385.503
  21
 209.948
  31
0.0
   0
ARC
   8
LEVEL001
   6
CONTINUOUS
  62
7
  10
 437.374
  20
 139.564
  30
0.0
  40
 2.00000
  50
 270.000
  51
0.0
   0
ARC
   8
LEVEL001
   6
CONTINUOUS
  62
7
  10
 438.374
  20
 146.564
  30
0.0
  40
 1.00000
  50
 359.998
  51
 89.9991
   0
ARC
   8
LEVEL001
   6
CONTINUOUS
  62
7
  10
 437.874
  20
 148.564
  30
0.0
  40
 1.00000
  50
 180.001
  51
 269.999
   0
LINE
   8
LEVEL001
   6
CONTINUOUS
  62
7
  10
 437.874
  20
 147.564
  30
0.0
  11
 438.374
  21
 147.564
  31
0.0
   0
LINE
   8
LEVEL001
   6
DASHDOT
  62
1
  10
 425.000
  20
 157.564
  30
0.0
  11
 470.000
  21
 157.564
  31
0.0
   0
ARC
   8
LEVEL001
   6
CONTINUOUS
  62
7
  10
 426.874
  20
 203.941
  30
0.0
  40
 10.0000
  50
 0.182386E-10
  51
 18.1960
   0
LINE
   8
LEVEL001
   6
CONTINUOUS
  62
7
  10
 387.374
  20
 212.064
  30
0.0
  11
 387.374
  21
 207.064
  31
0.0
   0
ARC
   8
LEVEL001
   6
CONTINUOUS
  62
7
  10
 386.374
  20
 139.564
  30
0.0
  40
 2.00000
  50
 180.001
  51
 270.000
   0
ARC
   8
LEVEL001
   6
CONTINUOUS
  62
7
  10
 385.874
  20
 148.564
  30
0.0
  40
 1.00000
  50
 270.001
  51
 0.521102E-10
   0
LINE
   8
LEVEL001
   6
CONTINUOUS
  62
7
  10
 385.874
  20
 147.564
  30
0.0
  11
 385.374
  21
 147.564
  31
0.0
   0
ARC
   8
LEVEL001
   6
CONTINUOUS
  62
7
  10
 396.874
  20
 203.941
  30
0.0
  40
 10.0000
  50
 161.804
  51
 180.000
   0
LINE
   8
LEVEL001
   6
CONTINUOUS
  62
7
  10
 386.874
  20
 203.941
  30
0.0
  11
 386.874
  21
 148.564
  31
0.0
   0
ARC
   8
LEVEL001
   6
CONTINUOUS
  62
7
  10
 385.374
  20
 146.564
  30
0.0
  40
 1.00000
  50
 90.0009
  51
 180.002
   0
LINE
   8
LEVEL001
   6
DASHDOT
  62
1
  10
 381.874
  20
 207.064
  30
0.0
  11
 441.874
  21
 207.064
  31
0.0
   0
LINE
   8
LEVEL001
   6
CONTINUOUS
  62
7
  10
 448.009
  20
 161.743
  30
0.0
  11
 464.095
  21
 160.556
  31
0.0
   0
ARC
   8
LEVEL001
   6
CONTINUOUS
  62
7
  10
 448.376
  20
 166.729
  30
0.0
  40
 5.00000
  50
 240.154
  51
 265.781
   0
LINE
   8
LEVEL001
   6
CONTINUOUS
  62
7
  10
 445.888
  20
 162.392
  30
0.0
  11
 439.386
  21
 166.123
  31
0.0
   0
ARC
   8
LEVEL001
   6
CONTINUOUS
  62
7
  10
 441.874
  20
 170.460
  30
0.0
  40
 5.00000
  50
 180.000
  51
 240.154
   0
ARC
   8
LEVEL001
   6
DOT
  62
3
  10
 425.874
  20
 183.314
  30
0.0
  40
 2.50000
  50
0.0
  51
 89.9996
   0
LINE
   8
LEVEL001
   6
DOT
  62
3
  10
 425.874
  20
 185.814
  30
0.0
  11
 411.874
  21
 185.814
  31
0.0
   0
ARC
   8
LEVEL001
   6
DOT
  62
3
  10
 430.874
  20
 140.064
  30
0.0
  40
 2.50000
  50
 179.999
  51
 270.000
   0
LINE
   8
LEVEL001
   6
DOT
  62
3
  10
 428.374
  20
 140.064
  30
0.0
  11
 428.374
  21
 183.314
  31
0.0
   0
ARC
   8
LEVEL001
   6
DOT
  62
3
  10
 397.874
  20
 183.314
  30
0.0
  40
 2.50000
  50
 90.0004
  51
 180.001
   0
LINE
   8
LEVEL001
   6
DOT
  62
3
  10
 397.874
  20
 185.814
  30
0.0
  11
 411.874
  21
 185.814
  31
0.0
   0
ARC
   8
LEVEL001
   6
DOT
  62
3
  10
 392.874
  20
 140.064
  30
0.0
  40
 2.50000
  50
 270.000
  51
 0.696680E-3
   0
LINE
   8
LEVEL001
   6
DOT
  62
3
  10
 395.374
  20
 140.064
  30
0.0
  11
 395.374
  21
 183.314
  31
0.0
   0
ARC
   8
LEVEL001
   6
CONTINUOUS
  62
7
  10
 448.376
  20
 148.399
  30
0.0
  40
 5.00000
  50
 94.2191
  51
 119.846
   0
LINE
   8
LEVEL001
   6
CONTINUOUS
  62
7
  10
 445.888
  20
 152.736
  30
0.0
  11
 441.886
  21
 150.440
  31
0.0
   0
ARC
   8
LEVEL001
   6
CONTINUOUS
  62
7
  10
 444.374
  20
 146.103
  30
0.0
  40
 5.00000
  50
 119.846
  51
 180.000
   0
LINE
   8
LEVEL001
   6
CONTINUOUS
  62
7
  10
 439.374
  20
 146.103
  30
0.0
  11
 439.374
  21
 139.564
  31
0.0
   0
LINE
   8
LEVEL001
   6
CONTINUOUS
  62
7
  10
 446.874
  20
 160.950
  30
0.0
  11
 446.874
  21
 154.269
  31
0.0
   0
LINE
   8
LEVEL001
   6
CONTINUOUS
  62
7
  10
 448.009
  20
 153.385
  30
0.0
  11
 464.095
  21
 154.572
  31
0.0
   0
LINE
   8
LEVEL001
   6
CONTINUOUS
  62
7
  10
 436.874
  20
 203.941
  30
0.0
  11
 436.874
  21
 148.564
  31
0.0
   0
CIRCLE
   8
LEVEL001
   6
CONTINUOUS
  62
7
  10
 411.874
  20
 207.064
  30
0.0
  40
 17.2500
   0
LINE
   8
LEVEL001
   6
CONTINUOUS
  62
7
  10
 436.374
  20
 270.064
  30
0.0
  11
 436.374
  21
 207.064
  31
0.0
   0
ARC
   8
LEVEL001
   6
CONTINUOUS
  62
7
  10
 411.874
  20
 86.8860
  30
0.0
  40
 54.1227
  50
 69.4482
  51
 110.552
   0
LINE
   8
LEVEL001
   6
CONTINUOUS
  62
7
  10
 430.874
  20
 137.564
  30
0.0
  11
 437.374
  21
 137.564
  31
0.0
   0
LINE
   8
LEVEL001
   6
CONTINUOUS
  62
7
  10
 392.874
  20
 137.564
  30
0.0
  11
 386.374
  21
 137.564
  31
0.0
   0
ARC
   8
LEVEL001
   6
CONTINUOUS
  62
7
  10
 411.874
  20
 88.4570
  30
0.0
  40
 54.1227
  50
 65.1388
  51
 114.861
   0
ARC
   8
LEVEL001
   6
CONTINUOUS
  62
7
  10
 417.374
  20
 154.311
  30
0.0
  40
 3.00000
  50
 180.000
  51
 266.548
   0
ARC
   8
LEVEL001
   6
CONTINUOUS
  62
7
  10
 406.374
  20
 154.311
  30
0.0
  40
 3.00000
  50
 273.452
  51
 0.483105E-10
   0
ARC
   8
LEVEL001
   6
CONTINUOUS
  62
7
  10
 411.874
  20
 63.1234
  30
0.0
  40
 88.3529
  50
 72.8860
  51
 107.114
   0
LINE
   8
LEVEL001
   6
CONTINUOUS
  62
7
  10
 409.374
  20
 180.120
  30
0.0
  11
 409.374
  21
 154.311
  31
0.0
   0
ARC
   8
LEVEL001
   6
CONTINUOUS
  62
7
  10
 406.374
  20
 180.120
  30
0.0
  40
 3.00000
  50
0.0
  51
 78.4630
   0
LINE
   8
LEVEL001
   6
CONTINUOUS
  62
7
  10
 414.374
  20
 180.120
  30
0.0
  11
 414.374
  21
 154.311
  31
0.0
   0
ARC
   8
LEVEL001
   6
CONTINUOUS
  62
7
  10
 417.374
  20
 180.120
  30
0.0
  40
 3.00000
  50
 101.537
  51
 180.000
   0
ARC
   8
LEVEL001
   6
CONTINUOUS
  62
7
  10
 411.874
  20
 207.064
  30
0.0
  40
 24.5000
  50
 180.000
  51
0.0
   0
ARC
   8
LEVEL001
   6
CONTINUOUS
  62
7
  10
 463.874
  20
 157.564
  30
0.0
  40
 3.00000
  50
 274.224
  51
 85.7766
   0
LINE
   8
LEVEL001
   6
DASHDOT
  62
1
  10
 411.874
  20
 243.460
  30
0.0
  11
 411.874
  21
 134.564
  31
0.0
   0
ARC
   8
LEVEL001
   6
CONTINUOUS
  62
7
  10
 443.000
  20
 223.564
  30
0.0
  40
 1.00000
  50
 270.000
  51
 0.563442E-9
   0
LINE
   8
LEVEL001
   6
CONTINUOUS
  62
7
  10
 444.000
  20
 223.564
  30
0.0
  11
 444.000
  21
 237.564
  31
0.0
   0
LINE
   8
LEVEL001
   6
CONTINUOUS
  62
7
  10
 441.650
  20
 222.564
  30
0.0
  11
 443.000
  21
 222.564
  31
0.0
   0
ARC
   8
LEVEL001
   6
CONTINUOUS
  62
7
  10
 443.000
  20
 251.564
  30
0.0
  40
 1.00000
  50
0.0
  51
 90.0000
   0
LINE
   8
LEVEL001
   6
CONTINUOUS
  62
7
  10
 444.000
  20
 251.564
  30
0.0
  11
 444.000
  21
 237.564
  31
0.0
   0
LINE
   8
LEVEL001
   6
CONTINUOUS
  62
7
  10
 441.650
  20
 252.564
  30
0.0
  11
 443.000
  21
 252.564
  31
0.0
   0
LINE
   8
LEVEL001
   6
CONTINUOUS
  62
7
  10
 440.000
  20
 237.564
  30
0.0
  11
 440.000
  21
 215.064
  31
0.0
   0
LINE
   8
LEVEL001
   6
CONTINUOUS
  62
7
  10
 440.000
  20
 260.064
  30
0.0
  11
 438.000
  21
 260.064
  31
0.0
   0
LINE
   8
LEVEL001
   6
CONTINUOUS
  62
7
  10
 440.000
  20
 215.064
  30
0.0
  11
 438.000
  21
 215.064
  31
0.0
   0
LINE
   8
LEVEL001
   6
CONTINUOUS
  62
7
  10
 440.000
  20
 215.064
  30
0.0
  11
 440.000
  21
 260.064
  31
0.0
   0
LINE
   8
LEVEL001
   6
CONTINUOUS
  62
7
  10
 441.650
  20
 237.564
  30
0.0
  11
 441.650
  21
 256.664
  31
0.0
   0
LINE
   8
LEVEL001
   6
CONTINUOUS
  62
7
  10
 441.650
  20
 237.564
  30
0.0
  11
 441.650
  21
 219.764
  31
0.0
   0
LINE
   8
LEVEL003
   6
CONTINUOUS
  62
7
  10
 440.000
  20
 256.664
  30
0.0
  11
 441.650
  21
 256.664
  31
0.0
   0
LINE
   8
LEVEL003
   6
CONTINUOUS
  62
7
  10
 440.000
  20
 219.764
  30
0.0
  11
 441.650
  21
 219.764
  31
0.0
   0
ARC
   8
LEVEL001
   6
CONTINUOUS
  62
7
  10
 437.374
  20
 213.064
  30
0.0
  40
 1.00000
  50
 90.0009
  51
 180.002
   0
ARC
   8
LEVEL001
   6
CONTINUOUS
  62
7
  10
 437.374
  20
 262.064
  30
0.0
  40
 1.00000
  50
 180.001
  51
 269.999
   0
LINE
   8
LEVEL001
   6
CONTINUOUS
  62
7
  10
 388.124
  20
 271.464
  30
0.0
  11
 435.624
  21
 271.464
  31
0.0
   0
LINE
   8
LEVEL001
   6
CONTINUOUS
  62
7
  10
 437.374
  20
 261.064
  30
0.0
  11
 437.374
  21
 237.564
  31
0.0
   0
LINE
   8
LEVEL001
   6
CONTINUOUS
  62
7
  10
 437.374
  20
 214.064
  30
0.0
  11
 437.374
  21
 237.564
  31
0.0
   0
LINE
   8
LEVEL001
   6
CONTINUOUS
  62
7
  10
 387.374
  20
 270.064
  30
0.0
  11
 388.124
  21
 270.064
  31
0.0
   0
LINE
   8
LEVEL001
   6
CONTINUOUS
  62
7
  10
 435.624
  20
 270.064
  30
0.0
  11
 436.374
  21
 270.064
  31
0.0
   0
LINE
   8
LEVEL001
   6
CONTINUOUS
  62
7
  10
 435.624
  20
 233.607
  30
0.0
  11
 388.124
  21
 233.607
  31
0.0
   0
LINE
   8
LEVEL001
   6
CONTINUOUS
  62
7
  10
 435.624
  20
 232.213
  30
0.0
  11
 388.124
  21
 232.213
  31
0.0
   0
LINE
   8
LEVEL001
   6
CONTINUOUS
  62
7
  10
 388.124
  20
 271.464
  30
0.0
  11
 388.124
  21
 232.213
  31
0.0
   0
LINE
   8
LEVEL001
   6
CONTINUOUS
  62
7
  10
 435.624
  20
 271.464
  30
0.0
  11
 435.624
  21
 232.213
  31
0.0
   0
ARC
   8
LEVEL001
   6
CONTINUOUS
  62
7
  10
 411.874
  20
 232.387
  30
0.0
  40
 5.40000
  50
 90.0016
  51
 123.949
   0
ARC
   8
LEVEL001
   6
CONTINUOUS
  62
7
  10
 410.757
  20
 234.046
  30
0.0
  40
 3.40000
  50
 123.949
  51
 174.247
   0
ARC
   8
LEVEL001
   6
CONTINUOUS
  62
7
  10
 411.875
  20
 232.387
  30
0.0
  40
 5.40000
  50
 56.0555
  51
 90.0029
   0
ARC
   8
LEVEL001
   6
CONTINUOUS
  62
7
  10
 412.991
  20
 234.046
  30
0.0
  40
 3.40000
  50
 5.75739
  51
 56.0552
   0
LINE
   8
LEVEL001
   6
CONTINUOUS
  62
7
  10
 416.374
  20
 234.387
  30
0.0
  11
 407.375
  21
 234.387
  31
0.0
   0
LINE
   8
LEVEL001
   6
CONTINUOUS
  62
7
  10
 437.374
  20
 222.564
  30
0.0
  11
 438.000
  21
 222.564
  31
0.0
   0
LINE
   8
LEVEL001
   6
CONTINUOUS
  62
7
  10
 437.374
  20
 252.564
  30
0.0
  11
 438.000
  21
 252.564
  31
0.0
   0
LINE
   8
LEVEL001
   6
CONTINUOUS
  62
7
  10
 438.000
  20
 260.064
  30
0.0
  11
 438.000
  21
 237.564
  31
0.0
   0
LINE
   8
LEVEL001
   6
CONTINUOUS
  62
7
  10
 438.000
  20
 237.564
  30
0.0
  11
 438.000
  21
 215.232
  31
0.0
   0
LINE
   8
LEVEL001
   6
CONTINUOUS
  62
7
  10
 387.374
  20
 263.064
  30
0.0
  11
 387.374
  21
 270.064
  31
0.0
   0
LINE
   8
LEVEL003
   6
CONTINUOUS
  62
7
  10
 385.503
  20
 240.064
  30
0.0
  11
 356.658
  21
 240.064
  31
0.0
   0
LINE
   8
LEVEL003
   6
CONTINUOUS
  62
7
  10
 385.503
  20
 235.064
  30
0.0
  11
 356.658
  21
 235.064
  31
0.0
   0
POLYLINE
   8
LEVEL001
   6
CONTINUOUS
  62
7
  66
1
  10
0.0
  20
0.0
  30
0.0
  70
0
   0
VERTEX
   8
LEVEL001
   6
CONTINUOUS
  62
7
  10
 194.493
  20
 183.343
  30
0.0
   0
VERTEX
   8
LEVEL001
   6
CONTINUOUS
  62
7
  10
 195.572
  20
 183.753
  30
0.0
   0
VERTEX
   8
LEVEL001
   6
CONTINUOUS
  62
7
  10
 196.618
  20
 184.447
  30
0.0
   0
VERTEX
   8
LEVEL001
   6
CONTINUOUS
  62
7
  10
 197.616
  20
 185.414
  30
0.0
   0
VERTEX
   8
LEVEL001
   6
CONTINUOUS
  62
7
  10
 198.549
  20
 186.639
  30
0.0
   0
VERTEX
   8
LEVEL001
   6
CONTINUOUS
  62
7
  10
 199.404
  20
 188.103
  30
0.0
   0
VERTEX
   8
LEVEL001
   6
CONTINUOUS
  62
7
  10
 200.166
  20
 189.783
  30
0.0
   0
VERTEX
   8
LEVEL001
   6
CONTINUOUS
  62
7
  10
 200.825
  20
 191.653
  30
0.0
   0
VERTEX
   8
LEVEL001
   6
CONTINUOUS
  62
7
  10
 201.369
  20
 193.683
  30
0.0
   0
VERTEX
   8
LEVEL001
   6
CONTINUOUS
  62
7
  10
 201.790
  20
 195.843
  30
0.0
   0
VERTEX
   8
LEVEL001
   6
CONTINUOUS
  62
7
  10
 202.082
  20
 198.098
  30
0.0
   0
VERTEX
   8
LEVEL001
   6
CONTINUOUS
  62
7
  10
 202.240
  20
 200.414
  30
0.0
   0
VERTEX
   8
LEVEL001
   6
CONTINUOUS
  62
7
  10
 202.262
  20
 202.753
  30
0.0
   0
VERTEX
   8
LEVEL001
   6
CONTINUOUS
  62
7
  10
 202.147
  20
 205.080
  30
0.0
   0
VERTEX
   8
LEVEL001
   6
CONTINUOUS
  62
7
  10
 201.897
  20
 207.358
  30
0.0
   0
VERTEX
   8
LEVEL001
   6
CONTINUOUS
  62
7
  10
 201.516
  20
 209.551
  30
0.0
   0
VERTEX
   8
LEVEL001
   6
CONTINUOUS
  62
7
  10
 201.010
  20
 211.626
  30
0.0
   0
VERTEX
   8
LEVEL001
   6
CONTINUOUS
  62
7
  10
 200.386
  20
 213.550
  30
0.0
   0
VERTEX
   8
LEVEL001
   6
CONTINUOUS
  62
7
  10
 199.656
  20
 215.294
  30
0.0
   0
VERTEX
   8
LEVEL001
   6
CONTINUOUS
  62
7
  10
 198.829
  20
 216.829
  30
0.0
   0
VERTEX
   8
LEVEL001
   6
CONTINUOUS
  62
7
  10
 197.919
  20
 218.131
  30
0.0
   0
VERTEX
   8
LEVEL001
   6
CONTINUOUS
  62
7
  10
 196.940
  20
 219.182
  30
0.0
   0
VERTEX
   8
LEVEL001
   6
CONTINUOUS
  62
7
  10
 195.907
  20
 219.963
  30
0.0
   0
VERTEX
   8
LEVEL001
   6
CONTINUOUS
  62
7
  10
 194.837
  20
 220.464
  30
0.0
   0
VERTEX
   8
LEVEL001
   6
CONTINUOUS
  62
7
  10
 194.794
  20
 220.478
  30
0.0
   0
SEQEND
   0
POLYLINE
   8
LEVEL001
   6
CONTINUOUS
  62
7
  66
1
  10
0.0
  20
0.0
  30
0.0
  70
0
   0
VERTEX
   8
LEVEL001
   6
CONTINUOUS
  62
7
  10
 197.052
  20
 180.041
  30
0.0
   0
VERTEX
   8
LEVEL001
   6
CONTINUOUS
  62
7
  10
 198.555
  20
 181.003
  30
0.0
   0
VERTEX
   8
LEVEL001
   6
CONTINUOUS
  62
7
  10
 199.978
  20
 182.291
  30
0.0
   0
VERTEX
   8
LEVEL001
   6
CONTINUOUS
  62
7
  10
 201.301
  20
 183.886
  30
0.0
   0
VERTEX
   8
LEVEL001
   6
CONTINUOUS
  62
7
  10
 202.503
  20
 185.763
  30
0.0
   0
VERTEX
   8
LEVEL001
   6
CONTINUOUS
  62
7
  10
 203.563
  20
 187.892
  30
0.0
   0
VERTEX
   8
LEVEL001
   6
CONTINUOUS
  62
7
  10
 204.467
  20
 190.241
  30
0.0
   0
VERTEX
   8
LEVEL001
   6
CONTINUOUS
  62
7
  10
 205.199
  20
 192.773
  30
0.0
   0
VERTEX
   8
LEVEL001
   6
CONTINUOUS
  62
7
  10
 205.749
  20
 195.448
  30
0.0
   0
VERTEX
   8
LEVEL001
   6
CONTINUOUS
  62
7
  10
 206.108
  20
 198.225
  30
0.0
   0
VERTEX
   8
LEVEL001
   6
CONTINUOUS
  62
7
  10
 206.270
  20
 201.059
  30
0.0
   0
VERTEX
   8
LEVEL001
   6
CONTINUOUS
  62
7
  10
 206.233
  20
 203.908
  30
0.0
   0
VERTEX
   8
LEVEL001
   6
CONTINUOUS
  62
7
  10
 205.997
  20
 206.726
  30
0.0
   0
VERTEX
   8
LEVEL001
   6
CONTINUOUS
  62
7
  10
 205.566
  20
 209.470
  30
0.0
   0
VERTEX
   8
LEVEL001
   6
CONTINUOUS
  62
7
  10
 204.947
  20
 212.096
  30
0.0
   0
VERTEX
   8
LEVEL001
   6
CONTINUOUS
  62
7
  10
 204.149
  20
 214.564
  30
0.0
   0
VERTEX
   8
LEVEL001
   6
CONTINUOUS
  62
7
  10
 203.185
  20
 216.835
  30
0.0
   0
VERTEX
   8
LEVEL001
   6
CONTINUOUS
  62
7
  10
 202.070
  20
 218.874
  30
0.0
   0
VERTEX
   8
LEVEL001
   6
CONTINUOUS
  62
7
  10
 200.821
  20
 220.649
  30
0.0
   0
VERTEX
   8
LEVEL001
   6
CONTINUOUS
  62
7
  10
 199.458
  20
 222.132
  30
0.0
   0
VERTEX
   8
LEVEL001
   6
CONTINUOUS
  62
7
  10
 198.002
  20
 223.301
  30
0.0
   0
VERTEX
   8
LEVEL001
   6
CONTINUOUS
  62
7
  10
 197.075
  20
 223.852
  30
0.0
   0
SEQEND
   0
LINE
   8
LEVEL003
   6
CONTINUOUS
  62
7
  10
 219.920
  20
 507.000
  30
0.0
  11
 319.790
  21
 507.000
  31
0.0
   0
LINE
   8
LEVEL003
   6
CONTINUOUS
  62
7
  10
 320.127
  20
 504.535
  30
0.0
  11
 330.402
  21
 299.514
  31
0.0
   0
LINE
   8
LEVEL003
   6
CONTINUOUS
  62
7
  10
 319.790
  20
 509.000
  30
0.0
  11
 319.790
  21
 525.000
  31
0.0
   0
ARC
   8
LEVEL001
   6
CONTINUOUS
  62
7
  10
 262.500
  20
 345.646
  30
0.0
  40
 5.00000
  50
 270.000
  51
 0.781653E-11
   0
ARC
   8
LEVEL001
   6
CONTINUOUS
  62
7
  10
 262.500
  20
 338.146
  30
0.0
  40
 2.50000
  50
 90.0000
  51
 180.000
   0
ARC
   8
LEVEL001
   6
CONTINUOUS
  62
7
  10
 277.500
  20
 345.646
  30
0.0
  40
 5.00000
  50
 180.000
  51
 270.000
   0
ARC
   8
LEVEL001
   6
CONTINUOUS
  62
7
  10
 277.500
  20
 338.146
  30
0.0
  40
 2.50000
  50
 0.781653E-11
  51
 90.0000
   0
ARC
   8
LEVEL001
   6
CONTINUOUS
  62
7
  10
 270.000
  20
 346.550
  30
0.0
  40
 2.50000
  50
0.0
  51
 180.000
   0
ARC
   8
LEVEL001
   6
CONTINUOUS
  62
7
  10
 255.000
  20
 335.778
  30
0.0
  40
 5.00000
  50
 0.521102E-11
  51
 90.0000
   0
ARC
   8
LEVEL001
   6
CONTINUOUS
  62
7
  10
 285.000
  20
 335.778
  30
0.0
  40
 5.00000
  50
 90.0000
  51
 180.000
   0
ARC
   8
LEVEL001
   6
CONTINUOUS
  62
7
  10
 262.500
  20
 210.632
  30
0.0
  40
 5.00000
  50
0.0
  51
 90.0000
   0
ARC
   8
LEVEL001
   6
CONTINUOUS
  62
7
  10
 262.500
  20
 218.132
  30
0.0
  40
 2.50000
  50
 180.000
  51
 270.000
   0
ARC
   8
LEVEL001
   6
CONTINUOUS
  62
7
  10
 277.500
  20
 210.632
  30
0.0
  40
 5.00000
  50
 90.0000
  51
 180.000
   0
ARC
   8
LEVEL001
   6
CONTINUOUS
  62
7
  10
 277.500
  20
 218.132
  30
0.0
  40
 2.50000
  50
 270.000
  51
 0.390827E-11
   0
ARC
   8
LEVEL001
   6
CONTINUOUS
  62
7
  10
 270.000
  20
 209.728
  30
0.0
  40
 2.50000
  50
 180.000
  51
0.0
   0
LINE
   8
LEVEL001
   6
CONTINUOUS
  62
7
  10
 280.000
  20
 338.806
  30
0.0
  11
 280.000
  21
 217.709
  31
0.0
   0
LINE
   8
LEVEL001
   6
CONTINUOUS
  62
7
  10
 260.000
  20
 338.806
  30
0.0
  11
 260.000
  21
 217.709
  31
0.0
   0
ARC
   8
LEVEL001
   6
CONTINUOUS
  62
7
  10
 264.500
  20
 200.388
  30
0.0
  40
 3.00000
  50
 270.000
  51
0.0
   0
ARC
   8
LEVEL001
   6
CONTINUOUS
  62
7
  10
 275.500
  20
 200.388
  30
0.0
  40
 3.00000
  50
 180.000
  51
 270.000
   0
LINE
   8
LEVEL001
   6
CONTINUOUS
  62
7
  10
 267.500
  20
 200.388
  30
0.0
  11
 267.500
  21
 505.481
  31
0.0
   0
LINE
   8
LEVEL001
   6
CONTINUOUS
  62
7
  10
 272.500
  20
 200.388
  30
0.0
  11
 272.500
  21
 505.481
  31
0.0
   0
ARC
   8
LEVEL001
   6
CONTINUOUS
  62
7
  10
 255.000
  20
 218.695
  30
0.0
  40
 5.00000
  50
 270.000
  51
 0.651378E-12
   0
ARC
   8
LEVEL001
   6
CONTINUOUS
  62
7
  10
 285.000
  20
 218.695
  30
0.0
  40
 5.00000
  50
 180.000
  51
 270.000
   0
CIRCLE
   8
LEVEL003
   6
CONTINUOUS
  62
7
  10
 930.878
  20
 76.2235
  30
0.0
  40
 8.95795
   0
LINE
   8
LEVEL003
   6
CONTINUOUS
  62
7
  10
 948.460
  20
 85.1814
  30
0.0
  11
 937.083
  21
 65.4740
  31
0.0
   0
LINE
   8
LEVEL003
   6
CONTINUOUS
  62
7
  10
 937.083
  20
 65.4740
  30
0.0
  11
 914.327
  21
 65.4740
  31
0.0
   0
LINE
   8
LEVEL003
   6
CONTINUOUS
  62
7
  10
 911.741
  20
 60.9950
  30
0.0
  11
 952.413
  21
 60.9950
  31
0.0
   0
LINE
   8
LEVEL003
   6
CONTINUOUS
  62
7
  10
 952.413
  20
 60.9950
  30
0.0
  11
 966.376
  21
 85.1814
  31
0.0
   0
LINE
   8
LEVEL003
   6
CONTINUOUS
  62
7
  10
 966.376
  20
 85.1814
  30
0.0
  11
 948.460
  21
 85.1814
  31
0.0
   0
LINE
   8
LEVEL003
   6
CONTINUOUS
  62
7
  10
 914.327
  20
 65.4740
  30
0.0
  11
 911.741
  21
 60.9950
  31
0.0
   0
TEXT
   8
LEVEL003
  62
7
  10
 977.800
  20
 55.9600
  30
0.0
  40
 22.3949
   1
ＯＳＡＫＡ ＪＡＣＫ
   7
STANDARD
   0
TEXT
   8
LEVEL003
  62
7
  10
 978.207
  20
 100.339
  30
0.0
  40
 14.9299
   1
Model : ＪＪ－３５２５
   7
STANDARD
   0
ENDSEC
   0
EOF
