   0
SECTION
   2
HEADER
   9
$LIMMIN
  10
0.0
  20
0.0
   9
$LIMMAX
  10
 1260.00
  20
 891.000
   9
$EXTMIN
  10
0.0
  20
0.0
   9
$EXTMAX
  10
 1260.00
  20
 891.000
   9
$LTSCALE
  40
 25.2000
   0
ENDSEC
   0
SECTION
   2
TABLES
  0
TABLE
  2
LTYPE
 70
    25
  0
LTYPE
  2
CONTINUOUS
 70
    64
  3
Solid line
 72
    65
 73
     0
 40
0.0
  0
LTYPE
  2
BORDER
 70
    64
  3
__ __ . __ __ . __ __ . __ __ . __ __ . __ __ .
 72
    65
 73
     6
 40
1.75
 49
0.5
 49
-0.25
 49
0.5
 49
-0.25
 49
0.0
 49
-0.25
  0
LTYPE
  2
BORDER2
 70
    64
  3
__.__.__.__.__.__.__.__.__.__.__.__.__.__.__.__
 72
    65
 73
     6
 40
0.875
 49
0.25
 49
-0.125
 49
0.25
 49
-0.125
 49
0.0
 49
-0.125
  0
LTYPE
  2
BORDERX2
 70
    64
  3
____  ____  .  ____  ____  .  ____  ____  .  __
 72
    65
 73
     6
 40
3.5
 49
1.0
 49
-0.5
 49
1.0
 49
-0.5
 49
0.0
 49
-0.5
  0
LTYPE
  2
CENTER
 70
    64
  3
____ _ ____ _ ____ _ ____ _ ____ _ ____ _ ____ 
 72
    65
 73
     4
 40
2.0
 49
1.25
 49
-0.25
 49
0.25
 49
-0.25
  0
LTYPE
  2
CENTER2
 70
    64
  3
___ _ ___ _ ___ _ ___ _ ___ _ ___ _ ___ _ ___ _
 72
    65
 73
     4
 40
1.125
 49
0.75
 49
-0.125
 49
0.125
 49
-0.125
  0
LTYPE
  2
CENTERX2
 70
    64
  3
________  __  ________  __  ________  __  _____
 72
    65
 73
     4
 40
4.0
 49
2.5
 49
-0.5
 49
0.5
 49
-0.5
  0
LTYPE
  2
DASHDOT
 70
    64
  3
__ . __ . __ . __ . __ . __ . __ . __ . __ . __
 72
    65
 73
     4
 40
1.0
 49
0.5
 49
-0.25
 49
0.0
 49
-0.25
  0
LTYPE
  2
DASHDOT2
 70
    64
  3
_._._._._._._._._._._._._._._._._._._._._._._._
 72
    65
 73
     4
 40
0.5
 49
0.25
 49
-0.125
 49
0.0
 49
-0.125
  0
LTYPE
  2
DASHDOTX2
 70
    64
  3
____  .  ____  .  ____  .  ____  .  ____  .  __
 72
    65
 73
     4
 40
2.0
 49
1.0
 49
-0.5
 49
0.0
 49
-0.5
  0
LTYPE
  2
DASHED
 70
    64
  3
__ __ __ __ __ __ __ __ __ __ __ __ __ __ __ __
 72
    65
 73
     2
 40
0.75
 49
0.5
 49
-0.25
  0
LTYPE
  2
DASHED2
 70
    64
  3
_ _ _ _ _ _ _ _ _ _ _ _ _ _ _ _ _ _ _ _ _ _ _ _
 72
    65
 73
     2
 40
0.375
 49
0.25
 49
-0.125
  0
LTYPE
  2
DASHEDX2
 70
    64
  3
____  ____  ____  ____  ____  ____  ____  ____ 
 72
    65
 73
     2
 40
1.5
 49
1.0
 49
-0.5
  0
LTYPE
  2
DIVIDE
 70
    64
  3
____ . . ____ . . ____ . . ____ . . ____ . . __
 72
    65
 73
     6
 40
1.25
 49
0.5
 49
-0.25
 49
0.0
 49
-0.25
 49
0.0
 49
-0.25
  0
LTYPE
  2
DIVIDE2
 70
    64
  3
__..__..__..__..__..__..__..__..__..__..__..__.
 72
    65
 73
     6
 40
0.625
 49
0.25
 49
-0.125
 49
0.0
 49
-0.125
 49
0.0
 49
-0.125
  0
LTYPE
  2
DIVIDEX2
 70
    64
  3
________  .  .  ________  .  .  ________  .  . 
 72
    65
 73
     6
 40
2.5
 49
1.0
 49
-0.5
 49
0.0
 49
-0.5
 49
0.0
 49
-0.5
  0
LTYPE
  2
DOT
 70
    64
  3
. . . . . . . . . . . . . . . . . . . . . . . .
 72
    65
 73
     2
 40
0.25
 49
0.0
 49
-0.25
  0
LTYPE
  2
DOT2
 70
    64
  3
...............................................
 72
    65
 73
     2
 40
0.125
 49
0.0
 49
-0.125
  0
LTYPE
  2
DOTX2
 70
    64
  3
.  .  .  .  .  .  .  .  .  .  .  .  .  .  .  . 
 72
    65
 73
     2
 40
0.5
 49
0.0
 49
-0.5
  0
LTYPE
  2
HIDDEN
 70
    64
  3
__ __ __ __ __ __ __ __ __ __ __ __ __ __ __ __
 72
    65
 73
     2
 40
0.375
 49
0.25
 49
-0.125
  0
LTYPE
  2
HIDDEN2
 70
    64
  3
_ _ _ _ _ _ _ _ _ _ _ _ _ _ _ _ _ _ _ _ _ _ _ _
 72
    65
 73
     2
 40
0.1875
 49
0.125
 49
-0.0625
  0
LTYPE
  2
HIDDENX2
 70
    64
  3
____ ____ ____ ____ ____ ____ ____ ____ ____ __
 72
    65
 73
     2
 40
0.75
 49
0.5
 49
-0.25
  0
LTYPE
  2
PHANTOM
 70
    64
  3
______  __  __  ______  __  __  ______  __  __ 
 72
    65
 73
     6
 40
2.5
 49
1.25
 49
-0.25
 49
0.25
 49
-0.25
 49
0.25
 49
-0.25
  0
LTYPE
  2
PHANTOM2
 70
    64
  3
___ _ _ ___ _ _ ___ _ _ ___ _ _ ___ _ _ ___ _ _
 72
    65
 73
     6
 40
1.25
 49
0.625
 49
-0.125
 49
0.125
 49
-0.125
 49
0.125
 49
-0.125
  0
LTYPE
  2
PHANTOMX2
 70
    64
  3
____________    ____    ____    ____________   
 72
    65
 73
     6
 40
5.0
 49
2.5
 49
-0.5
 49
0.5
 49
-0.5
 49
0.5
 49
-0.5
  0
ENDTAB
  0
TABLE
  2
STYLE
 70
     2
  0
STYLE
  2
STANDARD
 70
0
 40
0.0
 41
1.0
 50
0.0
 71
0
 42
0.2
  3
TXT
  4
BIGFONT
  0
STYLE
  2
STANDARD1
 70
     4
 40
0.0
 41
1.0
 50
0.0
 71
     0
 42
0.2
  3
TXT
  4
BIGFONT
  0
ENDTAB
   0
TABLE
   2
LAYER
  70
7
   0
LAYER
   2
0
  70
0
  62
7
   6
CONTINUOUS
   0
LAYER
   2
LEVEL001
  70
0
  62
7
   6
CONTINUOUS
   0
LAYER
   2
LEVEL003
  70
0
  62
7
   6
CONTINUOUS
   0
LAYER
   2
LEVEL020
  70
0
  62
7
   6
CONTINUOUS
   0
LAYER
   2
LEVEL050
  70
0
  62
7
   6
CONTINUOUS
   0
LAYER
   2
LEVEL100
  70
0
  62
-7
   6
CONTINUOUS
   0
LAYER
   2
LEVEL110
  70
0
  62
7
   6
CONTINUOUS
   0
ENDTAB
   0
ENDSEC
   0
SECTION
   2
ENTITIES
   0
LINE
   8
LEVEL100
   6
CONTINUOUS
  62
7
  10
 933.750
  20
 192.000
  30
0.0
  11
 933.750
  21
 171.000
  31
0.0
   0
LINE
   8
LEVEL100
   6
CONTINUOUS
  62
7
  10
 1023.75
  20
 192.000
  30
0.0
  11
 1023.75
  21
 123.000
  31
0.0
   0
LINE
   8
LEVEL100
   6
CONTINUOUS
  62
7
  10
 1083.75
  20
 192.000
  30
0.0
  11
 1083.75
  21
 171.000
  31
0.0
   0
LINE
   8
LEVEL100
   6
CONTINUOUS
  62
7
  10
 1107.75
  20
 192.000
  30
0.0
  11
 1107.75
  21
 171.000
  31
0.0
   0
LINE
   8
LEVEL100
   6
CONTINUOUS
  62
7
  10
 1142.25
  20
 192.000
  30
0.0
  11
 1142.25
  21
 171.000
  31
0.0
   0
LINE
   8
LEVEL100
   6
CONTINUOUS
  62
7
  10
 995.250
  20
 171.000
  30
0.0
  11
 995.250
  21
 123.000
  31
0.0
   0
LINE
   8
LEVEL100
   6
CONTINUOUS
  62
7
  10
 945.750
  20
 79.5000
  30
0.0
  11
 960.750
  21
 94.5000
  31
0.0
   0
CIRCLE
   8
LEVEL100
   6
CONTINUOUS
  62
7
  10
 924.750
  20
 34.5000
  30
0.0
  40
 1.20000
   0
CIRCLE
   8
LEVEL100
   6
CONTINUOUS
  62
7
  10
 945.750
  20
 34.5000
  30
0.0
  40
 1.20000
   0
CIRCLE
   8
LEVEL100
   6
CONTINUOUS
  62
7
  10
 924.750
  20
 34.5000
  30
0.0
  40
 0.750000
   0
CIRCLE
   8
LEVEL100
   6
CONTINUOUS
  62
7
  10
 945.750
  20
 34.5000
  30
0.0
  40
 0.750000
   0
LINE
   8
LEVEL100
   6
CONTINUOUS
  62
7
  10
 1038.00
  20
 46.5000
  30
0.0
  11
 1038.00
  21
 49.5000
  31
0.0
   0
LINE
   8
LEVEL100
   6
CONTINUOUS
  62
7
  10
 1038.00
  20
 49.5000
  30
0.0
  11
 1047.00
  21
 49.5000
  31
0.0
   0
LINE
   8
LEVEL100
   6
CONTINUOUS
  62
7
  10
 1047.00
  20
 49.5000
  30
0.0
  11
 1047.00
  21
 46.5000
  31
0.0
   0
LINE
   8
LEVEL100
   6
CONTINUOUS
  62
7
  10
 1047.00
  20
 46.5000
  30
0.0
  11
 1038.00
  21
 46.5000
  31
0.0
   0
LINE
   8
LEVEL100
   6
CONTINUOUS
  62
7
  10
 903.750
  20
 30.0000
  30
0.0
  11
 903.750
  21
 192.000
  31
0.0
   0
LINE
   8
LEVEL100
   6
CONTINUOUS
  62
7
  10
 966.750
  20
 171.000
  30
0.0
  11
 966.750
  21
 30.0000
  31
0.0
   0
LINE
   8
LEVEL100
   6
CONTINUOUS
  62
7
  10
 903.750
  20
 99.0000
  30
0.0
  11
 966.750
  21
 99.0000
  31
0.0
   0
TEXT
   8
LEVEL100
  62
7
  10
 977.250
  20
 40.5000
  30
0.0
  40
 15.0000
   1
ＯＪ
  41
 0.700000
   7
STANDARD
   0
LINE
   8
LEVEL100
   6
CONTINUOUS
  62
7
  10
 903.750
  20
 171.000
  30
0.0
  11
 1224.45
  21
 171.000
  31
0.0
   0
LINE
   8
LEVEL100
   6
CONTINUOUS
  62
7
  10
 903.750
  20
 159.000
  30
0.0
  11
 1224.45
  21
 159.000
  31
0.0
   0
LINE
   8
LEVEL100
   6
CONTINUOUS
  62
7
  10
 903.750
  20
 192.000
  30
0.0
  11
 1224.45
  21
 192.000
  31
0.0
   0
LINE
   8
LEVEL100
   6
CONTINUOUS
  62
7
  10
 981.450
  20
 789.000
  30
0.0
  11
 981.450
  21
 864.000
  31
0.0
   0
LINE
   8
LEVEL100
   6
CONTINUOUS
  62
7
  10
 981.450
  20
 849.000
  30
0.0
  11
 1224.45
  21
 849.000
  31
0.0
   0
LINE
   8
LEVEL100
   6
CONTINUOUS
  62
7
  10
 981.450
  20
 834.000
  30
0.0
  11
 1224.45
  21
 834.000
  31
0.0
   0
LINE
   8
LEVEL100
   6
CONTINUOUS
  62
7
  10
 1008.45
  20
 849.000
  30
0.0
  11
 1008.45
  21
 834.000
  31
0.0
   0
LINE
   8
LEVEL100
   6
CONTINUOUS
  62
7
  10
 1164.45
  20
 849.000
  30
0.0
  11
 1164.45
  21
 834.000
  31
0.0
   0
LINE
   8
LEVEL100
   6
CONTINUOUS
  62
7
  10
 1200.45
  20
 849.000
  30
0.0
  11
 1200.45
  21
 834.000
  31
0.0
   0
LINE
   8
LEVEL100
   6
CONTINUOUS
  62
7
  10
 903.750
  20
 123.000
  30
0.0
  11
 1224.45
  21
 123.000
  31
0.0
   0
LINE
   8
LEVEL100
   6
CONTINUOUS
  62
7
  10
 903.750
  20
 75.0000
  30
0.0
  11
 1224.45
  21
 75.0000
  31
0.0
   0
LINE
   8
LEVEL100
   6
CONTINUOUS
  62
7
  10
 1140.45
  20
 75.0000
  30
0.0
  11
 1140.45
  21
 30.0000
  31
0.0
   0
LINE
   8
LEVEL100
   6
CONTINUOUS
  62
7
  10
 1152.45
  20
 30.0000
  30
0.0
  11
 1203.45
  21
 60.0000
  31
0.0
   0
LINE
   8
LEVEL100
   6
CONTINUOUS
  62
7
  10
 75.0000
  20
 864.000
  30
0.0
  11
 1224.45
  21
 864.000
  31
0.0
   0
LINE
   8
LEVEL100
   6
CONTINUOUS
  62
7
  10
 1224.45
  20
 864.000
  30
0.0
  11
 1224.45
  21
 30.0000
  31
0.0
   0
LINE
   8
LEVEL100
   6
CONTINUOUS
  62
7
  10
 1224.45
  20
 30.0000
  30
0.0
  11
 75.0000
  21
 30.0000
  31
0.0
   0
LINE
   8
LEVEL100
   6
CONTINUOUS
  62
7
  10
 75.0000
  20
 837.600
  30
0.0
  11
 225.450
  21
 837.600
  31
0.0
   0
LINE
   8
LEVEL100
   6
CONTINUOUS
  62
7
  10
 225.450
  20
 837.600
  30
0.0
  11
 225.450
  21
 864.000
  31
0.0
   0
TEXT
   8
LEVEL100
  62
7
  10
 222.450
  20
 858.300
  30
0.0
  40
 15.0000
   1
ＯＪ．
  50
 180.000
  41
 0.900000
   7
STANDARD
   0
LINE
   8
LEVEL100
   6
CONTINUOUS
  62
7
  10
 171.450
  20
 852.300
  30
0.0
  11
 162.450
  21
 852.300
  31
0.0
   0
LINE
   8
LEVEL100
   6
CONTINUOUS
  62
7
  10
 162.450
  20
 852.300
  30
0.0
  11
 162.450
  21
 849.300
  31
0.0
   0
LINE
   8
LEVEL100
   6
CONTINUOUS
  62
7
  10
 162.450
  20
 849.300
  30
0.0
  11
 171.450
  21
 849.300
  31
0.0
   0
LINE
   8
LEVEL100
   6
CONTINUOUS
  62
7
  10
 171.450
  20
 849.300
  30
0.0
  11
 171.450
  21
 852.300
  31
0.0
   0
TEXT
   8
LEVEL100
  62
7
  10
 936.750
  20
 174.000
  30
0.0
  40
 12.0000
   1
Ｓ．ＩＭＡＮＩＳＨＩ
  41
 0.625000
   7
STANDARD
   0
LINE
   8
LEVEL001
   6
DASHDOT
  62
1
  10
 257.500
  20
 208.000
  30
0.0
  11
 445.000
  21
 208.000
  31
0.0
   0
ARC
   8
LEVEL001
   6
CONTINUOUS
  62
7
  10
 335.500
  20
 108.436
  30
0.0
  40
 3.00000
  50
 270.000
  51
0.0
   0
LINE
   8
LEVEL001
   6
CONTINUOUS
  62
7
  10
 265.000
  20
 105.436
  30
0.0
  11
 335.500
  21
 105.436
  31
0.0
   0
LINE
   8
LEVEL001
   6
CONTINUOUS
  62
7
  10
 338.500
  20
 108.436
  30
0.0
  11
 338.500
  21
 117.436
  31
0.0
   0
LINE
   8
LEVEL001
   6
DASHDOT
  62
1
  10
 282.500
  20
 110.000
  30
0.0
  11
 282.500
  21
 102.718
  31
0.0
   0
LINE
   8
LEVEL001
   6
DASHDOT
  62
1
  10
 302.500
  20
 110.000
  30
0.0
  11
 302.500
  21
 102.718
  31
0.0
   0
LINE
   8
LEVEL001
   6
DASHDOT
  62
1
  10
 320.000
  20
 110.000
  30
0.0
  11
 320.000
  21
 102.718
  31
0.0
   0
LINE
   8
LEVEL001
   6
CONTINUOUS
  62
7
  10
 345.500
  20
 117.436
  30
0.0
  11
 345.500
  21
 129.436
  31
0.0
   0
LINE
   8
LEVEL001
   6
CONTINUOUS
  62
7
  10
 341.000
  20
 129.436
  30
0.0
  11
 341.000
  21
 144.436
  31
0.0
   0
ARC
   8
LEVEL001
   6
CONTINUOUS
  62
7
  10
 341.500
  20
 147.436
  30
0.0
  40
 2.00000
  50
 89.9996
  51
 180.000
   0
ARC
   8
LEVEL001
   6
CONTINUOUS
  62
7
  10
 194.500
  20
 108.436
  30
0.0
  40
 3.00000
  50
 180.000
  51
 270.000
   0
LINE
   8
LEVEL001
   6
CONTINUOUS
  62
7
  10
 265.000
  20
 105.436
  30
0.0
  11
 194.500
  21
 105.436
  31
0.0
   0
LINE
   8
LEVEL001
   6
CONTINUOUS
  62
7
  10
 191.500
  20
 108.436
  30
0.0
  11
 191.500
  21
 117.436
  31
0.0
   0
LINE
   8
LEVEL001
   6
DASHDOT
  62
1
  10
 247.500
  20
 110.000
  30
0.0
  11
 247.500
  21
 102.718
  31
0.0
   0
LINE
   8
LEVEL001
   6
DASHDOT
  62
1
  10
 227.500
  20
 110.000
  30
0.0
  11
 227.500
  21
 102.718
  31
0.0
   0
LINE
   8
LEVEL001
   6
DASHDOT
  62
1
  10
 210.000
  20
 110.000
  30
0.0
  11
 210.000
  21
 102.718
  31
0.0
   0
LINE
   8
LEVEL001
   6
CONTINUOUS
  62
7
  10
 184.500
  20
 117.436
  30
0.0
  11
 184.500
  21
 129.436
  31
0.0
   0
LINE
   8
LEVEL001
   6
CONTINUOUS
  62
7
  10
 189.000
  20
 129.436
  30
0.0
  11
 189.000
  21
 144.436
  31
0.0
   0
ARC
   8
LEVEL001
   6
CONTINUOUS
  62
7
  10
 177.431
  20
 235.243
  30
0.0
  40
 25.0000
  50
 331.654
  51
 358.005
   0
ARC
   8
LEVEL001
   6
CONTINUOUS
  62
7
  10
 215.000
  20
 620.436
  30
0.0
  40
 2.00000
  50
 90.0002
  51
 180.000
   0
LINE
   8
LEVEL001
   6
CONTINUOUS
  62
7
  10
 213.000
  20
 620.436
  30
0.0
  11
 213.000
  21
 599.436
  31
0.0
   0
ARC
   8
LEVEL001
   6
CONTINUOUS
  62
7
  10
 213.012
  20
 595.965
  30
0.0
  40
 2.00000
  50
 358.004
  51
 60.1977
   0
LINE
   8
LEVEL001
   6
CONTINUOUS
  62
7
  10
 215.011
  20
 595.895
  30
0.0
  11
 202.415
  21
 234.372
  31
0.0
   0
ARC
   8
LEVEL001
   6
CONTINUOUS
  62
7
  10
 215.000
  20
 599.436
  30
0.0
  40
 2.00000
  50
 180.000
  51
 240.198
   0
ARC
   8
LEVEL001
   6
CONTINUOUS
  62
7
  10
 196.759
  20
 272.800
  30
0.0
  40
 5.00000
  50
 176.252
  51
 179.148
   0
LINE
   8
LEVEL001
   6
CONTINUOUS
  62
7
  10
 213.130
  20
 599.427
  30
0.0
  11
 191.770
  21
 273.126
  31
0.0
   0
ARC
   8
LEVEL001
   6
CONTINUOUS
  62
7
  10
 359.500
  20
 159.129
  30
0.0
  40
 20.0000
  50
 93.3275
  51
 180.000
   0
LINE
   8
LEVEL001
   6
CONTINUOUS
  62
7
  10
 339.500
  20
 144.436
  30
0.0
  11
 339.500
  21
 159.129
  31
0.0
   0
ARC
   8
LEVEL001
   6
CONTINUOUS
  62
7
  10
 343.365
  20
 152.436
  30
0.0
  40
 3.00000
  50
 270.000
  51
 311.430
   0
LINE
   8
LEVEL001
   6
CONTINUOUS
  62
7
  10
 341.500
  20
 149.436
  30
0.0
  11
 343.365
  21
 149.436
  31
0.0
   0
LINE
   8
LEVEL001
   6
CONTINUOUS
  62
7
  10
 379.500
  20
 180.326
  30
0.0
  11
 345.351
  21
 150.187
  31
0.0
   0
LINE
   8
LEVEL001
   6
CONTINUOUS
  62
7
  10
 382.500
  20
 182.500
  30
0.0
  11
 380.503
  21
 180.384
  31
0.0
   0
LINE
   8
LEVEL001
   6
CONTINUOUS
  62
7
  10
 358.339
  20
 179.095
  30
0.0
  11
 380.503
  21
 180.384
  31
0.0
   0
LINE
   8
LEVEL001
   6
CONTINUOUS
  62
7
  10
 382.500
  20
 233.500
  30
0.0
  11
 380.503
  21
 235.616
  31
0.0
   0
ARC
   8
LEVEL001
   6
CONTINUOUS
  62
7
  10
 341.348
  20
 270.139
  30
0.0
  40
 15.0000
  50
 181.995
  51
 233.913
   0
ARC
   8
LEVEL001
   6
CONTINUOUS
  62
7
  10
 352.238
  20
 247.276
  30
0.0
  40
 10.0000
  50
 193.053
  51
 266.673
   0
LINE
   8
LEVEL001
   6
CONTINUOUS
  62
7
  10
 351.658
  20
 237.293
  30
0.0
  11
 380.503
  21
 235.616
  31
0.0
   0
ARC
   8
LEVEL001
   6
CONTINUOUS
  62
7
  10
 323.501
  20
 240.614
  30
0.0
  40
 19.5000
  50
 13.0530
  51
 62.6685
   0
ARC
   8
LEVEL001
   6
CONTINUOUS
  62
7
  10
 315.000
  20
 620.436
  30
0.0
  40
 2.00000
  50
0.0
  51
 89.9998
   0
LINE
   8
LEVEL001
   6
CONTINUOUS
  62
7
  10
 317.000
  20
 620.436
  30
0.0
  11
 319.000
  21
 620.436
  31
0.0
   0
ARC
   8
LEVEL001
   6
CONTINUOUS
  62
7
  10
 319.607
  20
 549.498
  30
0.0
  40
 3.00000
  50
 101.683
  51
 181.995
   0
LINE
   8
LEVEL001
   6
CONTINUOUS
  62
7
  10
 319.000
  20
 620.436
  30
0.0
  11
 319.000
  21
 552.436
  31
0.0
   0
LINE
   8
LEVEL001
   6
CONTINUOUS
  62
7
  10
 319.000
  20
 615.936
  30
0.0
  11
 319.000
  21
 602.936
  31
0.0
   0
LINE
   8
LEVEL001
   6
CONTINUOUS
  62
7
  10
 319.000
  20
 602.936
  30
0.0
  11
 326.600
  21
 602.936
  31
0.0
   0
LINE
   8
LEVEL001
   6
CONTINUOUS
  62
7
  10
 326.600
  20
 602.936
  30
0.0
  11
 327.000
  21
 603.629
  31
0.0
   0
LINE
   8
LEVEL001
   6
CONTINUOUS
  62
7
  10
 327.000
  20
 603.629
  30
0.0
  11
 327.000
  21
 615.243
  31
0.0
   0
LINE
   8
LEVEL001
   6
CONTINUOUS
  62
7
  10
 327.000
  20
 615.243
  30
0.0
  11
 326.600
  21
 615.936
  31
0.0
   0
LINE
   8
LEVEL001
   6
CONTINUOUS
  62
7
  10
 326.600
  20
 615.936
  30
0.0
  11
 319.000
  21
 615.936
  31
0.0
   0
LINE
   8
LEVEL001
   6
CONTINUOUS
  62
7
  10
 326.600
  20
 615.936
  30
0.0
  11
 326.600
  21
 602.936
  31
0.0
   0
LINE
   8
LEVEL001
   6
CONTINUOUS
  62
7
  10
 319.000
  20
 571.936
  30
0.0
  11
 319.000
  21
 558.936
  31
0.0
   0
LINE
   8
LEVEL001
   6
CONTINUOUS
  62
7
  10
 319.000
  20
 558.936
  30
0.0
  11
 326.600
  21
 558.936
  31
0.0
   0
LINE
   8
LEVEL001
   6
CONTINUOUS
  62
7
  10
 326.600
  20
 558.936
  30
0.0
  11
 327.000
  21
 559.629
  31
0.0
   0
LINE
   8
LEVEL001
   6
CONTINUOUS
  62
7
  10
 327.000
  20
 559.629
  30
0.0
  11
 327.000
  21
 571.243
  31
0.0
   0
LINE
   8
LEVEL001
   6
CONTINUOUS
  62
7
  10
 327.000
  20
 571.243
  30
0.0
  11
 326.600
  21
 571.936
  31
0.0
   0
LINE
   8
LEVEL001
   6
CONTINUOUS
  62
7
  10
 326.600
  20
 571.936
  30
0.0
  11
 319.000
  21
 571.936
  31
0.0
   0
LINE
   8
LEVEL001
   6
CONTINUOUS
  62
7
  10
 326.600
  20
 571.936
  30
0.0
  11
 326.600
  21
 558.936
  31
0.0
   0
LINE
   8
LEVEL001
   6
DASHDOT
  62
1
  10
 330.000
  20
 609.436
  30
0.0
  11
 300.000
  21
 609.436
  31
0.0
   0
LINE
   8
LEVEL001
   6
DASHDOT
  62
1
  10
 330.000
  20
 565.436
  30
0.0
  11
 300.000
  21
 565.436
  31
0.0
   0
LINE
   8
LEVEL001
   6
CONTINUOUS
  62
7
  10
 319.000
  20
 552.436
  30
0.0
  11
 320.012
  21
 551.424
  31
0.0
   0
LINE
   8
LEVEL001
   6
CONTINUOUS
  62
7
  10
 320.012
  20
 551.424
  30
0.0
  11
 337.113
  21
 290.202
  31
0.0
   0
LINE
   8
LEVEL001
   6
CONTINUOUS
  62
7
  10
 380.503
  20
 235.616
  30
0.0
  11
 371.689
  21
 239.714
  31
0.0
   0
ARC
   8
LEVEL001
   6
CONTINUOUS
  62
7
  10
 396.985
  20
 294.121
  30
0.0
  40
 60.0000
  50
 183.745
  51
 245.065
   0
ARC
   8
LEVEL001
   6
CONTINUOUS
  62
7
  10
 224.500
  20
 637.436
  30
0.0
  40
 3.00000
  50
 90.0000
  51
 180.000
   0
LINE
   8
LEVEL001
   6
CONTINUOUS
  62
7
  10
 224.500
  20
 640.436
  30
0.0
  11
 265.000
  21
 640.436
  31
0.0
   0
LINE
   8
LEVEL001
   6
CONTINUOUS
  62
7
  10
 221.500
  20
 622.436
  30
0.0
  11
 221.500
  21
 637.436
  31
0.0
   0
LINE
   8
LEVEL001
   6
DASHDOT
  62
1
  10
 250.500
  20
 635.218
  30
0.0
  11
 250.500
  21
 645.000
  31
0.0
   0
LINE
   8
LEVEL001
   6
DASHDOT
  62
1
  10
 236.000
  20
 635.218
  30
0.0
  11
 236.000
  21
 645.000
  31
0.0
   0
LINE
   8
LEVEL001
   6
DASHDOT
  62
1
  10
 265.000
  20
 100.000
  30
0.0
  11
 265.000
  21
 645.000
  31
0.0
   0
LINE
   8
LEVEL001
   6
CONTINUOUS
  62
7
  10
 305.500
  20
 640.436
  30
0.0
  11
 265.000
  21
 640.436
  31
0.0
   0
LINE
   8
LEVEL001
   6
DASHDOT
  62
1
  10
 279.500
  20
 635.218
  30
0.0
  11
 279.500
  21
 645.000
  31
0.0
   0
LINE
   8
LEVEL001
   6
DASHDOT
  62
1
  10
 294.000
  20
 635.218
  30
0.0
  11
 294.000
  21
 645.000
  31
0.0
   0
ARC
   8
LEVEL001
   6
CONTINUOUS
  62
7
  10
 305.500
  20
 637.436
  30
0.0
  40
 3.00000
  50
0.0
  51
 90.0000
   0
LINE
   8
LEVEL001
   6
CONTINUOUS
  62
7
  10
 308.500
  20
 622.436
  30
0.0
  11
 308.500
  21
 637.436
  31
0.0
   0
LINE
   8
LEVEL001
   6
DASHDOT
  62
1
  10
 327.500
  20
 123.436
  30
0.0
  11
 348.500
  21
 123.436
  31
0.0
   0
ARC
   8
LEVEL001
   6
CONTINUOUS
  62
7
  10
 624.500
  20
 108.436
  30
0.0
  40
 3.00000
  50
 180.000
  51
 270.000
   0
LINE
   8
LEVEL001
   6
CONTINUOUS
  62
7
  10
 621.500
  20
 108.436
  30
0.0
  11
 621.500
  21
 117.436
  31
0.0
   0
LINE
   8
LEVEL001
   6
CONTINUOUS
  62
7
  10
 614.500
  20
 117.436
  30
0.0
  11
 614.500
  21
 129.436
  31
0.0
   0
LINE
   8
LEVEL001
   6
CONTINUOUS
  62
7
  10
 619.000
  20
 129.436
  30
0.0
  11
 619.000
  21
 144.436
  31
0.0
   0
LINE
   8
LEVEL001
   6
CONTINUOUS
  62
7
  10
 620.500
  20
 144.436
  30
0.0
  11
 620.500
  21
 188.000
  31
0.0
   0
LINE
   8
LEVEL001
   6
CONTINUOUS
  62
7
  10
 695.000
  20
 105.436
  30
0.0
  11
 624.500
  21
 105.436
  31
0.0
   0
ARC
   8
LEVEL001
   6
CONTINUOUS
  62
7
  10
 607.431
  20
 235.242
  30
0.0
  40
 25.0000
  50
 331.654
  51
 358.005
   0
ARC
   8
LEVEL001
   6
CONTINUOUS
  62
7
  10
 645.000
  20
 620.436
  30
0.0
  40
 2.00000
  50
 90.0009
  51
 180.000
   0
LINE
   8
LEVEL001
   6
CONTINUOUS
  62
7
  10
 643.000
  20
 620.436
  30
0.0
  11
 643.000
  21
 599.436
  31
0.0
   0
ARC
   8
LEVEL001
   6
CONTINUOUS
  62
7
  10
 643.012
  20
 595.965
  30
0.0
  40
 2.00000
  50
 358.005
  51
 60.1984
   0
ARC
   8
LEVEL001
   6
CONTINUOUS
  62
7
  10
 645.000
  20
 599.436
  30
0.0
  40
 2.00000
  50
 179.999
  51
 240.198
   0
LINE
   8
LEVEL001
   6
CONTINUOUS
  62
7
  10
 645.000
  20
 622.436
  30
0.0
  11
 695.000
  21
 622.436
  31
0.0
   0
LINE
   8
LEVEL001
   6
CONTINUOUS
  62
7
  10
 744.989
  20
 595.895
  30
0.0
  11
 757.585
  21
 234.372
  31
0.0
   0
ARC
   8
LEVEL001
   6
CONTINUOUS
  62
7
  10
 745.000
  20
 620.436
  30
0.0
  40
 2.00000
  50
0.0
  51
 89.9991
   0
LINE
   8
LEVEL001
   6
CONTINUOUS
  62
7
  10
 747.000
  20
 620.436
  30
0.0
  11
 747.000
  21
 599.436
  31
0.0
   0
ARC
   8
LEVEL001
   6
CONTINUOUS
  62
7
  10
 746.988
  20
 595.965
  30
0.0
  40
 2.00000
  50
 119.802
  51
 181.995
   0
ARC
   8
LEVEL001
   6
CONTINUOUS
  62
7
  10
 745.000
  20
 599.436
  30
0.0
  40
 2.00000
  50
 299.802
  51
 0.828537E-3
   0
LINE
   8
LEVEL001
   6
CONTINUOUS
  62
7
  10
 745.000
  20
 622.436
  30
0.0
  11
 695.000
  21
 622.436
  31
0.0
   0
ARC
   8
LEVEL001
   6
CONTINUOUS
  62
7
  10
 765.500
  20
 108.436
  30
0.0
  40
 3.00000
  50
 270.000
  51
0.0
   0
LINE
   8
LEVEL001
   6
CONTINUOUS
  62
7
  10
 768.500
  20
 108.436
  30
0.0
  11
 768.500
  21
 117.436
  31
0.0
   0
LINE
   8
LEVEL001
   6
CONTINUOUS
  62
7
  10
 771.000
  20
 129.436
  30
0.0
  11
 775.500
  21
 129.436
  31
0.0
   0
LINE
   8
LEVEL001
   6
CONTINUOUS
  62
7
  10
 775.500
  20
 117.436
  30
0.0
  11
 775.500
  21
 129.436
  31
0.0
   0
LINE
   8
LEVEL001
   6
CONTINUOUS
  62
7
  10
 771.000
  20
 129.436
  30
0.0
  11
 771.000
  21
 144.436
  31
0.0
   0
LINE
   8
LEVEL001
   6
CONTINUOUS
  62
7
  10
 769.500
  20
 144.436
  30
0.0
  11
 771.000
  21
 144.436
  31
0.0
   0
LINE
   8
LEVEL001
   6
CONTINUOUS
  62
7
  10
 695.000
  20
 105.436
  30
0.0
  11
 765.500
  21
 105.436
  31
0.0
   0
ARC
   8
LEVEL001
   6
CONTINUOUS
  62
7
  10
 782.569
  20
 235.242
  30
0.0
  40
 25.0000
  50
 181.995
  51
 208.346
   0
ARC
   8
LEVEL001
   6
CONTINUOUS
  62
7
  10
 737.254
  20
 273.313
  30
0.0
  40
 156.000
  50
 159.330
  51
 196.679
   0
ARC
   8
LEVEL001
   6
CONTINUOUS
  62
7
  10
 737.254
  20
 273.313
  30
0.0
  40
 146.000
  50
 159.330
  51
 196.679
   0
ARC
   8
LEVEL001
   6
CONTINUOUS
  62
7
  10
 737.254
  20
 273.313
  30
0.0
  40
 140.000
  50
 159.330
  51
 196.679
   0
ARC
   8
LEVEL001
   6
CONTINUOUS
  62
7
  10
 620.300
  20
 317.436
  30
0.0
  40
 15.0000
  50
 358.005
  51
 159.330
   0
ARC
   8
LEVEL001
   6
CONTINUOUS
  62
7
  10
 617.513
  20
 237.436
  30
0.0
  40
 15.0000
  50
 196.680
  51
 358.004
   0
ARC
   8
LEVEL001
   6
CONTINUOUS
  62
7
  10
 624.502
  20
 353.190
  30
0.0
  40
 5.00000
  50
 263.296
  51
 356.839
   0
LINE
   8
LEVEL001
   6
CONTINUOUS
  62
7
  10
 643.110
  20
 599.430
  30
0.0
  11
 629.495
  21
 352.914
  31
0.0
   0
ARC
   8
LEVEL001
   6
CONTINUOUS
  62
7
  10
 620.300
  20
 317.436
  30
0.0
  40
 31.0000
  50
 83.2967
  51
 159.330
   0
ARC
   8
LEVEL001
   6
CONTINUOUS
  62
7
  10
 631.130
  20
 341.073
  30
0.0
  40
 5.00000
  50
 245.385
  51
 358.005
   0
ARC
   8
LEVEL001
   6
CONTINUOUS
  62
7
  10
 620.300
  20
 317.436
  30
0.0
  40
 21.0000
  50
 65.3848
  51
 159.330
   0
LINE
   8
LEVEL001
   6
CONTINUOUS
  62
7
  10
 645.011
  20
 595.895
  30
0.0
  11
 632.504
  21
 236.914
  31
0.0
   0
ARC
   8
LEVEL001
   6
CONTINUOUS
  62
7
  10
 610.867
  20
 196.978
  30
0.0
  40
 10.0000
  50
 356.839
  51
 80.6713
   0
LINE
   8
LEVEL001
   6
CONTINUOUS
  62
7
  10
 620.852
  20
 196.427
  30
0.0
  11
 620.613
  21
 192.108
  31
0.0
   0
ARC
   8
LEVEL001
   6
CONTINUOUS
  62
7
  10
 617.513
  20
 237.436
  30
0.0
  40
 31.0000
  50
 196.679
  51
 260.671
   0
ARC
   8
LEVEL001
   6
CONTINUOUS
  62
7
  10
 612.623
  20
 206.824
  30
0.0
  40
 10.0000
  50
 347.128
  51
 80.9248
   0
ARC
   8
LEVEL001
   6
CONTINUOUS
  62
7
  10
 617.513
  20
 237.436
  30
0.0
  40
 21.0000
  50
 196.679
  51
 260.925
   0
ARC
   8
LEVEL001
   6
CONTINUOUS
  62
7
  10
 695.000
  20
 188.000
  30
0.0
  40
 74.5000
  50
 151.654
  51
 180.000
   0
LINE
   8
LEVEL001
   6
CONTINUOUS
  62
7
  10
 624.150
  20
 131.436
  30
0.0
  11
 624.150
  21
 117.436
  31
0.0
   0
LINE
   8
LEVEL001
   6
CONTINUOUS
  62
7
  10
 765.850
  20
 131.436
  30
0.0
  11
 765.850
  21
 117.436
  31
0.0
   0
LINE
   8
LEVEL001
   6
CONTINUOUS
  62
7
  10
 624.150
  20
 129.436
  30
0.0
  11
 614.500
  21
 129.436
  31
0.0
   0
LINE
   8
LEVEL001
   6
CONTINUOUS
  62
7
  10
 771.000
  20
 129.436
  30
0.0
  11
 765.850
  21
 129.436
  31
0.0
   0
ARC
   8
LEVEL001
   6
CONTINUOUS
  62
7
  10
 700.500
  20
 260.650
  30
0.0
  40
 3.00000
  50
 174.520
  51
 264.036
   0
ARC
   8
LEVEL001
   6
CONTINUOUS
  62
7
  10
 689.500
  20
 260.650
  30
0.0
  40
 3.00000
  50
 275.964
  51
 5.48013
   0
ARC
   8
LEVEL001
   6
CONTINUOUS
  62
7
  10
 700.500
  20
 549.436
  30
0.0
  40
 3.00000
  50
 90.0000
  51
 180.000
   0
ARC
   8
LEVEL001
   6
CONTINUOUS
  62
7
  10
 689.500
  20
 549.436
  30
0.0
  40
 3.00000
  50
0.0
  51
 90.0000
   0
ARC
   8
LEVEL001
   6
CONTINUOUS
  62
7
  10
 709.000
  20
 553.436
  30
0.0
  40
 1.00000
  50
 270.001
  51
 0.125064E-8
   0
ARC
   8
LEVEL001
   6
CONTINUOUS
  62
7
  10
 681.000
  20
 553.436
  30
0.0
  40
 1.00000
  50
 180.001
  51
 269.999
   0
LINE
   8
LEVEL001
   6
CONTINUOUS
  62
7
  10
 681.000
  20
 552.436
  30
0.0
  11
 709.000
  21
 552.436
  31
0.0
   0
ARC
   8
LEVEL001
   6
CONTINUOUS
  62
7
  10
 681.000
  20
 619.436
  30
0.0
  40
 1.00000
  50
 90.0009
  51
 179.999
   0
LINE
   8
LEVEL001
   6
CONTINUOUS
  62
7
  10
 680.000
  20
 619.436
  30
0.0
  11
 680.000
  21
 553.436
  31
0.0
   0
ARC
   8
LEVEL001
   6
CONTINUOUS
  62
7
  10
 709.000
  20
 619.436
  30
0.0
  40
 1.00000
  50
 0.875965E-3
  51
 89.9991
   0
LINE
   8
LEVEL001
   6
CONTINUOUS
  62
7
  10
 681.000
  20
 620.436
  30
0.0
  11
 709.000
  21
 620.436
  31
0.0
   0
LINE
   8
LEVEL001
   6
CONTINUOUS
  62
7
  10
 710.000
  20
 619.436
  30
0.0
  11
 710.000
  21
 553.436
  31
0.0
   0
LINE
   8
LEVEL001
   6
CONTINUOUS
  62
7
  10
 645.000
  20
 597.436
  30
0.0
  11
 680.000
  21
 597.436
  31
0.0
   0
LINE
   8
LEVEL001
   6
CONTINUOUS
  62
7
  10
 710.000
  20
 597.436
  30
0.0
  11
 745.000
  21
 597.436
  31
0.0
   0
LINE
   8
LEVEL001
   6
CONTINUOUS
  62
7
  10
 695.000
  20
 612.900
  30
0.0
  11
 698.000
  21
 611.168
  31
0.0
   0
LINE
   8
LEVEL001
   6
CONTINUOUS
  62
7
  10
 698.000
  20
 611.168
  30
0.0
  11
 698.000
  21
 607.704
  31
0.0
   0
LINE
   8
LEVEL001
   6
CONTINUOUS
  62
7
  10
 698.000
  20
 607.704
  30
0.0
  11
 695.000
  21
 605.972
  31
0.0
   0
LINE
   8
LEVEL001
   6
CONTINUOUS
  62
7
  10
 695.000
  20
 605.972
  30
0.0
  11
 692.000
  21
 607.704
  31
0.0
   0
LINE
   8
LEVEL001
   6
CONTINUOUS
  62
7
  10
 692.000
  20
 607.704
  30
0.0
  11
 692.000
  21
 611.168
  31
0.0
   0
LINE
   8
LEVEL001
   6
CONTINUOUS
  62
7
  10
 692.000
  20
 611.168
  30
0.0
  11
 695.000
  21
 612.900
  31
0.0
   0
CIRCLE
   8
LEVEL001
   6
CONTINUOUS
  62
7
  10
 695.000
  20
 609.436
  30
0.0
  40
 6.50000
   0
CIRCLE
   8
LEVEL001
   6
CONTINUOUS
  62
7
  10
 695.000
  20
 609.436
  30
0.0
  40
 5.80718
   0
LINE
   8
LEVEL001
   6
DASHDOT
  62
1
  10
 704.500
  20
 609.436
  30
0.0
  11
 685.500
  21
 609.436
  31
0.0
   0
LINE
   8
LEVEL001
   6
CONTINUOUS
  62
7
  10
 695.000
  20
 568.900
  30
0.0
  11
 698.000
  21
 567.168
  31
0.0
   0
LINE
   8
LEVEL001
   6
CONTINUOUS
  62
7
  10
 698.000
  20
 567.168
  30
0.0
  11
 698.000
  21
 563.704
  31
0.0
   0
LINE
   8
LEVEL001
   6
CONTINUOUS
  62
7
  10
 698.000
  20
 563.704
  30
0.0
  11
 695.000
  21
 561.972
  31
0.0
   0
LINE
   8
LEVEL001
   6
CONTINUOUS
  62
7
  10
 695.000
  20
 561.972
  30
0.0
  11
 692.000
  21
 563.704
  31
0.0
   0
LINE
   8
LEVEL001
   6
CONTINUOUS
  62
7
  10
 692.000
  20
 563.704
  30
0.0
  11
 692.000
  21
 567.168
  31
0.0
   0
LINE
   8
LEVEL001
   6
CONTINUOUS
  62
7
  10
 692.000
  20
 567.168
  30
0.0
  11
 695.000
  21
 568.900
  31
0.0
   0
CIRCLE
   8
LEVEL001
   6
CONTINUOUS
  62
7
  10
 695.000
  20
 565.436
  30
0.0
  40
 6.50000
   0
CIRCLE
   8
LEVEL001
   6
CONTINUOUS
  62
7
  10
 695.000
  20
 565.436
  30
0.0
  40
 5.80718
   0
LINE
   8
LEVEL001
   6
DASHDOT
  62
1
  10
 704.500
  20
 565.436
  30
0.0
  11
 685.500
  21
 565.436
  31
0.0
   0
LINE
   8
LEVEL001
   6
DASHDOT
  62
1
  10
 635.000
  20
 208.000
  30
0.0
  11
 750.000
  21
 208.000
  31
0.0
   0
ARC
   8
LEVEL001
   6
CONTINUOUS
  62
7
  10
 654.500
  20
 637.436
  30
0.0
  40
 3.00000
  50
 90.0000
  51
 180.000
   0
LINE
   8
LEVEL001
   6
CONTINUOUS
  62
7
  10
 654.500
  20
 640.436
  30
0.0
  11
 695.000
  21
 640.436
  31
0.0
   0
LINE
   8
LEVEL001
   6
CONTINUOUS
  62
7
  10
 651.500
  20
 622.436
  30
0.0
  11
 651.500
  21
 637.436
  31
0.0
   0
LINE
   8
LEVEL001
   6
CONTINUOUS
  62
7
  10
 735.500
  20
 640.436
  30
0.0
  11
 695.000
  21
 640.436
  31
0.0
   0
ARC
   8
LEVEL001
   6
CONTINUOUS
  62
7
  10
 735.500
  20
 637.436
  30
0.0
  40
 3.00000
  50
0.0
  51
 90.0000
   0
LINE
   8
LEVEL001
   6
CONTINUOUS
  62
7
  10
 738.500
  20
 622.436
  30
0.0
  11
 738.500
  21
 637.436
  31
0.0
   0
CIRCLE
   8
LEVEL001
   6
CONTINUOUS
  62
7
  10
 695.000
  20
 208.000
  30
0.0
  40
 22.5000
   0
CIRCLE
   8
LEVEL001
   6
CONTINUOUS
  62
7
  10
 695.000
  20
 208.000
  30
0.0
  40
 23.5000
   0
LINE
   8
LEVEL001
   6
CONTINUOUS
  62
7
  10
 697.500
  20
 549.436
  30
0.0
  11
 697.500
  21
 241.900
  31
0.0
   0
LINE
   8
LEVEL001
   6
CONTINUOUS
  62
7
  10
 692.500
  20
 241.808
  30
0.0
  11
 692.500
  21
 549.436
  31
0.0
   0
ARC
   8
LEVEL001
   6
CONTINUOUS
  62
7
  10
 636.000
  20
 201.588
  30
0.0
  40
 1.00000
  50
 95.2380
  51
 180.001
   0
ARC
   8
LEVEL001
   6
CONTINUOUS
  62
7
  10
 636.000
  20
 153.500
  30
0.0
  40
 1.00000
  50
 180.000
  51
 269.999
   0
LINE
   8
LEVEL001
   6
CONTINUOUS
  62
7
  10
 635.000
  20
 201.587
  30
0.0
  11
 635.000
  21
 153.500
  31
0.0
   0
ARC
   8
LEVEL001
   6
CONTINUOUS
  62
7
  10
 754.000
  20
 201.587
  30
0.0
  40
 1.00000
  50
 0.159671E-2
  51
 84.7620
   0
ARC
   8
LEVEL001
   6
CONTINUOUS
  62
7
  10
 754.000
  20
 153.500
  30
0.0
  40
 1.00000
  50
 270.001
  51
 0.435432E-3
   0
LINE
   8
LEVEL001
   6
CONTINUOUS
  62
7
  10
 755.000
  20
 201.588
  30
0.0
  11
 755.000
  21
 153.500
  31
0.0
   0
ARC
   8
LEVEL001
   6
CONTINUOUS
  62
7
  10
 652.953
  20
 214.188
  30
0.0
  40
 10.0000
  50
 275.238
  51
 351.629
   0
LINE
   8
LEVEL001
   6
CONTINUOUS
  62
7
  10
 635.909
  20
 202.583
  30
0.0
  11
 653.866
  21
 204.229
  31
0.0
   0
ARC
   8
LEVEL001
   6
CONTINUOUS
  62
7
  10
 652.953
  20
 214.188
  30
0.0
  40
 8.60000
  50
 275.238
  51
 351.628
   0
ARC
   8
LEVEL001
   6
CONTINUOUS
  62
7
  10
 737.047
  20
 214.188
  30
0.0
  40
 8.60000
  50
 188.371
  51
 264.763
   0
ARC
   8
LEVEL001
   6
CONTINUOUS
  62
7
  10
 695.000
  20
 208.000
  30
0.0
  40
 33.9000
  50
 8.37164
  51
 171.628
   0
ARC
   8
LEVEL001
   6
CONTINUOUS
  62
7
  10
 737.047
  20
 214.188
  30
0.0
  40
 10.0000
  50
 188.371
  51
 264.762
   0
LINE
   8
LEVEL001
   6
CONTINUOUS
  62
7
  10
 736.134
  20
 204.229
  30
0.0
  11
 754.091
  21
 202.583
  31
0.0
   0
ARC
   8
LEVEL001
   6
CONTINUOUS
  62
7
  10
 695.000
  20
 208.000
  30
0.0
  40
 32.5000
  50
 8.37126
  51
 171.629
   0
LINE
   8
LEVEL001
   6
CONTINUOUS
  62
7
  10
 636.628
  20
 202.649
  30
0.0
  11
 636.500
  21
 204.043
  31
0.0
   0
LINE
   8
LEVEL001
   6
CONTINUOUS
  62
7
  10
 753.372
  20
 202.649
  30
0.0
  11
 753.500
  21
 204.043
  31
0.0
   0
LINE
   8
LEVEL001
   6
CONTINUOUS
  62
7
  10
 736.262
  20
 205.624
  30
0.0
  11
 753.500
  21
 204.043
  31
0.0
   0
LINE
   8
LEVEL001
   6
CONTINUOUS
  62
7
  10
 636.500
  20
 204.043
  30
0.0
  11
 653.738
  21
 205.624
  31
0.0
   0
ARC
   8
LEVEL001
   6
CONTINUOUS
  62
7
  10
 645.183
  20
 202.831
  30
0.0
  40
 5.40000
  50
 95.2376
  51
 129.185
   0
ARC
   8
LEVEL001
   6
CONTINUOUS
  62
7
  10
 643.919
  20
 204.381
  30
0.0
  40
 3.40000
  50
 129.185
  51
 179.483
   0
ARC
   8
LEVEL001
   6
CONTINUOUS
  62
7
  10
 645.183
  20
 202.831
  30
0.0
  40
 5.40000
  50
 61.2915
  51
 95.2389
   0
ARC
   8
LEVEL001
   6
CONTINUOUS
  62
7
  10
 646.143
  20
 204.585
  30
0.0
  40
 3.40000
  50
 10.9934
  51
 61.2913
   0
ARC
   8
LEVEL001
   6
CONTINUOUS
  62
7
  10
 695.000
  20
 208.000
  30
0.0
  40
 49.9367
  50
 95.9637
  51
 179.737
   0
ARC
   8
LEVEL001
   6
CONTINUOUS
  62
7
  10
 744.817
  20
 202.831
  30
0.0
  40
 5.40000
  50
 50.8154
  51
 84.7624
   0
ARC
   8
LEVEL001
   6
CONTINUOUS
  62
7
  10
 746.081
  20
 204.381
  30
0.0
  40
 3.40000
  50
 0.517102
  51
 50.8152
   0
ARC
   8
LEVEL001
   6
CONTINUOUS
  62
7
  10
 744.817
  20
 202.831
  30
0.0
  40
 5.40000
  50
 84.7611
  51
 118.708
   0
ARC
   8
LEVEL001
   6
CONTINUOUS
  62
7
  10
 743.857
  20
 204.585
  30
0.0
  40
 3.40000
  50
 118.709
  51
 169.007
   0
ARC
   8
LEVEL001
   6
CONTINUOUS
  62
7
  10
 695.000
  20
 208.000
  30
0.0
  40
 49.9367
  50
 0.237220
  51
 84.0363
   0
LINE
   8
LEVEL001
   6
DASHDOT
  62
1
  10
 644.530
  20
 209.957
  30
0.0
  11
 645.893
  21
 195.082
  31
0.0
   0
LINE
   8
LEVEL001
   6
DASHDOT
  62
1
  10
 745.470
  20
 209.957
  30
0.0
  11
 744.107
  21
 195.082
  31
0.0
   0
ARC
   8
LEVEL001
   6
CONTINUOUS
  62
7
  10
 669.500
  20
 113.376
  30
0.0
  40
 2.00000
  50
 180.000
  51
 254.918
   0
ARC
   8
LEVEL001
   6
CONTINUOUS
  62
7
  10
 720.500
  20
 113.376
  30
0.0
  40
 2.00000
  50
 285.081
  51
 0.124399E-3
   0
ARC
   8
LEVEL001
   6
CONTINUOUS
  62
7
  10
 695.000
  20
 208.000
  30
0.0
  40
 100.000
  50
 254.918
  51
 285.082
   0
LINE
   8
LEVEL001
   6
CONTINUOUS
  62
7
  10
 667.500
  20
 113.376
  30
0.0
  11
 667.500
  21
 120.944
  31
0.0
   0
LINE
   8
LEVEL001
   6
CONTINUOUS
  62
7
  10
 722.500
  20
 120.944
  30
0.0
  11
 722.500
  21
 113.376
  31
0.0
   0
ARC
   8
LEVEL001
   6
CONTINUOUS
  62
7
  10
 695.000
  20
 208.000
  30
0.0
  40
 90.0000
  50
 253.070
  51
 286.930
   0
ARC
   8
LEVEL001
   6
CONTINUOUS
  62
7
  10
 669.000
  20
 122.880
  30
0.0
  40
 1.00000
  50
 255.522
  51
0.0
   0
ARC
   8
LEVEL001
   6
CONTINUOUS
  62
7
  10
 668.500
  20
 120.944
  30
0.0
  40
 1.00000
  50
 75.5216
  51
 180.000
   0
ARC
   8
LEVEL001
   6
CONTINUOUS
  62
7
  10
 721.000
  20
 122.880
  30
0.0
  40
 1.00000
  50
 180.000
  51
 284.476
   0
ARC
   8
LEVEL001
   6
CONTINUOUS
  62
7
  10
 721.500
  20
 120.944
  30
0.0
  40
 1.00000
  50
 0.855054E-3
  51
 104.476
   0
LINE
   8
LEVEL001
   6
CONTINUOUS
  62
7
  10
 614.500
  20
 117.436
  30
0.0
  11
 667.500
  21
 117.436
  31
0.0
   0
LINE
   8
LEVEL001
   6
CONTINUOUS
  62
7
  10
 722.500
  20
 117.436
  30
0.0
  11
 775.500
  21
 117.436
  31
0.0
   0
ARC
   8
LEVEL001
   6
CONTINUOUS
  62
7
  10
 663.328
  20
 138.500
  30
0.0
  40
 8.00000
  50
 189.040
  51
 270.000
   0
ARC
   8
LEVEL001
   6
CONTINUOUS
  62
7
  10
 648.733
  20
 147.500
  30
0.0
  40
 5.00000
  50
 9.03949
  51
 89.9999
   0
LINE
   8
LEVEL001
   6
CONTINUOUS
  62
7
  10
 653.670
  20
 148.286
  30
0.0
  11
 655.427
  21
 137.243
  31
0.0
   0
ARC
   8
LEVEL001
   6
CONTINUOUS
  62
7
  10
 665.000
  20
 125.500
  30
0.0
  40
 5.00000
  50
 0.901583E-4
  51
 90.0002
   0
LINE
   8
LEVEL001
   6
CONTINUOUS
  62
7
  10
 663.328
  20
 130.500
  30
0.0
  11
 665.000
  21
 130.500
  31
0.0
   0
LINE
   8
LEVEL001
   6
CONTINUOUS
  62
7
  10
 654.283
  20
 144.436
  30
0.0
  11
 619.000
  21
 144.436
  31
0.0
   0
LINE
   8
LEVEL001
   6
CONTINUOUS
  62
7
  10
 667.500
  20
 120.944
  30
0.0
  11
 667.500
  21
 129.436
  31
0.0
   0
LINE
   8
LEVEL001
   6
CONTINUOUS
  62
7
  10
 659.573
  20
 131.436
  30
0.0
  11
 624.150
  21
 131.436
  31
0.0
   0
LINE
   8
LEVEL001
   6
CONTINUOUS
  62
7
  10
 668.084
  20
 129.436
  30
0.0
  11
 667.500
  21
 129.436
  31
0.0
   0
ARC
   8
LEVEL001
   6
CONTINUOUS
  62
7
  10
 769.904
  20
 105.043
  30
0.0
  40
 50.0000
  50
 108.171
  51
 161.457
   0
LINE
   8
LEVEL001
   6
CONTINUOUS
  62
7
  10
 769.500
  20
 144.436
  30
0.0
  11
 739.111
  21
 144.436
  31
0.0
   0
LINE
   8
LEVEL001
   6
CONTINUOUS
  62
7
  10
 727.437
  20
 131.436
  30
0.0
  11
 765.850
  21
 131.436
  31
0.0
   0
ARC
   8
LEVEL001
   6
CONTINUOUS
  62
7
  10
 723.000
  20
 149.500
  30
0.0
  40
 3.00000
  50
 90.0000
  51
 180.000
   0
LINE
   8
LEVEL001
   6
CONTINUOUS
  62
7
  10
 723.000
  20
 152.500
  30
0.0
  11
 754.000
  21
 152.500
  31
0.0
   0
ARC
   8
LEVEL001
   6
CONTINUOUS
  62
7
  10
 667.000
  20
 149.500
  30
0.0
  40
 3.00000
  50
 0.113991E-10
  51
 90.0000
   0
LINE
   8
LEVEL001
   6
CONTINUOUS
  62
7
  10
 636.000
  20
 152.500
  30
0.0
  11
 667.000
  21
 152.500
  31
0.0
   0
CIRCLE
   8
LEVEL001
   6
CONTINUOUS
  62
7
  10
 695.000
  20
 128.000
  30
0.0
  40
 5.00000
   0
LINE
   8
LEVEL001
   6
DASHDOT
  62
1
  10
 685.000
  20
 128.000
  30
0.0
  11
 705.000
  21
 128.000
  31
0.0
   0
LINE
   8
LEVEL001
   6
DASHDOT
  62
1
  10
 630.000
  20
 177.500
  30
0.0
  11
 775.500
  21
 177.500
  31
0.0
   0
ARC
   8
LEVEL001
   6
CONTINUOUS
  62
7
  10
 632.500
  20
 193.250
  30
0.0
  40
 1.50000
  50
 90.0000
  51
 180.000
   0
LINE
   8
LEVEL001
   6
CONTINUOUS
  62
7
  10
 632.500
  20
 194.750
  30
0.0
  11
 635.000
  21
 194.750
  31
0.0
   0
ARC
   8
LEVEL001
   6
CONTINUOUS
  62
7
  10
 632.500
  20
 161.750
  30
0.0
  40
 1.50000
  50
 180.000
  51
 270.000
   0
LINE
   8
LEVEL001
   6
CONTINUOUS
  62
7
  10
 631.000
  20
 193.250
  30
0.0
  11
 631.000
  21
 161.750
  31
0.0
   0
LINE
   8
LEVEL001
   6
CONTINUOUS
  62
7
  10
 632.500
  20
 160.250
  30
0.0
  11
 635.000
  21
 160.250
  31
0.0
   0
ARC
   8
LEVEL001
   6
CONTINUOUS
  62
7
  10
 769.500
  20
 193.250
  30
0.0
  40
 1.50000
  50
0.0
  51
 89.9983
   0
LINE
   8
LEVEL001
   6
CONTINUOUS
  62
7
  10
 755.000
  20
 194.750
  30
0.0
  11
 769.500
  21
 194.750
  31
0.0
   0
ARC
   8
LEVEL001
   6
CONTINUOUS
  62
7
  10
 769.500
  20
 161.750
  30
0.0
  40
 1.50000
  50
 270.002
  51
 0.268140E-7
   0
LINE
   8
LEVEL001
   6
CONTINUOUS
  62
7
  10
 771.000
  20
 193.250
  30
0.0
  11
 771.000
  21
 161.750
  31
0.0
   0
LINE
   8
LEVEL001
   6
CONTINUOUS
  62
7
  10
 755.000
  20
 160.250
  30
0.0
  11
 769.500
  21
 160.250
  31
0.0
   0
LINE
   8
LEVEL001
   6
CONTINUOUS
  62
7
  10
 769.500
  20
 144.436
  30
0.0
  11
 769.500
  21
 160.250
  31
0.0
   0
ARC
   8
LEVEL001
   6
CONTINUOUS
  62
7
  10
 695.000
  20
 188.000
  30
0.0
  40
 74.5000
  50
 5.19511
  51
 28.3463
   0
LINE
   8
LEVEL001
   6
CONTINUOUS
  62
7
  10
 746.890
  20
 599.430
  30
0.0
  11
 769.241
  21
 194.748
  31
0.0
   0
LINE
   8
LEVEL001
   6
DASHDOT
  62
1
  10
 695.000
  20
 100.000
  30
0.0
  11
 695.000
  21
 645.000
  31
0.0
   0
LINE
   8
LEVEL003
   6
CONTINUOUS
  62
3
  10
 221.500
  20
 640.436
  30
0.0
  11
 221.500
  21
 681.000
  31
0.0
   0
LINE
   8
LEVEL003
   6
CONTINUOUS
  62
3
  10
 308.500
  20
 640.436
  30
0.0
  11
 308.500
  21
 681.000
  31
0.0
   0
LINE
   8
LEVEL003
   6
CONTINUOUS
  62
3
  10
 221.500
  20
 675.000
  30
0.0
  11
 308.500
  21
 675.000
  31
0.0
   0
LINE
   8
LEVEL003
   6
CONTINUOUS
  62
3
  10
 230.500
  20
 673.500
  30
0.0
  11
 221.500
  21
 675.000
  31
0.0
   0
LINE
   8
LEVEL003
   6
CONTINUOUS
  62
3
  10
 221.500
  20
 675.000
  30
0.0
  11
 230.500
  21
 676.500
  31
0.0
   0
LINE
   8
LEVEL003
   6
CONTINUOUS
  62
3
  10
 221.500
  20
 675.000
  30
0.0
  11
 230.500
  21
 675.000
  31
0.0
   0
LINE
   8
LEVEL003
   6
CONTINUOUS
  62
3
  10
 299.500
  20
 676.500
  30
0.0
  11
 308.500
  21
 675.000
  31
0.0
   0
LINE
   8
LEVEL003
   6
CONTINUOUS
  62
3
  10
 308.500
  20
 675.000
  30
0.0
  11
 299.500
  21
 673.500
  31
0.0
   0
LINE
   8
LEVEL003
   6
CONTINUOUS
  62
3
  10
 308.500
  20
 675.000
  30
0.0
  11
 299.500
  21
 675.000
  31
0.0
   0
TEXT
   8
LEVEL003
  62
3
  10
 253.000
  20
 669.400
  30
0.0
  40
 12.0000
   1
%%c87
   7
STANDARD
  72
1
  11
 265.000
  21
 677.400
  31
0.0
  73
2
   0
LINE
   8
LEVEL003
   6
CONTINUOUS
  62
3
  10
 191.500
  20
 105.436
  30
0.0
  11
 191.500
  21
 69.0000
  31
0.0
   0
LINE
   8
LEVEL003
   6
CONTINUOUS
  62
3
  10
 338.500
  20
 105.436
  30
0.0
  11
 338.500
  21
 69.0000
  31
0.0
   0
LINE
   8
LEVEL003
   6
CONTINUOUS
  62
3
  10
 191.500
  20
 75.0000
  30
0.0
  11
 338.500
  21
 75.0000
  31
0.0
   0
LINE
   8
LEVEL003
   6
CONTINUOUS
  62
3
  10
 200.500
  20
 73.5000
  30
0.0
  11
 191.500
  21
 75.0000
  31
0.0
   0
LINE
   8
LEVEL003
   6
CONTINUOUS
  62
3
  10
 191.500
  20
 75.0000
  30
0.0
  11
 200.500
  21
 76.5000
  31
0.0
   0
LINE
   8
LEVEL003
   6
CONTINUOUS
  62
3
  10
 191.500
  20
 75.0000
  30
0.0
  11
 200.500
  21
 75.0000
  31
0.0
   0
LINE
   8
LEVEL003
   6
CONTINUOUS
  62
3
  10
 329.500
  20
 76.5000
  30
0.0
  11
 338.500
  21
 75.0000
  31
0.0
   0
LINE
   8
LEVEL003
   6
CONTINUOUS
  62
3
  10
 338.500
  20
 75.0000
  30
0.0
  11
 329.500
  21
 73.5000
  31
0.0
   0
LINE
   8
LEVEL003
   6
CONTINUOUS
  62
3
  10
 338.500
  20
 75.0000
  30
0.0
  11
 329.500
  21
 75.0000
  31
0.0
   0
TEXT
   8
LEVEL003
  62
3
  10
 250.000
  20
 69.4000
  30
0.0
  40
 12.0000
   1
%%c147
   7
STANDARD
  72
1
  11
 265.000
  21
 77.4000
  31
0.0
  73
2
   0
LINE
   8
LEVEL003
   6
CONTINUOUS
  62
3
  10
 191.500
  20
 105.436
  30
0.0
  11
 129.000
  21
 105.436
  31
0.0
   0
LINE
   8
LEVEL003
   6
CONTINUOUS
  62
3
  10
 221.500
  20
 640.436
  30
0.0
  11
 129.000
  21
 640.436
  31
0.0
   0
LINE
   8
LEVEL003
   6
CONTINUOUS
  62
3
  10
 135.000
  20
 105.436
  30
0.0
  11
 135.000
  21
 640.436
  31
0.0
   0
LINE
   8
LEVEL003
   6
CONTINUOUS
  62
3
  10
 136.500
  20
 114.436
  30
0.0
  11
 135.000
  21
 105.436
  31
0.0
   0
LINE
   8
LEVEL003
   6
CONTINUOUS
  62
3
  10
 135.000
  20
 105.436
  30
0.0
  11
 133.500
  21
 114.436
  31
0.0
   0
LINE
   8
LEVEL003
   6
CONTINUOUS
  62
3
  10
 135.000
  20
 105.436
  30
0.0
  11
 135.000
  21
 114.436
  31
0.0
   0
LINE
   8
LEVEL003
   6
CONTINUOUS
  62
3
  10
 133.500
  20
 631.436
  30
0.0
  11
 135.000
  21
 640.436
  31
0.0
   0
LINE
   8
LEVEL003
   6
CONTINUOUS
  62
3
  10
 135.000
  20
 640.436
  30
0.0
  11
 136.500
  21
 631.436
  31
0.0
   0
LINE
   8
LEVEL003
   6
CONTINUOUS
  62
3
  10
 135.000
  20
 640.436
  30
0.0
  11
 135.000
  21
 631.436
  31
0.0
   0
TEXT
   8
LEVEL003
  62
3
  10
 140.600
  20
 363.936
  30
0.0
  40
 12.0000
   1
535
  50
 90.0000
  41
 0.500000
   7
STANDARD
  72
1
  11
 132.600
  21
 372.936
  31
0.0
  73
2
   0
CIRCLE
   8
LEVEL003
   6
CONTINUOUS
  62
7
  10
 695.000
  20
 208.000
  30
0.0
  40
 15.0000
   0
CIRCLE
   8
LEVEL003
   6
CONTINUOUS
  62
7
  10
 692.000
  20
 224.700
  30
0.0
  40
 1.00000
   0
ARC
   8
LEVEL003
   6
CONTINUOUS
  62
7
  10
 691.000
  20
 226.100
  30
0.0
  40
 1.00000
  50
 90.0009
  51
 180.000
   0
ARC
   8
LEVEL003
   6
CONTINUOUS
  62
7
  10
 693.500
  20
 226.600
  30
0.0
  40
 0.500000
  50
 0.875941E-3
  51
 90.0017
   0
LINE
   8
LEVEL003
   6
CONTINUOUS
  62
7
  10
 693.500
  20
 227.100
  30
0.0
  11
 691.000
  21
 227.100
  31
0.0
   0
LINE
   8
LEVEL003
   6
CONTINUOUS
  62
7
  10
 694.000
  20
 226.600
  30
0.0
  11
 694.000
  21
 222.967
  31
0.0
   0
ARC
   8
LEVEL003
   6
CONTINUOUS
  62
7
  10
 689.000
  20
 223.655
  30
0.0
  40
 1.00000
  50
 289.757
  51
 0.179349E-3
   0
LINE
   8
LEVEL003
   6
CONTINUOUS
  62
7
  10
 690.000
  20
 226.100
  30
0.0
  11
 690.000
  21
 223.655
  31
0.0
   0
ARC
   8
LEVEL003
   6
CONTINUOUS
  62
7
  10
 695.000
  20
 206.950
  30
0.0
  40
 16.7500
  50
 109.757
  51
 270.000
   0
CIRCLE
   8
LEVEL003
   6
CONTINUOUS
  62
7
  10
 698.000
  20
 224.700
  30
0.0
  40
 1.00000
   0
ARC
   8
LEVEL003
   6
CONTINUOUS
  62
7
  10
 699.000
  20
 226.100
  30
0.0
  40
 1.00000
  50
0.0
  51
 89.9991
   0
ARC
   8
LEVEL003
   6
CONTINUOUS
  62
7
  10
 696.500
  20
 226.600
  30
0.0
  40
 0.500000
  50
 89.9983
  51
 179.999
   0
LINE
   8
LEVEL003
   6
CONTINUOUS
  62
7
  10
 696.500
  20
 227.100
  30
0.0
  11
 699.000
  21
 227.100
  31
0.0
   0
LINE
   8
LEVEL003
   6
CONTINUOUS
  62
7
  10
 696.000
  20
 226.600
  30
0.0
  11
 696.000
  21
 222.967
  31
0.0
   0
ARC
   8
LEVEL003
   6
CONTINUOUS
  62
7
  10
 701.000
  20
 223.655
  30
0.0
  40
 1.00000
  50
 180.000
  51
 250.243
   0
LINE
   8
LEVEL003
   6
CONTINUOUS
  62
7
  10
 700.000
  20
 226.100
  30
0.0
  11
 700.000
  21
 223.655
  31
0.0
   0
ARC
   8
LEVEL003
   6
CONTINUOUS
  62
7
  10
 695.000
  20
 206.950
  30
0.0
  40
 16.7500
  50
 270.000
  51
 70.2434
   0
LINE
   8
LEVEL003
   6
CONTINUOUS
  62
3
  10
 221.500
  20
 640.436
  30
0.0
  11
 159.000
  21
 640.436
  31
0.0
   0
LINE
   8
LEVEL003
   6
CONTINUOUS
  62
3
  10
 212.000
  20
 622.436
  30
0.0
  11
 159.000
  21
 622.436
  31
0.0
   0
LINE
   8
LEVEL003
   6
CONTINUOUS
  62
3
  10
 165.000
  20
 640.436
  30
0.0
  11
 165.000
  21
 622.436
  31
0.0
   0
LINE
   8
LEVEL003
   6
CONTINUOUS
  62
3
  10
 163.500
  20
 631.436
  30
0.0
  11
 165.000
  21
 640.436
  31
0.0
   0
LINE
   8
LEVEL003
   6
CONTINUOUS
  62
3
  10
 165.000
  20
 640.436
  30
0.0
  11
 166.500
  21
 631.436
  31
0.0
   0
LINE
   8
LEVEL003
   6
CONTINUOUS
  62
3
  10
 165.000
  20
 640.436
  30
0.0
  11
 165.000
  21
 631.436
  31
0.0
   0
LINE
   8
LEVEL003
   6
CONTINUOUS
  62
3
  10
 166.500
  20
 631.436
  30
0.0
  11
 165.000
  21
 622.436
  31
0.0
   0
LINE
   8
LEVEL003
   6
CONTINUOUS
  62
3
  10
 165.000
  20
 622.436
  30
0.0
  11
 163.500
  21
 631.436
  31
0.0
   0
LINE
   8
LEVEL003
   6
CONTINUOUS
  62
3
  10
 165.000
  20
 622.436
  30
0.0
  11
 165.000
  21
 631.436
  31
0.0
   0
TEXT
   8
LEVEL003
  62
3
  10
 170.600
  20
 625.436
  30
0.0
  40
 12.0000
   1
18
  50
 90.0000
  41
 0.500000
   7
STANDARD
  72
1
  11
 162.600
  21
 631.436
  31
0.0
  73
2
   0
TEXT
   8
LEVEL020
  62
6
  10
 435.000
  20
 765.000
  30
0.0
  40
 15.0000
   1
ストローク
   7
STANDARD
   0
TEXT
   8
LEVEL020
  62
6
  10
 435.000
  20
 786.000
  30
0.0
  40
 15.0000
   1
揚　　　力
   7
STANDARD
   0
TEXT
   8
LEVEL020
  62
6
  10
 690.000
  20
 765.000
  30
0.0
  40
 15.0000
   1
ｍｍ
  41
 0.700000
   7
STANDARD
   0
LINE
   8
LEVEL020
   6
CONTINUOUS
  62
6
  10
 435.000
  20
 804.000
  30
0.0
  11
 735.000
  21
 804.000
  31
0.0
   0
LINE
   8
LEVEL020
   6
CONTINUOUS
  62
6
  10
 435.000
  20
 783.000
  30
0.0
  11
 735.000
  21
 783.000
  31
0.0
   0
LINE
   8
LEVEL020
   6
CONTINUOUS
  62
6
  10
 435.000
  20
 762.000
  30
0.0
  11
 735.000
  21
 762.000
  31
0.0
   0
TEXT
   8
LEVEL020
  62
6
  10
 435.000
  20
 807.000
  30
0.0
  40
 15.0000
   1
形　　　式
   7
STANDARD
   0
TEXT
   8
LEVEL020
  62
6
  10
 435.000
  20
 828.000
  30
0.0
  40
 15.0000
   1
仕　　　様
   7
STANDARD
   0
LINE
   8
LEVEL020
   6
CONTINUOUS
  62
6
  10
 435.000
  20
 825.000
  30
0.0
  11
 510.000
  21
 825.000
  31
0.0
   0
TEXT
   8
LEVEL020
  62
6
  10
 435.000
  20
 744.000
  30
0.0
  40
 15.0000
   1
最低高さ
   7
STANDARD
   0
TEXT
   8
LEVEL020
  62
6
  10
 690.000
  20
 744.000
  30
0.0
  40
 15.0000
   1
ｍｍ
  41
 0.700000
   7
STANDARD
   0
LINE
   8
LEVEL020
   6
CONTINUOUS
  62
6
  10
 435.000
  20
 741.000
  30
0.0
  11
 735.000
  21
 741.000
  31
0.0
   0
LINE
   8
LEVEL020
   6
CONTINUOUS
  62
6
  10
 435.000
  20
 720.000
  30
0.0
  11
 735.000
  21
 720.000
  31
0.0
   0
LINE
   8
LEVEL020
   6
CONTINUOUS
  62
6
  10
 435.000
  20
 699.000
  30
0.0
  11
 735.000
  21
 699.000
  31
0.0
   0
TEXT
   8
LEVEL020
  62
6
  10
 435.000
  20
 702.000
  30
0.0
  40
 15.0000
   1
付　属　品
   7
STANDARD
   0
TEXT
   8
LEVEL020
  62
6
  10
 606.000
  20
 702.000
  30
0.0
  40
 15.0000
   1
　　　　　　１
  41
 0.700000
   7
STANDARD
   0
TEXT
   8
LEVEL020
  62
6
  10
 690.000
  20
 702.000
  30
0.0
  40
 15.0000
   1
本
  41
 0.500000
   7
STANDARD
   0
TEXT
   8
LEVEL020
  62
6
  10
 690.000
  20
 723.000
  30
0.0
  40
 15.0000
   1
ｋｇ
  41
 0.700000
   7
STANDARD
   0
TEXT
   8
LEVEL020
  62
6
  10
 606.000
  20
 807.000
  30
0.0
  40
 15.0000
   1
　　　ＪＪ－３５３５
  41
 0.700000
   7
STANDARD
   0
TEXT
   8
LEVEL020
  62
6
  10
 606.000
  20
 765.000
  30
0.0
  40
 15.0000
   1
　　　　３５０
  41
 0.700000
   7
STANDARD
   0
TEXT
   8
LEVEL020
  62
6
  10
 606.000
  20
 744.000
  30
0.0
  40
 15.0000
   1
　　　　５３５
  41
 0.700000
   7
STANDARD
   0
TEXT
   8
LEVEL020
  62
6
  10
 606.000
  20
 723.000
  30
0.0
  40
 15.0000
   1
　　　約　３７
  41
 0.700000
   7
STANDARD
   0
TEXT
   8
LEVEL020
  62
6
  10
 520.500
  20
 702.000
  30
0.0
  40
 15.0000
   1
ハンドル棒（%%c３２×７００Ｌ）
  41
 0.600000
   7
STANDARD
   0
LINE
   8
LEVEL001
   6
DASHDOT
  62
1
  10
 666.000
  20
 635.218
  30
0.0
  11
 666.000
  21
 645.000
  31
0.0
   0
LINE
   8
LEVEL001
   6
DASHDOT
  62
1
  10
 680.500
  20
 635.218
  30
0.0
  11
 680.500
  21
 645.000
  31
0.0
   0
LINE
   8
LEVEL001
   6
DASHDOT
  62
1
  10
 709.500
  20
 635.218
  30
0.0
  11
 709.500
  21
 645.000
  31
0.0
   0
LINE
   8
LEVEL001
   6
DASHDOT
  62
1
  10
 724.000
  20
 635.218
  30
0.0
  11
 724.000
  21
 645.000
  31
0.0
   0
LINE
   8
LEVEL001
   6
DASHDOT
  62
1
  10
 677.500
  20
 110.000
  30
0.0
  11
 677.500
  21
 102.718
  31
0.0
   0
LINE
   8
LEVEL001
   6
DASHDOT
  62
1
  10
 657.500
  20
 110.000
  30
0.0
  11
 657.500
  21
 102.718
  31
0.0
   0
LINE
   8
LEVEL001
   6
DASHDOT
  62
1
  10
 640.000
  20
 110.000
  30
0.0
  11
 640.000
  21
 102.718
  31
0.0
   0
LINE
   8
LEVEL001
   6
DASHDOT
  62
1
  10
 712.500
  20
 110.000
  30
0.0
  11
 712.500
  21
 102.718
  31
0.0
   0
LINE
   8
LEVEL001
   6
DASHDOT
  62
1
  10
 732.500
  20
 110.000
  30
0.0
  11
 732.500
  21
 102.718
  31
0.0
   0
LINE
   8
LEVEL001
   6
DASHDOT
  62
1
  10
 750.000
  20
 110.000
  30
0.0
  11
 750.000
  21
 102.718
  31
0.0
   0
TEXT
   8
LEVEL020
  62
6
  10
 606.000
  20
 786.000
  30
0.0
  40
 15.0000
   1
　　　　３５０
  41
 0.700000
   7
STANDARD
   0
TEXT
   8
LEVEL020
  62
6
  10
 690.000
  20
 786.000
  30
0.0
  40
 15.0000
   1
ｋＮ
  41
 0.700000
   7
STANDARD
   0
TEXT
   8
LEVEL020
  62
6
  10
 435.000
  20
 723.000
  30
0.0
  40
 15.0000
   1
質　　　量
   7
STANDARD
   0
ARC
   8
LEVEL001
   6
CONTINUOUS
  62
7
  10
 667.000
  20
 169.966
  30
0.0
  40
 3.00000
  50
0.0
  51
 90.0000
   0
ARC
   8
LEVEL001
   6
CONTINUOUS
  62
7
  10
 723.000
  20
 169.966
  30
0.0
  40
 3.00000
  50
 90.0000
  51
 180.000
   0
LINE
   8
LEVEL003
   6
CONTINUOUS
  62
7
  10
 664.693
  20
 177.500
  30
0.0
  11
 662.693
  21
 179.500
  31
0.0
   0
LINE
   8
LEVEL003
   6
CONTINUOUS
  62
7
  10
 662.693
  20
 179.500
  30
0.0
  11
 662.693
  21
 178.500
  31
0.0
   0
LINE
   8
LEVEL003
   6
CONTINUOUS
  62
7
  10
 662.693
  20
 178.500
  30
0.0
  11
 655.693
  21
 178.500
  31
0.0
   0
LINE
   8
LEVEL003
   6
CONTINUOUS
  62
7
  10
 655.693
  20
 178.500
  30
0.0
  11
 655.693
  21
 176.500
  31
0.0
   0
LINE
   8
LEVEL003
   6
CONTINUOUS
  62
7
  10
 655.693
  20
 176.500
  30
0.0
  11
 662.693
  21
 176.500
  31
0.0
   0
LINE
   8
LEVEL003
   6
CONTINUOUS
  62
7
  10
 662.693
  20
 176.500
  30
0.0
  11
 662.693
  21
 175.500
  31
0.0
   0
LINE
   8
LEVEL003
   6
CONTINUOUS
  62
7
  10
 662.693
  20
 175.500
  30
0.0
  11
 664.693
  21
 177.500
  31
0.0
   0
LINE
   8
LEVEL003
   6
CONTINUOUS
  62
7
  10
 713.420
  20
 177.500
  30
0.0
  11
 715.420
  21
 179.500
  31
0.0
   0
LINE
   8
LEVEL003
   6
CONTINUOUS
  62
7
  10
 715.420
  20
 179.500
  30
0.0
  11
 715.420
  21
 178.500
  31
0.0
   0
LINE
   8
LEVEL003
   6
CONTINUOUS
  62
7
  10
 715.420
  20
 178.500
  30
0.0
  11
 722.420
  21
 178.500
  31
0.0
   0
LINE
   8
LEVEL003
   6
CONTINUOUS
  62
7
  10
 722.420
  20
 178.500
  30
0.0
  11
 722.420
  21
 176.500
  31
0.0
   0
LINE
   8
LEVEL003
   6
CONTINUOUS
  62
7
  10
 722.420
  20
 176.500
  30
0.0
  11
 715.420
  21
 176.500
  31
0.0
   0
LINE
   8
LEVEL003
   6
CONTINUOUS
  62
7
  10
 715.420
  20
 176.500
  30
0.0
  11
 715.420
  21
 175.500
  31
0.0
   0
LINE
   8
LEVEL003
   6
CONTINUOUS
  62
7
  10
 715.420
  20
 175.500
  30
0.0
  11
 713.420
  21
 177.500
  31
0.0
   0
ARC
   8
LEVEL003
   6
CONTINUOUS
  62
7
  10
 679.000
  20
 167.200
  30
0.0
  40
 2.00000
  50
 0.814222E-11
  51
 90.0000
   0
ARC
   8
LEVEL003
   6
CONTINUOUS
  62
7
  10
 711.000
  20
 167.200
  30
0.0
  40
 2.00000
  50
 90.0000
  51
 180.000
   0
ARC
   8
LEVEL003
   6
CONTINUOUS
  62
7
  10
 684.000
  20
 157.000
  30
0.0
  40
 3.00000
  50
 180.000
  51
 270.000
   0
LINE
   8
LEVEL003
   6
CONTINUOUS
  62
7
  10
 684.000
  20
 154.000
  30
0.0
  11
 706.000
  21
 154.000
  31
0.0
   0
ARC
   8
LEVEL003
   6
CONTINUOUS
  62
7
  10
 706.000
  20
 157.000
  30
0.0
  40
 3.00000
  50
 270.000
  51
0.0
   0
LINE
   8
LEVEL003
   6
CONTINUOUS
  62
7
  10
 709.000
  20
 157.000
  30
0.0
  11
 709.000
  21
 167.200
  31
0.0
   0
LINE
   8
LEVEL003
   6
CONTINUOUS
  62
7
  10
 681.000
  20
 157.000
  30
0.0
  11
 681.000
  21
 167.200
  31
0.0
   0
CIRCLE
   8
0
   6
CONTINUOUS
  62
7
  10
 697.523
  20
 160.040
  30
0.0
  40
 3.33333
   0
LINE
   8
0
   6
CONTINUOUS
  62
7
  10
 690.980
  20
 156.706
  30
0.0
  11
 695.214
  21
 164.040
  31
0.0
   0
LINE
   8
0
   6
CONTINUOUS
  62
7
  10
 695.214
  20
 164.040
  30
0.0
  11
 703.682
  21
 164.040
  31
0.0
   0
LINE
   8
0
   6
CONTINUOUS
  62
7
  10
 703.682
  20
 164.040
  30
0.0
  11
 704.644
  21
 165.706
  31
0.0
   0
LINE
   8
0
   6
CONTINUOUS
  62
7
  10
 704.644
  20
 165.706
  30
0.0
  11
 689.510
  21
 165.706
  31
0.0
   0
LINE
   8
0
   6
CONTINUOUS
  62
7
  10
 689.510
  20
 165.706
  30
0.0
  11
 684.313
  21
 156.706
  31
0.0
   0
LINE
   8
0
   6
CONTINUOUS
  62
7
  10
 684.313
  20
 156.706
  30
0.0
  11
 690.980
  21
 156.706
  31
0.0
   0
TEXT
   8
LEVEL003
  62
7
  10
 652.036
  20
 181.702
  30
0.0
  40
 8.10000
   1
ＵＰ
  50
 180.000
  41
 0.851852
   7
STANDARD
   0
TEXT
   8
LEVEL003
  62
7
  10
 753.788
  20
 181.702
  30
0.0
  40
 8.10000
   1
ＤＯＷＮ
  50
 180.000
  41
 0.851852
   7
STANDARD
   0
LINE
   8
LEVEL001
   6
CONTINUOUS
  62
7
  10
 670.000
  20
 169.966
  30
0.0
  11
 670.000
  21
 122.880
  31
0.0
   0
LINE
   8
LEVEL001
   6
CONTINUOUS
  62
7
  10
 720.000
  20
 169.966
  30
0.0
  11
 720.000
  21
 122.880
  31
0.0
   0
ARC
   8
LEVEL003
   6
CONTINUOUS
  62
7
  10
 188.500
  20
 189.436
  30
0.0
  40
 2.00000
  50
 0.407111E-11
  51
 57.3987
   0
ARC
   8
LEVEL001
   6
CONTINUOUS
  62
7
  10
 186.153
  20
 198.165
  30
0.0
  40
 5.00000
  50
 310.033
  51
 352.654
   0
ARC
   8
LEVEL003
   6
CONTINUOUS
  62
7
  10
 190.655
  20
 192.806
  30
0.0
  40
 2.00000
  50
 130.033
  51
 237.399
   0
ARC
   8
LEVEL003
   6
CONTINUOUS
  62
7
  10
 188.500
  20
 155.436
  30
0.0
  40
 2.00000
  50
 300.000
  51
 0.284978E-10
   0
ARC
   8
LEVEL003
   6
CONTINUOUS
  62
7
  10
 185.500
  20
 147.073
  30
0.0
  40
 5.00000
  50
 0.977066E-12
  51
 44.4153
   0
ARC
   8
LEVEL003
   6
CONTINUOUS
  62
7
  10
 190.500
  20
 151.972
  30
0.0
  40
 2.00000
  50
 120.000
  51
 224.415
   0
LINE
   8
LEVEL001
   6
CONTINUOUS
  62
7
  10
 190.500
  20
 144.436
  30
0.0
  11
 190.500
  21
 147.073
  31
0.0
   0
LINE
   8
LEVEL001
   6
CONTINUOUS
  62
7
  10
 190.500
  20
 155.436
  30
0.0
  11
 190.500
  21
 188.000
  31
0.0
   0
LINE
   8
LEVEL001
   6
CONTINUOUS
  62
7
  10
 190.500
  20
 188.000
  30
0.0
  11
 190.533
  21
 190.210
  31
0.0
   0
LINE
   8
LEVEL001
   6
CONTINUOUS
  62
7
  10
 190.617
  20
 195.915
  30
0.0
  11
 191.759
  21
 272.874
  31
0.0
   0
ARC
   8
LEVEL001
   6
CONTINUOUS
  62
7
  10
 265.000
  20
 188.000
  30
0.0
  40
 74.5000
  50
 151.654
  51
 172.654
   0
ARC
   8
LEVEL003
   6
CONTINUOUS
  62
7
  10
 747.757
  20
 390.436
  30
0.0
  40
 2.00000
  50
 1.41122
  51
 90.0000
   0
LINE
   8
LEVEL003
   6
CONTINUOUS
  62
7
  10
 749.756
  20
 390.485
  30
0.0
  11
 751.505
  21
 319.485
  31
0.0
   0
ARC
   8
LEVEL003
   6
CONTINUOUS
  62
7
  10
 749.506
  20
 319.436
  30
0.0
  40
 2.00000
  50
 270.000
  51
 1.41122
   0
ARC
   8
LEVEL003
   6
CONTINUOUS
  62
7
  10
 720.079
  20
 390.436
  30
0.0
  40
 2.00000
  50
 90.0000
  51
 181.411
   0
LINE
   8
LEVEL003
   6
CONTINUOUS
  62
7
  10
 718.079
  20
 390.387
  30
0.0
  11
 719.828
  21
 319.387
  31
0.0
   0
ARC
   8
LEVEL003
   6
CONTINUOUS
  62
7
  10
 721.828
  20
 319.436
  30
0.0
  40
 2.00000
  50
 181.411
  51
 270.000
   0
LINE
   8
LEVEL003
   6
CONTINUOUS
  62
7
  10
 719.571
  20
 392.436
  30
0.0
  11
 747.757
  21
 392.436
  31
0.0
   0
ARC
   8
LEVEL003
   6
CONTINUOUS
  62
7
  10
 719.571
  20
 395.436
  30
0.0
  40
 3.00000
  50
 181.071
  51
 270.000
   0
LINE
   8
LEVEL003
   6
CONTINUOUS
  62
7
  10
 721.085
  20
 317.436
  30
0.0
  11
 749.506
  21
 317.436
  31
0.0
   0
ARC
   8
LEVEL003
   6
CONTINUOUS
  62
7
  10
 721.085
  20
 314.436
  30
0.0
  40
 3.00000
  50
 90.0000
  51
 181.071
   0
LINE
   8
LEVEL003
   6
CONTINUOUS
  62
7
  10
 716.665
  20
 390.360
  30
0.0
  11
 717.993
  21
 319.352
  31
0.0
   0
ARC
   8
LEVEL003
   6
CONTINUOUS
  62
7
  10
 747.757
  20
 395.436
  30
0.0
  40
 3.00000
  50
 181.071
  51
 270.000
   0
ARC
   8
LEVEL003
   6
CONTINUOUS
  62
7
  10
 749.506
  20
 314.436
  30
0.0
  40
 3.00000
  50
 90.0000
  51
 181.071
   0
LINE
   8
LEVEL001
   6
CONTINUOUS
  62
7
  10
 215.000
  20
 622.436
  30
0.0
  11
 315.000
  21
 622.436
  31
0.0
   0
LINE
   8
LEVEL001
   6
CONTINUOUS
  62
7
  10
 382.500
  20
 233.500
  30
0.0
  11
 382.500
  21
 182.500
  31
0.0
   0
LINE
   8
LEVEL003
   6
CONTINUOUS
  62
7
  10
 380.503
  20
 235.616
  30
0.0
  11
 380.503
  21
 180.384
  31
0.0
   0
ARC
   8
LEVEL001
   6
CONTINUOUS
  62
7
  10
 432.374
  20
 110.000
  30
0.0
  40
 2.00000
  50
 270.000
  51
 0.521102E-10
   0
ARC
   8
LEVEL001
   6
CONTINUOUS
  62
7
  10
 433.374
  20
 117.000
  30
0.0
  40
 1.00000
  50
 359.998
  51
 89.9991
   0
ARC
   8
LEVEL001
   6
CONTINUOUS
  62
7
  10
 432.874
  20
 119.000
  30
0.0
  40
 1.00000
  50
 180.001
  51
 269.999
   0
LINE
   8
LEVEL001
   6
CONTINUOUS
  62
7
  10
 432.874
  20
 118.000
  30
0.0
  11
 433.374
  21
 118.000
  31
0.0
   0
LINE
   8
LEVEL001
   6
DASHDOT
  62
1
  10
 420.000
  20
 128.000
  30
0.0
  11
 465.000
  21
 128.000
  31
0.0
   0
ARC
   8
LEVEL001
   6
CONTINUOUS
  62
7
  10
 421.874
  20
 174.377
  30
0.0
  40
 10.0000
  50
0.0
  51
 18.1960
   0
LINE
   8
LEVEL001
   6
CONTINUOUS
  62
7
  10
 382.374
  20
 182.500
  30
0.0
  11
 382.374
  21
 177.500
  31
0.0
   0
ARC
   8
LEVEL001
   6
CONTINUOUS
  62
7
  10
 381.374
  20
 110.000
  30
0.0
  40
 2.00000
  50
 180.001
  51
 270.000
   0
ARC
   8
LEVEL001
   6
CONTINUOUS
  62
7
  10
 380.874
  20
 119.000
  30
0.0
  40
 1.00000
  50
 270.001
  51
0.0
   0
LINE
   8
LEVEL001
   6
CONTINUOUS
  62
7
  10
 380.874
  20
 118.000
  30
0.0
  11
 380.374
  21
 118.000
  31
0.0
   0
ARC
   8
LEVEL001
   6
CONTINUOUS
  62
7
  10
 391.874
  20
 174.377
  30
0.0
  40
 10.0000
  50
 161.804
  51
 180.000
   0
LINE
   8
LEVEL001
   6
CONTINUOUS
  62
7
  10
 381.874
  20
 174.377
  30
0.0
  11
 381.874
  21
 119.000
  31
0.0
   0
ARC
   8
LEVEL001
   6
CONTINUOUS
  62
7
  10
 380.374
  20
 117.000
  30
0.0
  40
 1.00000
  50
 90.0009
  51
 180.002
   0
LINE
   8
LEVEL001
   6
DASHDOT
  62
1
  10
 376.874
  20
 177.500
  30
0.0
  11
 436.874
  21
 177.500
  31
0.0
   0
LINE
   8
LEVEL001
   6
CONTINUOUS
  62
7
  10
 443.009
  20
 132.179
  30
0.0
  11
 459.095
  21
 130.992
  31
0.0
   0
ARC
   8
LEVEL001
   6
CONTINUOUS
  62
7
  10
 443.376
  20
 137.165
  30
0.0
  40
 5.00000
  50
 240.154
  51
 265.781
   0
LINE
   8
LEVEL001
   6
CONTINUOUS
  62
7
  10
 440.888
  20
 132.828
  30
0.0
  11
 434.386
  21
 136.559
  31
0.0
   0
ARC
   8
LEVEL001
   6
CONTINUOUS
  62
7
  10
 436.874
  20
 140.896
  30
0.0
  40
 5.00000
  50
 180.000
  51
 240.154
   0
ARC
   8
LEVEL001
   6
DOT
  62
3
  10
 420.874
  20
 153.750
  30
0.0
  40
 2.50000
  50
0.0
  51
 89.9996
   0
LINE
   8
LEVEL001
   6
DOT
  62
3
  10
 420.874
  20
 156.250
  30
0.0
  11
 406.874
  21
 156.250
  31
0.0
   0
ARC
   8
LEVEL001
   6
DOT
  62
3
  10
 425.874
  20
 110.500
  30
0.0
  40
 2.50000
  50
 179.999
  51
 270.000
   0
LINE
   8
LEVEL001
   6
DOT
  62
3
  10
 423.374
  20
 110.500
  30
0.0
  11
 423.374
  21
 153.750
  31
0.0
   0
ARC
   8
LEVEL001
   6
DOT
  62
3
  10
 392.874
  20
 153.750
  30
0.0
  40
 2.50000
  50
 90.0004
  51
 180.001
   0
LINE
   8
LEVEL001
   6
DOT
  62
3
  10
 392.874
  20
 156.250
  30
0.0
  11
 406.874
  21
 156.250
  31
0.0
   0
ARC
   8
LEVEL001
   6
DOT
  62
3
  10
 387.874
  20
 110.500
  30
0.0
  40
 2.50000
  50
 270.000
  51
 0.696680E-3
   0
LINE
   8
LEVEL001
   6
DOT
  62
3
  10
 390.374
  20
 110.500
  30
0.0
  11
 390.374
  21
 153.750
  31
0.0
   0
ARC
   8
LEVEL001
   6
CONTINUOUS
  62
7
  10
 443.376
  20
 118.835
  30
0.0
  40
 5.00000
  50
 94.2191
  51
 119.846
   0
LINE
   8
LEVEL001
   6
CONTINUOUS
  62
7
  10
 440.888
  20
 123.172
  30
0.0
  11
 436.886
  21
 120.875
  31
0.0
   0
ARC
   8
LEVEL001
   6
CONTINUOUS
  62
7
  10
 439.374
  20
 116.539
  30
0.0
  40
 5.00000
  50
 119.846
  51
 180.000
   0
LINE
   8
LEVEL001
   6
CONTINUOUS
  62
7
  10
 434.374
  20
 116.539
  30
0.0
  11
 434.374
  21
 110.000
  31
0.0
   0
LINE
   8
LEVEL001
   6
CONTINUOUS
  62
7
  10
 441.874
  20
 131.386
  30
0.0
  11
 441.874
  21
 124.705
  31
0.0
   0
LINE
   8
LEVEL001
   6
CONTINUOUS
  62
7
  10
 443.009
  20
 123.821
  30
0.0
  11
 459.095
  21
 125.008
  31
0.0
   0
LINE
   8
LEVEL001
   6
CONTINUOUS
  62
7
  10
 431.874
  20
 174.377
  30
0.0
  11
 431.874
  21
 119.000
  31
0.0
   0
CIRCLE
   8
LEVEL001
   6
CONTINUOUS
  62
7
  10
 406.874
  20
 177.500
  30
0.0
  40
 17.2500
   0
LINE
   8
LEVEL001
   6
CONTINUOUS
  62
7
  10
 431.374
  20
 240.500
  30
0.0
  11
 431.374
  21
 177.500
  31
0.0
   0
ARC
   8
LEVEL001
   6
CONTINUOUS
  62
7
  10
 406.874
  20
 57.3219
  30
0.0
  40
 54.1227
  50
 69.4482
  51
 110.552
   0
LINE
   8
LEVEL001
   6
CONTINUOUS
  62
7
  10
 425.874
  20
 108.000
  30
0.0
  11
 432.374
  21
 108.000
  31
0.0
   0
LINE
   8
LEVEL001
   6
CONTINUOUS
  62
7
  10
 387.874
  20
 108.000
  30
0.0
  11
 381.374
  21
 108.000
  31
0.0
   0
ARC
   8
LEVEL001
   6
CONTINUOUS
  62
7
  10
 406.874
  20
 58.8929
  30
0.0
  40
 54.1227
  50
 65.1388
  51
 114.861
   0
ARC
   8
LEVEL001
   6
CONTINUOUS
  62
7
  10
 412.374
  20
 124.746
  30
0.0
  40
 3.00000
  50
 180.000
  51
 266.548
   0
ARC
   8
LEVEL001
   6
CONTINUOUS
  62
7
  10
 401.374
  20
 124.746
  30
0.0
  40
 3.00000
  50
 273.452
  51
0.0
   0
ARC
   8
LEVEL001
   6
CONTINUOUS
  62
7
  10
 406.874
  20
 33.5593
  30
0.0
  40
 88.3529
  50
 72.8860
  51
 107.114
   0
LINE
   8
LEVEL001
   6
CONTINUOUS
  62
7
  10
 404.374
  20
 150.556
  30
0.0
  11
 404.374
  21
 124.746
  31
0.0
   0
ARC
   8
LEVEL001
   6
CONTINUOUS
  62
7
  10
 401.374
  20
 150.556
  30
0.0
  40
 3.00000
  50
 0.868503E-11
  51
 78.4630
   0
LINE
   8
LEVEL001
   6
CONTINUOUS
  62
7
  10
 409.374
  20
 150.556
  30
0.0
  11
 409.374
  21
 124.746
  31
0.0
   0
ARC
   8
LEVEL001
   6
CONTINUOUS
  62
7
  10
 412.374
  20
 150.556
  30
0.0
  40
 3.00000
  50
 101.537
  51
 180.000
   0
ARC
   8
LEVEL001
   6
CONTINUOUS
  62
7
  10
 406.874
  20
 177.500
  30
0.0
  40
 24.5000
  50
 180.000
  51
0.0
   0
LINE
   8
LEVEL001
   6
CONTINUOUS
  62
7
  10
 379.374
  20
 117.000
  30
0.0
  11
 379.374
  21
 110.000
  31
0.0
   0
ARC
   8
LEVEL001
   6
CONTINUOUS
  62
7
  10
 458.874
  20
 128.000
  30
0.0
  40
 3.00000
  50
 274.224
  51
 85.7766
   0
LINE
   8
LEVEL001
   6
DASHDOT
  62
1
  10
 406.874
  20
 213.896
  30
0.0
  11
 406.874
  21
 105.000
  31
0.0
   0
LINE
   8
LEVEL003
   6
CONTINUOUS
  62
7
  10
 380.503
  20
 210.500
  30
0.0
  11
 351.658
  21
 210.500
  31
0.0
   0
LINE
   8
LEVEL003
   6
CONTINUOUS
  62
7
  10
 380.503
  20
 205.500
  30
0.0
  11
 351.658
  21
 205.500
  31
0.0
   0
LINE
   8
LEVEL001
   6
CONTINUOUS
  62
7
  10
 383.124
  20
 241.900
  30
0.0
  11
 430.624
  21
 241.900
  31
0.0
   0
LINE
   8
LEVEL001
   6
CONTINUOUS
  62
7
  10
 382.374
  20
 233.500
  30
0.0
  11
 382.374
  21
 240.500
  31
0.0
   0
LINE
   8
LEVEL001
   6
CONTINUOUS
  62
7
  10
 382.374
  20
 240.500
  30
0.0
  11
 383.124
  21
 240.500
  31
0.0
   0
LINE
   8
LEVEL001
   6
CONTINUOUS
  62
7
  10
 430.624
  20
 240.500
  30
0.0
  11
 431.374
  21
 240.500
  31
0.0
   0
LINE
   8
LEVEL001
   6
CONTINUOUS
  62
7
  10
 383.124
  20
 241.900
  30
0.0
  11
 383.124
  21
 202.649
  31
0.0
   0
LINE
   8
LEVEL001
   6
CONTINUOUS
  62
7
  10
 430.624
  20
 241.900
  30
0.0
  11
 430.624
  21
 202.649
  31
0.0
   0
ARC
   8
LEVEL001
   6
CONTINUOUS
  62
7
  10
 438.000
  20
 194.000
  30
0.0
  40
 1.00000
  50
 270.000
  51
 0.384313E-9
   0
LINE
   8
LEVEL001
   6
CONTINUOUS
  62
7
  10
 439.000
  20
 194.000
  30
0.0
  11
 439.000
  21
 208.000
  31
0.0
   0
LINE
   8
LEVEL001
   6
CONTINUOUS
  62
7
  10
 436.650
  20
 193.000
  30
0.0
  11
 438.000
  21
 193.000
  31
0.0
   0
ARC
   8
LEVEL001
   6
CONTINUOUS
  62
7
  10
 438.000
  20
 222.000
  30
0.0
  40
 1.00000
  50
0.0
  51
 90.0000
   0
LINE
   8
LEVEL001
   6
CONTINUOUS
  62
7
  10
 439.000
  20
 222.000
  30
0.0
  11
 439.000
  21
 208.000
  31
0.0
   0
LINE
   8
LEVEL001
   6
CONTINUOUS
  62
7
  10
 436.650
  20
 223.000
  30
0.0
  11
 438.000
  21
 223.000
  31
0.0
   0
LINE
   8
LEVEL001
   6
CONTINUOUS
  62
7
  10
 435.000
  20
 208.000
  30
0.0
  11
 435.000
  21
 185.500
  31
0.0
   0
LINE
   8
LEVEL001
   6
CONTINUOUS
  62
7
  10
 435.000
  20
 230.500
  30
0.0
  11
 433.000
  21
 230.500
  31
0.0
   0
LINE
   8
LEVEL001
   6
CONTINUOUS
  62
7
  10
 435.000
  20
 185.500
  30
0.0
  11
 433.000
  21
 185.500
  31
0.0
   0
LINE
   8
LEVEL001
   6
CONTINUOUS
  62
7
  10
 435.000
  20
 185.500
  30
0.0
  11
 435.000
  21
 230.500
  31
0.0
   0
LINE
   8
LEVEL001
   6
CONTINUOUS
  62
7
  10
 436.650
  20
 208.000
  30
0.0
  11
 436.650
  21
 227.100
  31
0.0
   0
LINE
   8
LEVEL001
   6
CONTINUOUS
  62
7
  10
 436.650
  20
 208.000
  30
0.0
  11
 436.650
  21
 190.200
  31
0.0
   0
LINE
   8
LEVEL003
   6
CONTINUOUS
  62
7
  10
 435.000
  20
 227.100
  30
0.0
  11
 436.650
  21
 227.100
  31
0.0
   0
LINE
   8
LEVEL003
   6
CONTINUOUS
  62
7
  10
 435.000
  20
 190.200
  30
0.0
  11
 436.650
  21
 190.200
  31
0.0
   0
ARC
   8
LEVEL001
   6
CONTINUOUS
  62
7
  10
 432.374
  20
 183.500
  30
0.0
  40
 1.00000
  50
 90.0009
  51
 180.002
   0
ARC
   8
LEVEL001
   6
CONTINUOUS
  62
7
  10
 432.374
  20
 232.500
  30
0.0
  40
 1.00000
  50
 180.001
  51
 269.999
   0
LINE
   8
LEVEL001
   6
CONTINUOUS
  62
7
  10
 432.374
  20
 231.500
  30
0.0
  11
 432.374
  21
 208.000
  31
0.0
   0
LINE
   8
LEVEL001
   6
CONTINUOUS
  62
7
  10
 432.374
  20
 184.500
  30
0.0
  11
 432.374
  21
 208.000
  31
0.0
   0
LINE
   8
LEVEL001
   6
CONTINUOUS
  62
7
  10
 430.624
  20
 204.043
  30
0.0
  11
 383.124
  21
 204.043
  31
0.0
   0
LINE
   8
LEVEL001
   6
CONTINUOUS
  62
7
  10
 430.624
  20
 202.649
  30
0.0
  11
 383.124
  21
 202.649
  31
0.0
   0
ARC
   8
LEVEL001
   6
CONTINUOUS
  62
7
  10
 406.874
  20
 202.822
  30
0.0
  40
 5.40000
  50
 90.0016
  51
 123.949
   0
ARC
   8
LEVEL001
   6
CONTINUOUS
  62
7
  10
 405.757
  20
 204.482
  30
0.0
  40
 3.40000
  50
 123.949
  51
 174.247
   0
ARC
   8
LEVEL001
   6
CONTINUOUS
  62
7
  10
 406.875
  20
 202.822
  30
0.0
  40
 5.40000
  50
 56.0555
  51
 90.0029
   0
ARC
   8
LEVEL001
   6
CONTINUOUS
  62
7
  10
 407.991
  20
 204.482
  30
0.0
  40
 3.40000
  50
 5.75739
  51
 56.0552
   0
LINE
   8
LEVEL001
   6
CONTINUOUS
  62
7
  10
 411.374
  20
 204.823
  30
0.0
  11
 402.375
  21
 204.823
  31
0.0
   0
LINE
   8
LEVEL001
   6
CONTINUOUS
  62
7
  10
 432.374
  20
 193.000
  30
0.0
  11
 433.000
  21
 193.000
  31
0.0
   0
LINE
   8
LEVEL001
   6
CONTINUOUS
  62
7
  10
 432.374
  20
 223.000
  30
0.0
  11
 433.000
  21
 223.000
  31
0.0
   0
LINE
   8
LEVEL001
   6
CONTINUOUS
  62
7
  10
 433.000
  20
 230.500
  30
0.0
  11
 433.000
  21
 208.000
  31
0.0
   0
LINE
   8
LEVEL001
   6
CONTINUOUS
  62
7
  10
 433.000
  20
 208.000
  30
0.0
  11
 433.000
  21
 185.668
  31
0.0
   0
POLYLINE
   8
LEVEL001
   6
CONTINUOUS
  62
7
  66
1
  10
0.0
  20
0.0
  30
0.0
  70
0
   0
VERTEX
   8
LEVEL001
   6
CONTINUOUS
  62
7
  10
 189.493
  20
 153.779
  30
0.0
   0
VERTEX
   8
LEVEL001
   6
CONTINUOUS
  62
7
  10
 190.572
  20
 154.189
  30
0.0
   0
VERTEX
   8
LEVEL001
   6
CONTINUOUS
  62
7
  10
 191.618
  20
 154.883
  30
0.0
   0
VERTEX
   8
LEVEL001
   6
CONTINUOUS
  62
7
  10
 192.616
  20
 155.850
  30
0.0
   0
VERTEX
   8
LEVEL001
   6
CONTINUOUS
  62
7
  10
 193.549
  20
 157.075
  30
0.0
   0
VERTEX
   8
LEVEL001
   6
CONTINUOUS
  62
7
  10
 194.404
  20
 158.539
  30
0.0
   0
VERTEX
   8
LEVEL001
   6
CONTINUOUS
  62
7
  10
 195.166
  20
 160.219
  30
0.0
   0
VERTEX
   8
LEVEL001
   6
CONTINUOUS
  62
7
  10
 195.825
  20
 162.089
  30
0.0
   0
VERTEX
   8
LEVEL001
   6
CONTINUOUS
  62
7
  10
 196.369
  20
 164.119
  30
0.0
   0
VERTEX
   8
LEVEL001
   6
CONTINUOUS
  62
7
  10
 196.790
  20
 166.279
  30
0.0
   0
VERTEX
   8
LEVEL001
   6
CONTINUOUS
  62
7
  10
 197.082
  20
 168.534
  30
0.0
   0
VERTEX
   8
LEVEL001
   6
CONTINUOUS
  62
7
  10
 197.240
  20
 170.849
  30
0.0
   0
VERTEX
   8
LEVEL001
   6
CONTINUOUS
  62
7
  10
 197.262
  20
 173.189
  30
0.0
   0
VERTEX
   8
LEVEL001
   6
CONTINUOUS
  62
7
  10
 197.147
  20
 175.516
  30
0.0
   0
VERTEX
   8
LEVEL001
   6
CONTINUOUS
  62
7
  10
 196.897
  20
 177.794
  30
0.0
   0
VERTEX
   8
LEVEL001
   6
CONTINUOUS
  62
7
  10
 196.516
  20
 179.987
  30
0.0
   0
VERTEX
   8
LEVEL001
   6
CONTINUOUS
  62
7
  10
 196.010
  20
 182.062
  30
0.0
   0
VERTEX
   8
LEVEL001
   6
CONTINUOUS
  62
7
  10
 195.386
  20
 183.986
  30
0.0
   0
VERTEX
   8
LEVEL001
   6
CONTINUOUS
  62
7
  10
 194.656
  20
 185.730
  30
0.0
   0
VERTEX
   8
LEVEL001
   6
CONTINUOUS
  62
7
  10
 193.829
  20
 187.265
  30
0.0
   0
VERTEX
   8
LEVEL001
   6
CONTINUOUS
  62
7
  10
 192.919
  20
 188.567
  30
0.0
   0
VERTEX
   8
LEVEL001
   6
CONTINUOUS
  62
7
  10
 191.940
  20
 189.618
  30
0.0
   0
VERTEX
   8
LEVEL001
   6
CONTINUOUS
  62
7
  10
 190.907
  20
 190.399
  30
0.0
   0
VERTEX
   8
LEVEL001
   6
CONTINUOUS
  62
7
  10
 189.837
  20
 190.900
  30
0.0
   0
VERTEX
   8
LEVEL001
   6
CONTINUOUS
  62
7
  10
 189.794
  20
 190.914
  30
0.0
   0
SEQEND
   0
POLYLINE
   8
LEVEL001
   6
CONTINUOUS
  62
7
  66
1
  10
0.0
  20
0.0
  30
0.0
  70
0
   0
VERTEX
   8
LEVEL001
   6
CONTINUOUS
  62
7
  10
 192.052
  20
 150.477
  30
0.0
   0
VERTEX
   8
LEVEL001
   6
CONTINUOUS
  62
7
  10
 193.555
  20
 151.439
  30
0.0
   0
VERTEX
   8
LEVEL001
   6
CONTINUOUS
  62
7
  10
 194.979
  20
 152.727
  30
0.0
   0
VERTEX
   8
LEVEL001
   6
CONTINUOUS
  62
7
  10
 196.301
  20
 154.322
  30
0.0
   0
VERTEX
   8
LEVEL001
   6
CONTINUOUS
  62
7
  10
 197.503
  20
 156.199
  30
0.0
   0
VERTEX
   8
LEVEL001
   6
CONTINUOUS
  62
7
  10
 198.563
  20
 158.328
  30
0.0
   0
VERTEX
   8
LEVEL001
   6
CONTINUOUS
  62
7
  10
 199.467
  20
 160.677
  30
0.0
   0
VERTEX
   8
LEVEL001
   6
CONTINUOUS
  62
7
  10
 200.199
  20
 163.209
  30
0.0
   0
VERTEX
   8
LEVEL001
   6
CONTINUOUS
  62
7
  10
 200.749
  20
 165.884
  30
0.0
   0
VERTEX
   8
LEVEL001
   6
CONTINUOUS
  62
7
  10
 201.108
  20
 168.661
  30
0.0
   0
VERTEX
   8
LEVEL001
   6
CONTINUOUS
  62
7
  10
 201.270
  20
 171.495
  30
0.0
   0
VERTEX
   8
LEVEL001
   6
CONTINUOUS
  62
7
  10
 201.233
  20
 174.344
  30
0.0
   0
VERTEX
   8
LEVEL001
   6
CONTINUOUS
  62
7
  10
 200.997
  20
 177.162
  30
0.0
   0
VERTEX
   8
LEVEL001
   6
CONTINUOUS
  62
7
  10
 200.566
  20
 179.906
  30
0.0
   0
VERTEX
   8
LEVEL001
   6
CONTINUOUS
  62
7
  10
 199.947
  20
 182.532
  30
0.0
   0
VERTEX
   8
LEVEL001
   6
CONTINUOUS
  62
7
  10
 199.149
  20
 185.000
  30
0.0
   0
VERTEX
   8
LEVEL001
   6
CONTINUOUS
  62
7
  10
 198.185
  20
 187.271
  30
0.0
   0
VERTEX
   8
LEVEL001
   6
CONTINUOUS
  62
7
  10
 197.070
  20
 189.310
  30
0.0
   0
VERTEX
   8
LEVEL001
   6
CONTINUOUS
  62
7
  10
 195.821
  20
 191.085
  30
0.0
   0
VERTEX
   8
LEVEL001
   6
CONTINUOUS
  62
7
  10
 194.458
  20
 192.568
  30
0.0
   0
VERTEX
   8
LEVEL001
   6
CONTINUOUS
  62
7
  10
 193.002
  20
 193.737
  30
0.0
   0
VERTEX
   8
LEVEL001
   6
CONTINUOUS
  62
7
  10
 192.075
  20
 194.288
  30
0.0
   0
SEQEND
   0
LINE
   8
LEVEL001
   6
CONTINUOUS
  62
7
  10
 265.000
  20
 144.436
  30
0.0
  11
 189.000
  21
 144.436
  31
0.0
   0
LINE
   8
LEVEL001
   6
CONTINUOUS
  62
7
  10
 265.000
  20
 144.436
  30
0.0
  11
 341.000
  21
 144.436
  31
0.0
   0
LINE
   8
LEVEL001
   6
CONTINUOUS
  62
7
  10
 194.150
  20
 131.436
  30
0.0
  11
 194.150
  21
 117.436
  31
0.0
   0
LINE
   8
LEVEL001
   6
CONTINUOUS
  62
7
  10
 335.850
  20
 131.436
  30
0.0
  11
 335.850
  21
 117.436
  31
0.0
   0
LINE
   8
LEVEL001
   6
CONTINUOUS
  62
7
  10
 184.500
  20
 117.436
  30
0.0
  11
 345.500
  21
 117.436
  31
0.0
   0
LINE
   8
LEVEL001
   6
CONTINUOUS
  62
7
  10
 335.850
  20
 129.436
  30
0.0
  11
 345.500
  21
 129.436
  31
0.0
   0
LINE
   8
LEVEL001
   6
CONTINUOUS
  62
7
  10
 237.500
  20
 131.436
  30
0.0
  11
 194.150
  21
 131.436
  31
0.0
   0
LINE
   8
LEVEL001
   6
CONTINUOUS
  62
7
  10
 237.500
  20
 117.436
  30
0.0
  11
 237.500
  21
 131.436
  31
0.0
   0
LINE
   8
LEVEL001
   6
CONTINUOUS
  62
7
  10
 292.500
  20
 117.436
  30
0.0
  11
 292.500
  21
 131.436
  31
0.0
   0
LINE
   8
LEVEL001
   6
CONTINUOUS
  62
7
  10
 292.500
  20
 131.436
  30
0.0
  11
 335.850
  21
 131.436
  31
0.0
   0
LINE
   8
LEVEL001
   6
CONTINUOUS
  62
7
  10
 292.500
  20
 129.436
  30
0.0
  11
 237.500
  21
 129.436
  31
0.0
   0
LINE
   8
LEVEL001
   6
CONTINUOUS
  62
7
  10
 194.150
  20
 129.436
  30
0.0
  11
 184.500
  21
 129.436
  31
0.0
   0
LINE
   8
LEVEL003
   6
CONTINUOUS
  62
7
  10
 215.011
  20
 597.436
  30
0.0
  11
 314.790
  21
 597.436
  31
0.0
   0
LINE
   8
LEVEL003
   6
CONTINUOUS
  62
7
  10
 314.790
  20
 599.427
  30
0.0
  11
 314.790
  21
 620.436
  31
0.0
   0
LINE
   8
LEVEL001
   6
CONTINUOUS
  62
7
  10
 315.016
  20
 595.134
  30
0.0
  11
 326.357
  21
 269.617
  31
0.0
   0
ARC
   8
LEVEL003
   6
CONTINUOUS
  62
7
  10
 257.000
  20
 335.436
  30
0.0
  40
 3.00000
  50
 95.9865
  51
 180.000
   0
ARC
   8
LEVEL003
   6
CONTINUOUS
  62
7
  10
 273.000
  20
 335.436
  30
0.0
  40
 3.00000
  50
0.0
  51
 84.0135
   0
LINE
   8
LEVEL001
   6
CONTINUOUS
  62
7
  10
 267.500
  20
 347.094
  30
0.0
  11
 267.500
  21
 595.895
  31
0.0
   0
LINE
   8
LEVEL001
   6
CONTINUOUS
  62
7
  10
 262.500
  20
 347.094
  30
0.0
  11
 262.500
  21
 595.895
  31
0.0
   0
ARC
   8
LEVEL003
   6
CONTINUOUS
  62
7
  10
 256.061
  20
 344.387
  30
0.0
  40
 6.00000
  50
 275.986
  51
 351.799
   0
ARC
   8
LEVEL003
   6
CONTINUOUS
  62
7
  10
 265.000
  20
 345.436
  30
0.0
  40
 3.00000
  50
 0.673090E-10
  51
 186.694
   0
ARC
   8
LEVEL003
   6
CONTINUOUS
  62
7
  10
 273.939
  20
 344.387
  30
0.0
  40
 6.00000
  50
 188.201
  51
 264.014
   0
ARC
   8
LEVEL001
   6
CONTINUOUS
  62
7
  10
 249.000
  20
 335.899
  30
0.0
  40
 5.00000
  50
 0.130276E-11
  51
 90.0000
   0
ARC
   8
LEVEL001
   6
CONTINUOUS
  62
7
  10
 281.000
  20
 335.899
  30
0.0
  40
 5.00000
  50
 90.0000
  51
 180.000
   0
ARC
   8
LEVEL003
   6
CONTINUOUS
  62
7
  10
 256.061
  20
 210.873
  30
0.0
  40
 6.00000
  50
 8.20070
  51
 84.0135
   0
ARC
   8
LEVEL003
   6
CONTINUOUS
  62
7
  10
 257.000
  20
 219.824
  30
0.0
  40
 3.00000
  50
 180.000
  51
 264.014
   0
ARC
   8
LEVEL003
   6
CONTINUOUS
  62
7
  10
 273.000
  20
 219.824
  30
0.0
  40
 3.00000
  50
 275.986
  51
 0.282264E-10
   0
ARC
   8
LEVEL003
   6
CONTINUOUS
  62
7
  10
 273.939
  20
 210.873
  30
0.0
  40
 6.00000
  50
 95.9865
  51
 171.799
   0
ARC
   8
LEVEL003
   6
CONTINUOUS
  62
7
  10
 265.000
  20
 209.824
  30
0.0
  40
 3.00000
  50
 173.306
  51
0.0
   0
LINE
   8
LEVEL001
   6
CONTINUOUS
  62
7
  10
 254.000
  20
 335.899
  30
0.0
  11
 254.000
  21
 209.596
  31
0.0
   0
LINE
   8
LEVEL001
   6
CONTINUOUS
  62
7
  10
 276.000
  20
 335.899
  30
0.0
  11
 276.000
  21
 209.596
  31
0.0
   0
ARC
   8
LEVEL001
   6
CONTINUOUS
  62
7
  10
 249.000
  20
 209.596
  30
0.0
  40
 5.00000
  50
 270.000
  51
 0.130276E-11
   0
ARC
   8
LEVEL001
   6
CONTINUOUS
  62
7
  10
 281.000
  20
 209.596
  30
0.0
  40
 5.00000
  50
 180.000
  51
 270.000
   0
ARC
   8
LEVEL001
   6
CONTINUOUS
  62
7
  10
 259.000
  20
 195.108
  30
0.0
  40
 3.00000
  50
 270.000
  51
0.0
   0
ARC
   8
LEVEL001
   6
CONTINUOUS
  62
7
  10
 271.000
  20
 195.108
  30
0.0
  40
 3.00000
  50
 180.000
  51
 270.000
   0
LINE
   8
LEVEL003
   6
CONTINUOUS
  62
7
  10
 262.000
  20
 345.436
  30
0.0
  11
 262.000
  21
 195.108
  31
0.0
   0
LINE
   8
LEVEL003
   6
CONTINUOUS
  62
7
  10
 268.000
  20
 345.436
  30
0.0
  11
 268.000
  21
 195.108
  31
0.0
   0
CIRCLE
   8
LEVEL003
   6
CONTINUOUS
  62
7
  10
 930.399
  20
 76.7894
  30
0.0
  40
 8.06216
   0
LINE
   8
LEVEL003
   6
CONTINUOUS
  62
7
  10
 946.222
  20
 84.8515
  30
0.0
  11
 935.983
  21
 67.1148
  31
0.0
   0
LINE
   8
LEVEL003
   6
CONTINUOUS
  62
7
  10
 935.983
  20
 67.1148
  30
0.0
  11
 915.503
  21
 67.1148
  31
0.0
   0
LINE
   8
LEVEL003
   6
CONTINUOUS
  62
7
  10
 913.175
  20
 63.0837
  30
0.0
  11
 949.780
  21
 63.0837
  31
0.0
   0
LINE
   8
LEVEL003
   6
CONTINUOUS
  62
7
  10
 949.780
  20
 63.0837
  30
0.0
  11
 962.347
  21
 84.8515
  31
0.0
   0
LINE
   8
LEVEL003
   6
CONTINUOUS
  62
7
  10
 962.347
  20
 84.8515
  30
0.0
  11
 946.222
  21
 84.8515
  31
0.0
   0
LINE
   8
LEVEL003
   6
CONTINUOUS
  62
7
  10
 915.503
  20
 67.1148
  30
0.0
  11
 913.175
  21
 63.0837
  31
0.0
   0
TEXT
   8
LEVEL003
  62
7
  10
 972.628
  20
 58.5523
  30
0.0
  40
 20.1554
   1
ＯＳＡＫＡ ＪＡＣＫ
   7
STANDARD
   0
TEXT
   8
LEVEL003
  62
7
  10
 972.994
  20
 98.4935
  30
0.0
  40
 13.4369
   1
Model : ＪＪ－３５３５
   7
STANDARD
   0
ENDSEC
   0
EOF
