   0
SECTION
   2
HEADER
   9
$LIMMIN
  10
0.0
  20
0.0
   9
$LIMMAX
  10
 1269.00
  20
 891.000
   9
$EXTMIN
  10
0.0
  20
0.0
   9
$EXTMAX
  10
 1269.00
  20
 891.000
   9
$LTSCALE
  40
 25.3800
   0
ENDSEC
   0
SECTION
   2
TABLES
  0
TABLE
  2
LTYPE
 70
    25
  0
LTYPE
  2
CONTINUOUS
 70
    64
  3
Solid line
 72
    65
 73
     0
 40
0.0
  0
LTYPE
  2
BORDER
 70
    64
  3
__ __ . __ __ . __ __ . __ __ . __ __ . __ __ .
 72
    65
 73
     6
 40
1.75
 49
0.5
 49
-0.25
 49
0.5
 49
-0.25
 49
0.0
 49
-0.25
  0
LTYPE
  2
BORDER2
 70
    64
  3
__.__.__.__.__.__.__.__.__.__.__.__.__.__.__.__
 72
    65
 73
     6
 40
0.875
 49
0.25
 49
-0.125
 49
0.25
 49
-0.125
 49
0.0
 49
-0.125
  0
LTYPE
  2
BORDERX2
 70
    64
  3
____  ____  .  ____  ____  .  ____  ____  .  __
 72
    65
 73
     6
 40
3.5
 49
1.0
 49
-0.5
 49
1.0
 49
-0.5
 49
0.0
 49
-0.5
  0
LTYPE
  2
CENTER
 70
    64
  3
____ _ ____ _ ____ _ ____ _ ____ _ ____ _ ____ 
 72
    65
 73
     4
 40
2.0
 49
1.25
 49
-0.25
 49
0.25
 49
-0.25
  0
LTYPE
  2
CENTER2
 70
    64
  3
___ _ ___ _ ___ _ ___ _ ___ _ ___ _ ___ _ ___ _
 72
    65
 73
     4
 40
1.125
 49
0.75
 49
-0.125
 49
0.125
 49
-0.125
  0
LTYPE
  2
CENTERX2
 70
    64
  3
________  __  ________  __  ________  __  _____
 72
    65
 73
     4
 40
4.0
 49
2.5
 49
-0.5
 49
0.5
 49
-0.5
  0
LTYPE
  2
DASHDOT
 70
    64
  3
__ . __ . __ . __ . __ . __ . __ . __ . __ . __
 72
    65
 73
     4
 40
1.0
 49
0.5
 49
-0.25
 49
0.0
 49
-0.25
  0
LTYPE
  2
DASHDOT2
 70
    64
  3
_._._._._._._._._._._._._._._._._._._._._._._._
 72
    65
 73
     4
 40
0.5
 49
0.25
 49
-0.125
 49
0.0
 49
-0.125
  0
LTYPE
  2
DASHDOTX2
 70
    64
  3
____  .  ____  .  ____  .  ____  .  ____  .  __
 72
    65
 73
     4
 40
2.0
 49
1.0
 49
-0.5
 49
0.0
 49
-0.5
  0
LTYPE
  2
DASHED
 70
    64
  3
__ __ __ __ __ __ __ __ __ __ __ __ __ __ __ __
 72
    65
 73
     2
 40
0.75
 49
0.5
 49
-0.25
  0
LTYPE
  2
DASHED2
 70
    64
  3
_ _ _ _ _ _ _ _ _ _ _ _ _ _ _ _ _ _ _ _ _ _ _ _
 72
    65
 73
     2
 40
0.375
 49
0.25
 49
-0.125
  0
LTYPE
  2
DASHEDX2
 70
    64
  3
____  ____  ____  ____  ____  ____  ____  ____ 
 72
    65
 73
     2
 40
1.5
 49
1.0
 49
-0.5
  0
LTYPE
  2
DIVIDE
 70
    64
  3
____ . . ____ . . ____ . . ____ . . ____ . . __
 72
    65
 73
     6
 40
1.25
 49
0.5
 49
-0.25
 49
0.0
 49
-0.25
 49
0.0
 49
-0.25
  0
LTYPE
  2
DIVIDE2
 70
    64
  3
__..__..__..__..__..__..__..__..__..__..__..__.
 72
    65
 73
     6
 40
0.625
 49
0.25
 49
-0.125
 49
0.0
 49
-0.125
 49
0.0
 49
-0.125
  0
LTYPE
  2
DIVIDEX2
 70
    64
  3
________  .  .  ________  .  .  ________  .  . 
 72
    65
 73
     6
 40
2.5
 49
1.0
 49
-0.5
 49
0.0
 49
-0.5
 49
0.0
 49
-0.5
  0
LTYPE
  2
DOT
 70
    64
  3
. . . . . . . . . . . . . . . . . . . . . . . .
 72
    65
 73
     2
 40
0.25
 49
0.0
 49
-0.25
  0
LTYPE
  2
DOT2
 70
    64
  3
...............................................
 72
    65
 73
     2
 40
0.125
 49
0.0
 49
-0.125
  0
LTYPE
  2
DOTX2
 70
    64
  3
.  .  .  .  .  .  .  .  .  .  .  .  .  .  .  . 
 72
    65
 73
     2
 40
0.5
 49
0.0
 49
-0.5
  0
LTYPE
  2
HIDDEN
 70
    64
  3
__ __ __ __ __ __ __ __ __ __ __ __ __ __ __ __
 72
    65
 73
     2
 40
0.375
 49
0.25
 49
-0.125
  0
LTYPE
  2
HIDDEN2
 70
    64
  3
_ _ _ _ _ _ _ _ _ _ _ _ _ _ _ _ _ _ _ _ _ _ _ _
 72
    65
 73
     2
 40
0.1875
 49
0.125
 49
-0.0625
  0
LTYPE
  2
HIDDENX2
 70
    64
  3
____ ____ ____ ____ ____ ____ ____ ____ ____ __
 72
    65
 73
     2
 40
0.75
 49
0.5
 49
-0.25
  0
LTYPE
  2
PHANTOM
 70
    64
  3
______  __  __  ______  __  __  ______  __  __ 
 72
    65
 73
     6
 40
2.5
 49
1.25
 49
-0.25
 49
0.25
 49
-0.25
 49
0.25
 49
-0.25
  0
LTYPE
  2
PHANTOM2
 70
    64
  3
___ _ _ ___ _ _ ___ _ _ ___ _ _ ___ _ _ ___ _ _
 72
    65
 73
     6
 40
1.25
 49
0.625
 49
-0.125
 49
0.125
 49
-0.125
 49
0.125
 49
-0.125
  0
LTYPE
  2
PHANTOMX2
 70
    64
  3
____________    ____    ____    ____________   
 72
    65
 73
     6
 40
5.0
 49
2.5
 49
-0.5
 49
0.5
 49
-0.5
 49
0.5
 49
-0.5
  0
ENDTAB
  0
TABLE
  2
STYLE
 70
     2
  0
STYLE
  2
STANDARD
 70
0
 40
0.0
 41
1.0
 50
0.0
 71
0
 42
0.2
  3
TXT
  4
BIGFONT
  0
STYLE
  2
STANDARD1
 70
     4
 40
0.0
 41
1.0
 50
0.0
 71
     0
 42
0.2
  3
TXT
  4
BIGFONT
  0
ENDTAB
   0
TABLE
   2
LAYER
  70
7
   0
LAYER
   2
0
  70
0
  62
7
   6
CONTINUOUS
   0
LAYER
   2
LEVEL001
  70
0
  62
7
   6
CONTINUOUS
   0
LAYER
   2
LEVEL003
  70
0
  62
7
   6
CONTINUOUS
   0
LAYER
   2
LEVEL020
  70
0
  62
7
   6
CONTINUOUS
   0
LAYER
   2
LEVEL050
  70
0
  62
7
   6
CONTINUOUS
   0
LAYER
   2
LEVEL100
  70
0
  62
-7
   6
CONTINUOUS
   0
LAYER
   2
LEVEL110
  70
0
  62
7
   6
CONTINUOUS
   0
ENDTAB
   0
ENDSEC
   0
SECTION
   2
ENTITIES
   0
LINE
   8
LEVEL100
   6
CONTINUOUS
  62
7
  10
 933.750
  20
 192.000
  30
0.0
  11
 933.750
  21
 171.000
  31
0.0
   0
LINE
   8
LEVEL100
   6
CONTINUOUS
  62
7
  10
 1023.75
  20
 192.000
  30
0.0
  11
 1023.75
  21
 123.000
  31
0.0
   0
LINE
   8
LEVEL100
   6
CONTINUOUS
  62
7
  10
 1083.75
  20
 192.000
  30
0.0
  11
 1083.75
  21
 171.000
  31
0.0
   0
LINE
   8
LEVEL100
   6
CONTINUOUS
  62
7
  10
 1107.75
  20
 192.000
  30
0.0
  11
 1107.75
  21
 171.000
  31
0.0
   0
LINE
   8
LEVEL100
   6
CONTINUOUS
  62
7
  10
 1142.25
  20
 192.000
  30
0.0
  11
 1142.25
  21
 171.000
  31
0.0
   0
LINE
   8
LEVEL100
   6
CONTINUOUS
  62
7
  10
 995.250
  20
 171.000
  30
0.0
  11
 995.250
  21
 123.000
  31
0.0
   0
LINE
   8
LEVEL100
   6
CONTINUOUS
  62
7
  10
 945.750
  20
 79.5000
  30
0.0
  11
 960.750
  21
 94.5000
  31
0.0
   0
CIRCLE
   8
LEVEL100
   6
CONTINUOUS
  62
7
  10
 924.750
  20
 34.5000
  30
0.0
  40
 1.20000
   0
CIRCLE
   8
LEVEL100
   6
CONTINUOUS
  62
7
  10
 945.750
  20
 34.5000
  30
0.0
  40
 1.20000
   0
CIRCLE
   8
LEVEL100
   6
CONTINUOUS
  62
7
  10
 924.750
  20
 34.5000
  30
0.0
  40
 0.750000
   0
CIRCLE
   8
LEVEL100
   6
CONTINUOUS
  62
7
  10
 945.750
  20
 34.5000
  30
0.0
  40
 0.750000
   0
LINE
   8
LEVEL100
   6
CONTINUOUS
  62
7
  10
 1038.00
  20
 46.5000
  30
0.0
  11
 1038.00
  21
 49.5000
  31
0.0
   0
LINE
   8
LEVEL100
   6
CONTINUOUS
  62
7
  10
 1038.00
  20
 49.5000
  30
0.0
  11
 1047.00
  21
 49.5000
  31
0.0
   0
LINE
   8
LEVEL100
   6
CONTINUOUS
  62
7
  10
 1047.00
  20
 49.5000
  30
0.0
  11
 1047.00
  21
 46.5000
  31
0.0
   0
LINE
   8
LEVEL100
   6
CONTINUOUS
  62
7
  10
 1047.00
  20
 46.5000
  30
0.0
  11
 1038.00
  21
 46.5000
  31
0.0
   0
LINE
   8
LEVEL100
   6
CONTINUOUS
  62
7
  10
 903.750
  20
 30.0000
  30
0.0
  11
 903.750
  21
 192.000
  31
0.0
   0
LINE
   8
LEVEL100
   6
CONTINUOUS
  62
7
  10
 966.750
  20
 171.000
  30
0.0
  11
 966.750
  21
 30.0000
  31
0.0
   0
LINE
   8
LEVEL100
   6
CONTINUOUS
  62
7
  10
 903.750
  20
 99.0000
  30
0.0
  11
 966.750
  21
 99.0000
  31
0.0
   0
TEXT
   8
LEVEL100
  62
7
  10
 977.250
  20
 40.5000
  30
0.0
  40
 15.0000
   1
ＯＪ
  41
 0.700000
   7
STANDARD
   0
LINE
   8
LEVEL100
   6
CONTINUOUS
  62
7
  10
 903.750
  20
 171.000
  30
0.0
  11
 1224.45
  21
 171.000
  31
0.0
   0
LINE
   8
LEVEL100
   6
CONTINUOUS
  62
7
  10
 903.750
  20
 159.000
  30
0.0
  11
 1224.45
  21
 159.000
  31
0.0
   0
LINE
   8
LEVEL100
   6
CONTINUOUS
  62
7
  10
 903.750
  20
 192.000
  30
0.0
  11
 1224.45
  21
 192.000
  31
0.0
   0
LINE
   8
LEVEL100
   6
CONTINUOUS
  62
7
  10
 981.450
  20
 789.000
  30
0.0
  11
 981.450
  21
 864.000
  31
0.0
   0
LINE
   8
LEVEL100
   6
CONTINUOUS
  62
7
  10
 981.450
  20
 849.000
  30
0.0
  11
 1224.45
  21
 849.000
  31
0.0
   0
LINE
   8
LEVEL100
   6
CONTINUOUS
  62
7
  10
 981.450
  20
 834.000
  30
0.0
  11
 1224.45
  21
 834.000
  31
0.0
   0
LINE
   8
LEVEL100
   6
CONTINUOUS
  62
7
  10
 1008.45
  20
 849.000
  30
0.0
  11
 1008.45
  21
 834.000
  31
0.0
   0
LINE
   8
LEVEL100
   6
CONTINUOUS
  62
7
  10
 1164.45
  20
 849.000
  30
0.0
  11
 1164.45
  21
 834.000
  31
0.0
   0
LINE
   8
LEVEL100
   6
CONTINUOUS
  62
7
  10
 1200.45
  20
 849.000
  30
0.0
  11
 1200.45
  21
 834.000
  31
0.0
   0
LINE
   8
LEVEL100
   6
CONTINUOUS
  62
7
  10
 903.750
  20
 123.000
  30
0.0
  11
 1224.45
  21
 123.000
  31
0.0
   0
LINE
   8
LEVEL100
   6
CONTINUOUS
  62
7
  10
 903.750
  20
 75.0000
  30
0.0
  11
 1224.45
  21
 75.0000
  31
0.0
   0
LINE
   8
LEVEL100
   6
CONTINUOUS
  62
7
  10
 1140.45
  20
 75.0000
  30
0.0
  11
 1140.45
  21
 30.0000
  31
0.0
   0
LINE
   8
LEVEL100
   6
CONTINUOUS
  62
7
  10
 1152.45
  20
 30.0000
  30
0.0
  11
 1203.45
  21
 60.0000
  31
0.0
   0
LINE
   8
LEVEL100
   6
CONTINUOUS
  62
7
  10
 75.0000
  20
 864.000
  30
0.0
  11
 1224.45
  21
 864.000
  31
0.0
   0
LINE
   8
LEVEL100
   6
CONTINUOUS
  62
7
  10
 1224.45
  20
 864.000
  30
0.0
  11
 1224.45
  21
 30.0000
  31
0.0
   0
LINE
   8
LEVEL100
   6
CONTINUOUS
  62
7
  10
 1224.45
  20
 30.0000
  30
0.0
  11
 75.0000
  21
 30.0000
  31
0.0
   0
LINE
   8
LEVEL100
   6
CONTINUOUS
  62
7
  10
 75.0000
  20
 837.600
  30
0.0
  11
 225.450
  21
 837.600
  31
0.0
   0
LINE
   8
LEVEL100
   6
CONTINUOUS
  62
7
  10
 225.450
  20
 837.600
  30
0.0
  11
 225.450
  21
 864.000
  31
0.0
   0
TEXT
   8
LEVEL100
  62
7
  10
 222.450
  20
 858.300
  30
0.0
  40
 15.0000
   1
ＯＪ．
  50
 180.000
  41
 0.900000
   7
STANDARD
   0
LINE
   8
LEVEL100
   6
CONTINUOUS
  62
7
  10
 171.450
  20
 852.300
  30
0.0
  11
 162.450
  21
 852.300
  31
0.0
   0
LINE
   8
LEVEL100
   6
CONTINUOUS
  62
7
  10
 162.450
  20
 852.300
  30
0.0
  11
 162.450
  21
 849.300
  31
0.0
   0
LINE
   8
LEVEL100
   6
CONTINUOUS
  62
7
  10
 162.450
  20
 849.300
  30
0.0
  11
 171.450
  21
 849.300
  31
0.0
   0
LINE
   8
LEVEL100
   6
CONTINUOUS
  62
7
  10
 171.450
  20
 849.300
  30
0.0
  11
 171.450
  21
 852.300
  31
0.0
   0
TEXT
   8
LEVEL100
  62
7
  10
 936.750
  20
 174.000
  30
0.0
  40
 12.0000
   1
Ｓ．ＩＭＡＮＩＳＨＩ
  41
 0.625000
   7
STANDARD
   0
TEXT
   8
LEVEL020
  62
6
  10
 420.000
  20
 705.000
  30
0.0
  40
 15.0000
   1
ストローク
   7
STANDARD
   0
TEXT
   8
LEVEL020
  62
6
  10
 420.000
  20
 726.000
  30
0.0
  40
 15.0000
   1
揚　　　力
   7
STANDARD
   0
TEXT
   8
LEVEL020
  62
6
  10
 675.000
  20
 705.000
  30
0.0
  40
 15.0000
   1
ｍｍ
  41
 0.700000
   7
STANDARD
   0
LINE
   8
LEVEL020
   6
CONTINUOUS
  62
6
  10
 420.000
  20
 744.000
  30
0.0
  11
 720.000
  21
 744.000
  31
0.0
   0
LINE
   8
LEVEL020
   6
CONTINUOUS
  62
6
  10
 420.000
  20
 723.000
  30
0.0
  11
 720.000
  21
 723.000
  31
0.0
   0
LINE
   8
LEVEL020
   6
CONTINUOUS
  62
6
  10
 420.000
  20
 702.000
  30
0.0
  11
 720.000
  21
 702.000
  31
0.0
   0
TEXT
   8
LEVEL020
  62
6
  10
 420.000
  20
 747.000
  30
0.0
  40
 15.0000
   1
形　　　式
   7
STANDARD
   0
TEXT
   8
LEVEL020
  62
6
  10
 420.000
  20
 768.000
  30
0.0
  40
 15.0000
   1
仕　　　様
   7
STANDARD
   0
LINE
   8
LEVEL020
   6
CONTINUOUS
  62
6
  10
 420.000
  20
 765.000
  30
0.0
  11
 495.000
  21
 765.000
  31
0.0
   0
TEXT
   8
LEVEL020
  62
6
  10
 420.000
  20
 684.000
  30
0.0
  40
 15.0000
   1
最低高さ
   7
STANDARD
   0
TEXT
   8
LEVEL020
  62
6
  10
 675.000
  20
 684.000
  30
0.0
  40
 15.0000
   1
ｍｍ
  41
 0.700000
   7
STANDARD
   0
LINE
   8
LEVEL020
   6
CONTINUOUS
  62
6
  10
 420.000
  20
 681.000
  30
0.0
  11
 720.000
  21
 681.000
  31
0.0
   0
LINE
   8
LEVEL020
   6
CONTINUOUS
  62
6
  10
 420.000
  20
 660.000
  30
0.0
  11
 720.000
  21
 660.000
  31
0.0
   0
LINE
   8
LEVEL020
   6
CONTINUOUS
  62
6
  10
 420.000
  20
 639.000
  30
0.0
  11
 720.000
  21
 639.000
  31
0.0
   0
TEXT
   8
LEVEL020
  62
6
  10
 420.000
  20
 642.000
  30
0.0
  40
 15.0000
   1
付　属　品
   7
STANDARD
   0
TEXT
   8
LEVEL020
  62
6
  10
 591.000
  20
 642.000
  30
0.0
  40
 15.0000
   1
　　　　　　１
  41
 0.700000
   7
STANDARD
   0
TEXT
   8
LEVEL020
  62
6
  10
 675.000
  20
 642.000
  30
0.0
  40
 15.0000
   1
本
  41
 0.500000
   7
STANDARD
   0
TEXT
   8
LEVEL020
  62
6
  10
 675.000
  20
 663.000
  30
0.0
  40
 15.0000
   1
ｋｇ
  41
 0.700000
   7
STANDARD
   0
TEXT
   8
LEVEL020
  62
6
  10
 505.500
  20
 642.000
  30
0.0
  40
 15.0000
   1
ハンドル棒（%%c３２×８００Ｌ）
  41
 0.600000
   7
STANDARD
   0
TEXT
   8
LEVEL020
  62
6
  10
 591.000
  20
 747.000
  30
0.0
  40
 15.0000
   1
　　　ＪＪ－５０１３
  41
 0.700000
   7
STANDARD
   0
TEXT
   8
LEVEL020
  62
6
  10
 591.000
  20
 705.000
  30
0.0
  40
 15.0000
   1
　　　　１３０
  41
 0.700000
   7
STANDARD
   0
TEXT
   8
LEVEL020
  62
6
  10
 591.000
  20
 684.000
  30
0.0
  40
 15.0000
   1
　　　　２９０
  41
 0.700000
   7
STANDARD
   0
TEXT
   8
LEVEL020
  62
6
  10
 591.000
  20
 663.000
  30
0.0
  40
 15.0000
   1
　　　約　３１
  41
 0.700000
   7
STANDARD
   0
TEXT
   8
LEVEL020
  62
6
  10
 591.000
  20
 726.000
  30
0.0
  40
 15.0000
   1
　　　　５００
  41
 0.700000
   7
STANDARD
   0
TEXT
   8
LEVEL020
  62
6
  10
 675.000
  20
 726.000
  30
0.0
  40
 15.0000
   1
ｋＮ
  41
 0.700000
   7
STANDARD
   0
TEXT
   8
LEVEL020
  62
6
  10
 420.000
  20
 663.000
  30
0.0
  40
 15.0000
   1
質　　　量
   7
STANDARD
   0
LINE
   8
LEVEL001
   6
DASHDOT
  62
1
  10
 690.000
  20
 316.500
  30
0.0
  11
 805.000
  21
 316.500
  31
0.0
   0
CIRCLE
   8
LEVEL001
   6
CONTINUOUS
  62
7
  10
 750.000
  20
 316.500
  30
0.0
  40
 22.5000
   0
CIRCLE
   8
LEVEL001
   6
CONTINUOUS
  62
7
  10
 750.000
  20
 316.500
  30
0.0
  40
 23.5000
   0
ARC
   8
LEVEL001
   6
CONTINUOUS
  62
7
  10
 691.000
  20
 310.088
  30
0.0
  40
 1.00000
  50
 95.2380
  51
 180.000
   0
ARC
   8
LEVEL001
   6
CONTINUOUS
  62
7
  10
 691.000
  20
 262.000
  30
0.0
  40
 1.00000
  50
 180.001
  51
 269.999
   0
LINE
   8
LEVEL001
   6
CONTINUOUS
  62
7
  10
 690.000
  20
 310.088
  30
0.0
  11
 690.000
  21
 262.000
  31
0.0
   0
ARC
   8
LEVEL001
   6
CONTINUOUS
  62
7
  10
 809.000
  20
 310.088
  30
0.0
  40
 1.00000
  50
 0.285311E-3
  51
 84.7620
   0
ARC
   8
LEVEL001
   6
CONTINUOUS
  62
7
  10
 809.000
  20
 262.000
  30
0.0
  40
 1.00000
  50
 270.001
  51
0.0
   0
LINE
   8
LEVEL001
   6
CONTINUOUS
  62
7
  10
 810.000
  20
 310.088
  30
0.0
  11
 810.000
  21
 262.000
  31
0.0
   0
ARC
   8
LEVEL001
   6
CONTINUOUS
  62
7
  10
 707.953
  20
 322.688
  30
0.0
  40
 10.0000
  50
 275.238
  51
 351.628
   0
LINE
   8
LEVEL001
   6
CONTINUOUS
  62
7
  10
 690.909
  20
 311.083
  30
0.0
  11
 708.866
  21
 312.729
  31
0.0
   0
ARC
   8
LEVEL001
   6
CONTINUOUS
  62
7
  10
 707.953
  20
 322.688
  30
0.0
  40
 8.60000
  50
 275.238
  51
 351.628
   0
ARC
   8
LEVEL001
   6
CONTINUOUS
  62
7
  10
 792.047
  20
 322.688
  30
0.0
  40
 8.60000
  50
 188.371
  51
 264.763
   0
ARC
   8
LEVEL001
   6
CONTINUOUS
  62
7
  10
 750.000
  20
 316.500
  30
0.0
  40
 33.9000
  50
 8.37164
  51
 171.628
   0
ARC
   8
LEVEL001
   6
CONTINUOUS
  62
7
  10
 792.047
  20
 322.688
  30
0.0
  40
 10.0000
  50
 188.372
  51
 264.762
   0
LINE
   8
LEVEL001
   6
CONTINUOUS
  62
7
  10
 791.134
  20
 312.729
  30
0.0
  11
 809.091
  21
 311.083
  31
0.0
   0
ARC
   8
LEVEL001
   6
CONTINUOUS
  62
7
  10
 750.000
  20
 316.500
  30
0.0
  40
 32.5000
  50
 8.37126
  51
 171.629
   0
LINE
   8
LEVEL001
   6
CONTINUOUS
  62
7
  10
 691.628
  20
 311.149
  30
0.0
  11
 691.500
  21
 312.543
  31
0.0
   0
LINE
   8
LEVEL001
   6
CONTINUOUS
  62
7
  10
 808.372
  20
 311.149
  30
0.0
  11
 808.500
  21
 312.543
  31
0.0
   0
LINE
   8
LEVEL001
   6
CONTINUOUS
  62
7
  10
 791.262
  20
 314.124
  30
0.0
  11
 808.500
  21
 312.543
  31
0.0
   0
LINE
   8
LEVEL001
   6
CONTINUOUS
  62
7
  10
 691.500
  20
 312.543
  30
0.0
  11
 708.738
  21
 314.124
  31
0.0
   0
ARC
   8
LEVEL001
   6
CONTINUOUS
  62
7
  10
 700.183
  20
 311.331
  30
0.0
  40
 5.40000
  50
 95.2376
  51
 129.185
   0
ARC
   8
LEVEL001
   6
CONTINUOUS
  62
7
  10
 698.919
  20
 312.881
  30
0.0
  40
 3.40000
  50
 129.185
  51
 179.483
   0
ARC
   8
LEVEL001
   6
CONTINUOUS
  62
7
  10
 700.183
  20
 311.331
  30
0.0
  40
 5.40000
  50
 61.2915
  51
 95.2389
   0
ARC
   8
LEVEL001
   6
CONTINUOUS
  62
7
  10
 701.143
  20
 313.085
  30
0.0
  40
 3.40000
  50
 10.9934
  51
 61.2913
   0
ARC
   8
LEVEL001
   6
CONTINUOUS
  62
7
  10
 799.817
  20
 311.331
  30
0.0
  40
 5.40000
  50
 50.8154
  51
 84.7624
   0
ARC
   8
LEVEL001
   6
CONTINUOUS
  62
7
  10
 801.081
  20
 312.881
  30
0.0
  40
 3.40000
  50
 0.516714
  51
 50.8152
   0
ARC
   8
LEVEL001
   6
CONTINUOUS
  62
7
  10
 799.817
  20
 311.331
  30
0.0
  40
 5.40000
  50
 84.7611
  51
 118.708
   0
ARC
   8
LEVEL001
   6
CONTINUOUS
  62
7
  10
 798.857
  20
 313.085
  30
0.0
  40
 3.40000
  50
 118.709
  51
 169.007
   0
LINE
   8
LEVEL001
   6
DASHDOT
  62
1
  10
 699.529
  20
 318.457
  30
0.0
  11
 700.893
  21
 303.582
  31
0.0
   0
LINE
   8
LEVEL001
   6
DASHDOT
  62
1
  10
 800.470
  20
 318.457
  30
0.0
  11
 799.107
  21
 303.582
  31
0.0
   0
ARC
   8
LEVEL001
   6
CONTINUOUS
  62
7
  10
 724.500
  20
 221.876
  30
0.0
  40
 2.00000
  50
 180.000
  51
 254.918
   0
ARC
   8
LEVEL001
   6
CONTINUOUS
  62
7
  10
 775.500
  20
 221.876
  30
0.0
  40
 2.00000
  50
 285.081
  51
 0.124398E-3
   0
ARC
   8
LEVEL001
   6
CONTINUOUS
  62
7
  10
 750.000
  20
 316.500
  30
0.0
  40
 100.000
  50
 254.918
  51
 285.082
   0
LINE
   8
LEVEL001
   6
CONTINUOUS
  62
7
  10
 722.500
  20
 221.876
  30
0.0
  11
 722.500
  21
 229.444
  31
0.0
   0
LINE
   8
LEVEL001
   6
CONTINUOUS
  62
7
  10
 777.500
  20
 229.444
  30
0.0
  11
 777.500
  21
 221.876
  31
0.0
   0
ARC
   8
LEVEL001
   6
CONTINUOUS
  62
7
  10
 750.000
  20
 316.500
  30
0.0
  40
 90.0000
  50
 253.070
  51
 286.930
   0
ARC
   8
LEVEL001
   6
CONTINUOUS
  62
7
  10
 724.000
  20
 231.380
  30
0.0
  40
 1.00000
  50
 255.522
  51
 0.113352E-2
   0
ARC
   8
LEVEL001
   6
CONTINUOUS
  62
7
  10
 723.500
  20
 229.444
  30
0.0
  40
 1.00000
  50
 75.5216
  51
 179.999
   0
ARC
   8
LEVEL001
   6
CONTINUOUS
  62
7
  10
 776.000
  20
 231.380
  30
0.0
  40
 1.00000
  50
 180.000
  51
 284.476
   0
ARC
   8
LEVEL001
   6
CONTINUOUS
  62
7
  10
 776.500
  20
 229.444
  30
0.0
  40
 1.00000
  50
0.0
  51
 104.476
   0
ARC
   8
LEVEL001
   6
CONTINUOUS
  62
7
  10
 718.328
  20
 247.000
  30
0.0
  40
 8.00000
  50
 189.039
  51
 270.000
   0
ARC
   8
LEVEL001
   6
CONTINUOUS
  62
7
  10
 703.732
  20
 256.000
  30
0.0
  40
 5.00000
  50
 9.03923
  51
 89.9999
   0
LINE
   8
LEVEL001
   6
CONTINUOUS
  62
7
  10
 708.670
  20
 256.786
  30
0.0
  11
 710.427
  21
 245.743
  31
0.0
   0
ARC
   8
LEVEL001
   6
CONTINUOUS
  62
7
  10
 720.000
  20
 234.000
  30
0.0
  40
 5.00000
  50
 0.352437E-3
  51
 90.0002
   0
LINE
   8
LEVEL001
   6
CONTINUOUS
  62
7
  10
 718.328
  20
 239.000
  30
0.0
  11
 720.000
  21
 239.000
  31
0.0
   0
LINE
   8
LEVEL001
   6
CONTINUOUS
  62
7
  10
 723.084
  20
 237.936
  30
0.0
  11
 722.500
  21
 237.936
  31
0.0
   0
ARC
   8
LEVEL001
   6
CONTINUOUS
  62
7
  10
 824.904
  20
 213.543
  30
0.0
  40
 50.0000
  50
 108.171
  51
 161.457
   0
ARC
   8
LEVEL001
   6
CONTINUOUS
  62
7
  10
 778.000
  20
 258.000
  30
0.0
  40
 3.00000
  50
 90.0000
  51
 180.000
   0
LINE
   8
LEVEL001
   6
CONTINUOUS
  62
7
  10
 778.000
  20
 261.000
  30
0.0
  11
 809.000
  21
 261.000
  31
0.0
   0
ARC
   8
LEVEL001
   6
CONTINUOUS
  62
7
  10
 722.000
  20
 258.000
  30
0.0
  40
 3.00000
  50
 0.108563E-11
  51
 90.0000
   0
LINE
   8
LEVEL001
   6
CONTINUOUS
  62
7
  10
 691.000
  20
 261.000
  30
0.0
  11
 722.000
  21
 261.000
  31
0.0
   0
CIRCLE
   8
LEVEL001
   6
CONTINUOUS
  62
7
  10
 750.000
  20
 236.500
  30
0.0
  40
 5.00000
   0
LINE
   8
LEVEL001
   6
DASHDOT
  62
1
  10
 740.000
  20
 236.500
  30
0.0
  11
 760.000
  21
 236.500
  31
0.0
   0
LINE
   8
LEVEL001
   6
DASHDOT
  62
1
  10
 685.000
  20
 286.000
  30
0.0
  11
 830.500
  21
 286.000
  31
0.0
   0
ARC
   8
LEVEL001
   6
CONTINUOUS
  62
7
  10
 687.500
  20
 301.750
  30
0.0
  40
 1.50000
  50
 90.0000
  51
 180.000
   0
LINE
   8
LEVEL001
   6
CONTINUOUS
  62
7
  10
 687.500
  20
 303.250
  30
0.0
  11
 690.000
  21
 303.250
  31
0.0
   0
ARC
   8
LEVEL001
   6
CONTINUOUS
  62
7
  10
 687.500
  20
 270.250
  30
0.0
  40
 1.50000
  50
 180.000
  51
 270.000
   0
LINE
   8
LEVEL001
   6
CONTINUOUS
  62
7
  10
 686.000
  20
 301.750
  30
0.0
  11
 686.000
  21
 270.250
  31
0.0
   0
LINE
   8
LEVEL001
   6
CONTINUOUS
  62
7
  10
 687.500
  20
 268.750
  30
0.0
  11
 690.000
  21
 268.750
  31
0.0
   0
ARC
   8
LEVEL001
   6
CONTINUOUS
  62
7
  10
 824.500
  20
 301.750
  30
0.0
  40
 1.50000
  50
0.0
  51
 89.9983
   0
LINE
   8
LEVEL001
   6
CONTINUOUS
  62
7
  10
 810.000
  20
 303.250
  30
0.0
  11
 824.500
  21
 303.250
  31
0.0
   0
ARC
   8
LEVEL001
   6
CONTINUOUS
  62
7
  10
 824.500
  20
 270.250
  30
0.0
  40
 1.50000
  50
 270.002
  51
 0.259140E-7
   0
LINE
   8
LEVEL001
   6
CONTINUOUS
  62
7
  10
 826.000
  20
 301.750
  30
0.0
  11
 826.000
  21
 270.250
  31
0.0
   0
LINE
   8
LEVEL001
   6
CONTINUOUS
  62
7
  10
 810.000
  20
 268.750
  30
0.0
  11
 824.500
  21
 268.750
  31
0.0
   0
CIRCLE
   8
LEVEL003
   6
CONTINUOUS
  62
7
  10
 750.000
  20
 316.500
  30
0.0
  40
 15.0000
   0
CIRCLE
   8
LEVEL003
   6
CONTINUOUS
  62
7
  10
 747.000
  20
 333.200
  30
0.0
  40
 1.00000
   0
ARC
   8
LEVEL003
   6
CONTINUOUS
  62
7
  10
 746.000
  20
 334.600
  30
0.0
  40
 1.00000
  50
 90.0009
  51
 179.999
   0
ARC
   8
LEVEL003
   6
CONTINUOUS
  62
7
  10
 748.500
  20
 335.100
  30
0.0
  40
 0.500000
  50
 0.349874E-2
  51
 90.0017
   0
LINE
   8
LEVEL003
   6
CONTINUOUS
  62
7
  10
 748.500
  20
 335.600
  30
0.0
  11
 746.000
  21
 335.600
  31
0.0
   0
LINE
   8
LEVEL003
   6
CONTINUOUS
  62
7
  10
 749.000
  20
 335.100
  30
0.0
  11
 749.000
  21
 331.467
  31
0.0
   0
ARC
   8
LEVEL003
   6
CONTINUOUS
  62
7
  10
 744.000
  20
 332.155
  30
0.0
  40
 1.00000
  50
 289.757
  51
 359.999
   0
LINE
   8
LEVEL003
   6
CONTINUOUS
  62
7
  10
 745.000
  20
 334.600
  30
0.0
  11
 745.000
  21
 332.155
  31
0.0
   0
ARC
   8
LEVEL003
   6
CONTINUOUS
  62
7
  10
 750.000
  20
 315.450
  30
0.0
  40
 16.7500
  50
 109.756
  51
 270.000
   0
CIRCLE
   8
LEVEL003
   6
CONTINUOUS
  62
7
  10
 753.000
  20
 333.200
  30
0.0
  40
 1.00000
   0
ARC
   8
LEVEL003
   6
CONTINUOUS
  62
7
  10
 754.000
  20
 334.600
  30
0.0
  40
 1.00000
  50
 0.875965E-3
  51
 89.9991
   0
ARC
   8
LEVEL003
   6
CONTINUOUS
  62
7
  10
 751.500
  20
 335.100
  30
0.0
  40
 0.500000
  50
 89.9983
  51
 179.997
   0
LINE
   8
LEVEL003
   6
CONTINUOUS
  62
7
  10
 751.500
  20
 335.600
  30
0.0
  11
 754.000
  21
 335.600
  31
0.0
   0
LINE
   8
LEVEL003
   6
CONTINUOUS
  62
7
  10
 751.000
  20
 335.100
  30
0.0
  11
 751.000
  21
 331.467
  31
0.0
   0
ARC
   8
LEVEL003
   6
CONTINUOUS
  62
7
  10
 756.000
  20
 332.155
  30
0.0
  40
 1.00000
  50
 180.001
  51
 250.243
   0
LINE
   8
LEVEL003
   6
CONTINUOUS
  62
7
  10
 755.000
  20
 334.600
  30
0.0
  11
 755.000
  21
 332.155
  31
0.0
   0
ARC
   8
LEVEL003
   6
CONTINUOUS
  62
7
  10
 750.000
  20
 315.450
  30
0.0
  40
 16.7500
  50
 270.000
  51
 70.2436
   0
LINE
   8
LEVEL001
   6
CONTINUOUS
  62
7
  10
 665.500
  20
 255.000
  30
0.0
  11
 665.500
  21
 239.000
  31
0.0
   0
LINE
   8
LEVEL001
   6
CONTINUOUS
  62
7
  10
 708.954
  20
 255.000
  30
0.0
  11
 665.500
  21
 255.000
  31
0.0
   0
LINE
   8
LEVEL001
   6
CONTINUOUS
  62
7
  10
 658.500
  20
 224.000
  30
0.0
  11
 722.500
  21
 224.000
  31
0.0
   0
LINE
   8
LEVEL001
   6
CONTINUOUS
  62
7
  10
 671.005
  20
 241.000
  30
0.0
  11
 671.005
  21
 224.000
  31
0.0
   0
LINE
   8
LEVEL001
   6
CONTINUOUS
  62
7
  10
 671.005
  20
 239.000
  30
0.0
  11
 658.500
  21
 239.000
  31
0.0
   0
LINE
   8
LEVEL001
   6
CONTINUOUS
  62
7
  10
 720.000
  20
 224.000
  30
0.0
  11
 720.000
  21
 239.000
  31
0.0
   0
LINE
   8
LEVEL001
   6
CONTINUOUS
  62
7
  10
 713.036
  20
 241.000
  30
0.0
  11
 671.005
  21
 241.000
  31
0.0
   0
LINE
   8
LEVEL001
   6
CONTINUOUS
  62
7
  10
 833.000
  20
 301.500
  30
0.0
  11
 833.000
  21
 255.000
  31
0.0
   0
LINE
   8
LEVEL001
   6
CONTINUOUS
  62
7
  10
 841.500
  20
 239.000
  30
0.0
  11
 841.500
  21
 224.000
  31
0.0
   0
LINE
   8
LEVEL001
   6
CONTINUOUS
  62
7
  10
 834.500
  20
 255.000
  30
0.0
  11
 834.500
  21
 239.000
  31
0.0
   0
LINE
   8
LEVEL001
   6
CONTINUOUS
  62
7
  10
 841.500
  20
 224.000
  30
0.0
  11
 777.500
  21
 224.000
  31
0.0
   0
LINE
   8
LEVEL001
   6
CONTINUOUS
  62
7
  10
 828.995
  20
 241.000
  30
0.0
  11
 828.995
  21
 224.000
  31
0.0
   0
LINE
   8
LEVEL001
   6
CONTINUOUS
  62
7
  10
 828.995
  20
 239.000
  30
0.0
  11
 841.500
  21
 239.000
  31
0.0
   0
LINE
   8
LEVEL001
   6
CONTINUOUS
  62
7
  10
 780.000
  20
 224.000
  30
0.0
  11
 780.000
  21
 235.534
  31
0.0
   0
LINE
   8
LEVEL001
   6
CONTINUOUS
  62
7
  10
 783.118
  20
 241.000
  30
0.0
  11
 828.995
  21
 241.000
  31
0.0
   0
LINE
   8
LEVEL001
   6
CONTINUOUS
  62
7
  10
 796.952
  20
 255.000
  30
0.0
  11
 834.500
  21
 255.000
  31
0.0
   0
ARC
   8
LEVEL001
   6
CONTINUOUS
  62
7
  10
 803.217
  20
 322.000
  30
0.0
  40
 3.00000
  50
 270.000
  51
 5.90034
   0
LINE
   8
LEVEL001
   6
CONTINUOUS
  62
7
  10
 784.278
  20
 319.000
  30
0.0
  11
 803.216
  21
 319.000
  31
0.0
   0
ARC
   8
LEVEL001
   6
CONTINUOUS
  62
7
  10
 696.783
  20
 322.000
  30
0.0
  40
 3.00000
  50
 174.100
  51
 270.000
   0
LINE
   8
LEVEL001
   6
CONTINUOUS
  62
7
  10
 696.783
  20
 319.000
  30
0.0
  11
 715.722
  21
 319.000
  31
0.0
   0
ARC
   8
LEVEL001
   6
CONTINUOUS
  62
7
  10
 755.500
  20
 375.745
  30
0.0
  40
 3.00000
  50
 179.999
  51
 264.696
   0
ARC
   8
LEVEL001
   6
CONTINUOUS
  62
7
  10
 744.500
  20
 375.745
  30
0.0
  40
 3.00000
  50
 275.304
  51
 0.519850E-3
   0
ARC
   8
LEVEL001
   6
CONTINUOUS
  62
7
  10
 750.000
  20
 316.500
  30
0.0
  40
 56.5000
  50
 356.182
  51
 84.6962
   0
ARC
   8
LEVEL001
   6
CONTINUOUS
  62
7
  10
 750.000
  20
 316.500
  30
0.0
  40
 56.5000
  50
 95.3038
  51
 183.818
   0
ARC
   8
LEVEL001
   6
CONTINUOUS
  62
7
  10
 692.000
  20
 480.000
  30
0.0
  40
 2.00000
  50
 90.0009
  51
 180.000
   0
LINE
   8
LEVEL001
   6
CONTINUOUS
  62
7
  10
 692.000
  20
 482.000
  30
0.0
  11
 750.000
  21
 482.000
  31
0.0
   0
ARC
   8
LEVEL001
   6
CONTINUOUS
  62
7
  10
 808.000
  20
 480.000
  30
0.0
  40
 2.00000
  50
0.0
  51
 89.9991
   0
LINE
   8
LEVEL001
   6
CONTINUOUS
  62
7
  10
 808.000
  20
 482.000
  30
0.0
  11
 750.000
  21
 482.000
  31
0.0
   0
ARC
   8
LEVEL001
   6
CONTINUOUS
  62
7
  10
 692.000
  20
 458.576
  30
0.0
  40
 2.00000
  50
 180.000
  51
 247.850
   0
LINE
   8
LEVEL001
   6
CONTINUOUS
  62
7
  10
 690.000
  20
 480.000
  30
0.0
  11
 690.000
  21
 458.576
  31
0.0
   0
ARC
   8
LEVEL001
   6
CONTINUOUS
  62
7
  10
 808.000
  20
 458.576
  30
0.0
  40
 2.00000
  50
 292.150
  51
0.0
   0
LINE
   8
LEVEL001
   6
CONTINUOUS
  62
7
  10
 810.000
  20
 480.000
  30
0.0
  11
 810.000
  21
 458.576
  31
0.0
   0
LINE
   8
LEVEL001
   6
CONTINUOUS
  62
7
  10
 735.000
  20
 480.000
  30
0.0
  11
 765.000
  21
 480.000
  31
0.0
   0
ARC
   8
LEVEL001
   6
CONTINUOUS
  62
7
  10
 732.000
  20
 454.000
  30
0.0
  40
 3.00000
  50
 0.108563E-11
  51
 90.0000
   0
LINE
   8
LEVEL001
   6
CONTINUOUS
  62
7
  10
 692.000
  20
 457.000
  30
0.0
  11
 732.000
  21
 457.000
  31
0.0
   0
ARC
   8
LEVEL001
   6
CONTINUOUS
  62
7
  10
 768.000
  20
 454.000
  30
0.0
  40
 3.00000
  50
 90.0000
  51
 180.000
   0
LINE
   8
LEVEL001
   6
CONTINUOUS
  62
7
  10
 808.000
  20
 457.000
  30
0.0
  11
 768.000
  21
 457.000
  31
0.0
   0
LINE
   8
LEVEL001
   6
CONTINUOUS
  62
7
  10
 750.000
  20
 472.464
  30
0.0
  11
 753.000
  21
 470.732
  31
0.0
   0
LINE
   8
LEVEL001
   6
CONTINUOUS
  62
7
  10
 753.000
  20
 470.732
  30
0.0
  11
 753.000
  21
 467.268
  31
0.0
   0
LINE
   8
LEVEL001
   6
CONTINUOUS
  62
7
  10
 753.000
  20
 467.268
  30
0.0
  11
 750.000
  21
 465.536
  31
0.0
   0
LINE
   8
LEVEL001
   6
CONTINUOUS
  62
7
  10
 750.000
  20
 465.536
  30
0.0
  11
 747.000
  21
 467.268
  31
0.0
   0
LINE
   8
LEVEL001
   6
CONTINUOUS
  62
7
  10
 747.000
  20
 467.268
  30
0.0
  11
 747.000
  21
 470.732
  31
0.0
   0
LINE
   8
LEVEL001
   6
CONTINUOUS
  62
7
  10
 747.000
  20
 470.732
  30
0.0
  11
 750.000
  21
 472.464
  31
0.0
   0
CIRCLE
   8
LEVEL001
   6
CONTINUOUS
  62
7
  10
 750.000
  20
 469.000
  30
0.0
  40
 6.50000
   0
CIRCLE
   8
LEVEL001
   6
CONTINUOUS
  62
7
  10
 750.000
  20
 469.000
  30
0.0
  40
 5.80718
   0
LINE
   8
LEVEL001
   6
DASHDOT
  62
1
  10
 759.500
  20
 469.000
  30
0.0
  11
 740.500
  21
 469.000
  31
0.0
   0
ARC
   8
LEVEL001
   6
CONTINUOUS
  62
7
  10
 750.000
  20
 301.500
  30
0.0
  40
 83.0000
  50
 0.103402E-4
  51
 33.6320
   0
LINE
   8
LEVEL001
   6
CONTINUOUS
  62
7
  10
 810.000
  20
 457.000
  30
0.0
  11
 832.030
  21
 314.151
  31
0.0
   0
ARC
   8
LEVEL001
   6
CONTINUOUS
  62
7
  10
 848.248
  20
 366.855
  30
0.0
  40
 35.0000
  50
 183.798
  51
 213.632
   0
ARC
   8
LEVEL001
   6
CONTINUOUS
  62
7
  10
 651.752
  20
 366.855
  30
0.0
  40
 35.0000
  50
 326.368
  51
 356.202
   0
ARC
   8
LEVEL001
   6
CONTINUOUS
  62
7
  10
 750.000
  20
 301.500
  30
0.0
  40
 83.0000
  50
 146.368
  51
 180.000
   0
ARC
   8
LEVEL001
   6
CONTINUOUS
  62
7
  10
 692.000
  20
 458.576
  30
0.0
  40
 2.00000
  50
 180.000
  51
 247.850
   0
ARC
   8
LEVEL001
   6
CONTINUOUS
  62
7
  10
 689.608
  20
 454.000
  30
0.0
  40
 3.00000
  50
 356.202
  51
 89.9999
   0
ARC
   8
LEVEL001
   6
CONTINUOUS
  62
7
  10
 657.000
  20
 258.875
  30
0.0
  40
 10.0000
  50
0.0
  51
 97.8051
   0
ARC
   8
LEVEL001
   6
CONTINUOUS
  62
7
  10
 662.000
  20
 275.762
  30
0.0
  40
 5.00000
  50
 0.187980E-3
  51
 114.316
   0
LINE
   8
LEVEL001
   6
CONTINUOUS
  62
7
  10
 667.000
  20
 301.500
  30
0.0
  11
 667.000
  21
 255.000
  31
0.0
   0
ARC
   8
LEVEL001
   6
CONTINUOUS
  62
7
  10
 678.302
  20
 413.954
  30
0.0
  40
 5.00000
  50
 259.942
  51
 351.233
   0
LINE
   8
LEVEL001
   6
CONTINUOUS
  62
7
  10
 690.000
  20
 457.000
  30
0.0
  11
 683.244
  21
 413.192
  31
0.0
   0
ARC
   8
LEVEL001
   6
CONTINUOUS
  62
7
  10
 684.117
  20
 401.492
  30
0.0
  40
 5.00000
  50
 241.889
  51
 356.202
   0
LINE
   8
LEVEL001
   6
CONTINUOUS
  62
7
  10
 692.601
  20
 453.801
  30
0.0
  11
 686.675
  21
 364.536
  31
0.0
   0
ARC
   8
LEVEL001
   6
CONTINUOUS
  62
7
  10
 651.500
  20
 299.000
  30
0.0
  40
 30.5000
  50
 184.935
  51
 277.805
   0
ARC
   8
LEVEL001
   6
CONTINUOUS
  62
7
  10
 651.500
  20
 299.000
  30
0.0
  40
 20.5000
  50
 184.935
  51
 294.316
   0
ARC
   8
LEVEL001
   6
CONTINUOUS
  62
7
  10
 651.500
  20
 299.000
  30
0.0
  40
 15.5000
  50
 184.935
  51
0.0
   0
ARC
   8
LEVEL001
   6
CONTINUOUS
  62
7
  10
 652.000
  20
 299.000
  30
0.0
  40
 15.0000
  50
 184.954
  51
 0.703020E-3
   0
ARC
   8
LEVEL001
   6
CONTINUOUS
  62
7
  10
 672.102
  20
 379.000
  30
0.0
  40
 30.5000
  50
 79.9413
  51
 146.183
   0
ARC
   8
LEVEL001
   6
CONTINUOUS
  62
7
  10
 775.539
  20
 309.710
  30
0.0
  40
 155.000
  50
 146.183
  51
 184.935
   0
ARC
   8
LEVEL001
   6
CONTINUOUS
  62
7
  10
 775.538
  20
 309.710
  30
0.0
  40
 145.000
  50
 146.183
  51
 184.935
   0
ARC
   8
LEVEL001
   6
CONTINUOUS
  62
7
  10
 672.102
  20
 379.000
  30
0.0
  40
 20.5000
  50
 61.8888
  51
 146.182
   0
ARC
   8
LEVEL001
   6
CONTINUOUS
  62
7
  10
 775.538
  20
 309.710
  30
0.0
  40
 140.000
  50
 146.749
  51
 184.935
   0
ARC
   8
LEVEL001
   6
CONTINUOUS
  62
7
  10
 672.102
  20
 379.000
  30
0.0
  40
 15.5000
  50
 0.222304E-3
  51
 151.292
   0
ARC
   8
LEVEL001
   6
CONTINUOUS
  62
7
  10
 775.539
  20
 309.710
  30
0.0
  40
 139.000
  50
 146.749
  51
 184.955
   0
ARC
   8
LEVEL001
   6
CONTINUOUS
  62
7
  10
 672.602
  20
 379.000
  30
0.0
  40
 15.0000
  50
 0.277045E-3
  51
 152.511
   0
LINE
   8
LEVEL001
   6
CONTINUOUS
  62
7
  10
 750.000
  20
 452.464
  30
0.0
  11
 753.000
  21
 450.732
  31
0.0
   0
LINE
   8
LEVEL001
   6
CONTINUOUS
  62
7
  10
 753.000
  20
 450.732
  30
0.0
  11
 753.000
  21
 447.268
  31
0.0
   0
LINE
   8
LEVEL001
   6
CONTINUOUS
  62
7
  10
 753.000
  20
 447.268
  30
0.0
  11
 750.000
  21
 445.536
  31
0.0
   0
LINE
   8
LEVEL001
   6
CONTINUOUS
  62
7
  10
 750.000
  20
 445.536
  30
0.0
  11
 747.000
  21
 447.268
  31
0.0
   0
LINE
   8
LEVEL001
   6
CONTINUOUS
  62
7
  10
 747.000
  20
 447.268
  30
0.0
  11
 747.000
  21
 450.732
  31
0.0
   0
LINE
   8
LEVEL001
   6
CONTINUOUS
  62
7
  10
 747.000
  20
 450.732
  30
0.0
  11
 750.000
  21
 452.464
  31
0.0
   0
CIRCLE
   8
LEVEL001
   6
CONTINUOUS
  62
7
  10
 750.000
  20
 449.000
  30
0.0
  40
 6.50000
   0
CIRCLE
   8
LEVEL001
   6
CONTINUOUS
  62
7
  10
 750.000
  20
 449.000
  30
0.0
  40
 5.80718
   0
LINE
   8
LEVEL001
   6
DASHDOT
  62
1
  10
 759.500
  20
 449.000
  30
0.0
  11
 740.500
  21
 449.000
  31
0.0
   0
ARC
   8
LEVEL001
   6
CONTINUOUS
  62
7
  10
 738.000
  20
 440.000
  30
0.0
  40
 3.00000
  50
 180.000
  51
 270.000
   0
ARC
   8
LEVEL001
   6
CONTINUOUS
  62
7
  10
 762.000
  20
 440.000
  30
0.0
  40
 3.00000
  50
 270.000
  51
0.0
   0
LINE
   8
LEVEL001
   6
CONTINUOUS
  62
7
  10
 765.000
  20
 480.000
  30
0.0
  11
 765.000
  21
 440.000
  31
0.0
   0
LINE
   8
LEVEL001
   6
CONTINUOUS
  62
7
  10
 735.000
  20
 480.000
  30
0.0
  11
 735.000
  21
 440.000
  31
0.0
   0
ARC
   8
LEVEL001
   6
CONTINUOUS
  62
7
  10
 755.500
  20
 434.000
  30
0.0
  40
 3.00000
  50
 90.0000
  51
 180.000
   0
ARC
   8
LEVEL001
   6
CONTINUOUS
  62
7
  10
 744.500
  20
 434.000
  30
0.0
  40
 3.00000
  50
 0.208441E-9
  51
 90.0000
   0
LINE
   8
LEVEL001
   6
CONTINUOUS
  62
7
  10
 738.000
  20
 437.000
  30
0.0
  11
 762.000
  21
 437.000
  31
0.0
   0
LINE
   8
LEVEL001
   6
CONTINUOUS
  62
7
  10
 747.500
  20
 434.000
  30
0.0
  11
 747.500
  21
 350.308
  31
0.0
   0
LINE
   8
LEVEL001
   6
CONTINUOUS
  62
7
  10
 752.500
  20
 434.000
  30
0.0
  11
 752.500
  21
 350.308
  31
0.0
   0
LINE
   8
LEVEL003
   6
CONTINUOUS
  62
7
  10
 802.500
  20
 482.000
  30
0.0
  11
 802.500
  21
 497.000
  31
0.0
   0
ARC
   8
LEVEL003
   6
CONTINUOUS
  62
7
  10
 799.500
  20
 497.000
  30
0.0
  40
 3.00000
  50
0.0
  51
 90.0000
   0
LINE
   8
LEVEL003
   6
CONTINUOUS
  62
7
  10
 799.500
  20
 500.000
  30
0.0
  11
 700.500
  21
 500.000
  31
0.0
   0
LINE
   8
LEVEL003
   6
DASHDOT
  62
1
  10
 767.500
  20
 496.250
  30
0.0
  11
 767.500
  21
 500.750
  31
0.0
   0
LINE
   8
LEVEL003
   6
DASHDOT
  62
1
  10
 785.000
  20
 496.250
  30
0.0
  11
 785.000
  21
 500.750
  31
0.0
   0
LINE
   8
LEVEL003
   6
DASHDOT
  62
1
  10
 732.500
  20
 496.250
  30
0.0
  11
 732.500
  21
 500.750
  31
0.0
   0
LINE
   8
LEVEL003
   6
DASHDOT
  62
1
  10
 715.000
  20
 496.250
  30
0.0
  11
 715.000
  21
 500.750
  31
0.0
   0
ARC
   8
LEVEL003
   6
CONTINUOUS
  62
7
  10
 700.500
  20
 497.000
  30
0.0
  40
 3.00000
  50
 90.0000
  51
 180.000
   0
LINE
   8
LEVEL003
   6
CONTINUOUS
  62
7
  10
 697.500
  20
 482.000
  30
0.0
  11
 697.500
  21
 497.000
  31
0.0
   0
LINE
   8
LEVEL001
   6
DASHDOT
  62
1
  10
 770.000
  20
 214.564
  30
0.0
  11
 770.000
  21
 207.282
  31
0.0
   0
LINE
   8
LEVEL001
   6
DASHDOT
  62
1
  10
 790.000
  20
 214.564
  30
0.0
  11
 790.000
  21
 207.282
  31
0.0
   0
LINE
   8
LEVEL001
   6
DASHDOT
  62
1
  10
 810.000
  20
 214.564
  30
0.0
  11
 810.000
  21
 207.282
  31
0.0
   0
LINE
   8
LEVEL001
   6
DASHDOT
  62
1
  10
 690.000
  20
 214.564
  30
0.0
  11
 690.000
  21
 207.282
  31
0.0
   0
LINE
   8
LEVEL001
   6
DASHDOT
  62
1
  10
 710.000
  20
 214.564
  30
0.0
  11
 710.000
  21
 207.282
  31
0.0
   0
LINE
   8
LEVEL001
   6
DASHDOT
  62
1
  10
 730.000
  20
 214.064
  30
0.0
  11
 730.000
  21
 207.282
  31
0.0
   0
ARC
   8
LEVEL001
   6
CONTINUOUS
  62
7
  10
 830.000
  20
 213.000
  30
0.0
  40
 3.00000
  50
 270.000
  51
 0.939069E-10
   0
LINE
   8
LEVEL001
   6
CONTINUOUS
  62
7
  10
 833.000
  20
 213.000
  30
0.0
  11
 833.000
  21
 224.000
  31
0.0
   0
LINE
   8
LEVEL001
   6
CONTINUOUS
  62
7
  10
 830.000
  20
 210.000
  30
0.0
  11
 670.000
  21
 210.000
  31
0.0
   0
ARC
   8
LEVEL001
   6
CONTINUOUS
  62
7
  10
 670.000
  20
 213.000
  30
0.0
  40
 3.00000
  50
 180.000
  51
 270.000
   0
LINE
   8
LEVEL001
   6
CONTINUOUS
  62
7
  10
 667.000
  20
 213.000
  30
0.0
  11
 667.000
  21
 224.000
  31
0.0
   0
LINE
   8
LEVEL001
   6
DASHDOT
  62
1
  10
 750.000
  20
 198.500
  30
0.0
  11
 750.000
  21
 505.926
  31
0.0
   0
ARC
   8
LEVEL003
   6
CONTINUOUS
  62
7
  10
 739.000
  20
 265.500
  30
0.0
  40
 3.00000
  50
 180.000
  51
 270.000
   0
CIRCLE
   8
0
   6
CONTINUOUS
  62
7
  10
 752.523
  20
 268.540
  30
0.0
  40
 3.33333
   0
LINE
   8
0
   6
CONTINUOUS
  62
7
  10
 745.980
  20
 265.206
  30
0.0
  11
 750.214
  21
 272.540
  31
0.0
   0
LINE
   8
0
   6
CONTINUOUS
  62
7
  10
 750.214
  20
 272.540
  30
0.0
  11
 758.682
  21
 272.540
  31
0.0
   0
LINE
   8
0
   6
CONTINUOUS
  62
7
  10
 758.682
  20
 272.540
  30
0.0
  11
 759.644
  21
 274.206
  31
0.0
   0
LINE
   8
0
   6
CONTINUOUS
  62
7
  10
 759.644
  20
 274.206
  30
0.0
  11
 744.510
  21
 274.206
  31
0.0
   0
LINE
   8
0
   6
CONTINUOUS
  62
7
  10
 744.510
  20
 274.206
  30
0.0
  11
 739.313
  21
 265.206
  31
0.0
   0
LINE
   8
0
   6
CONTINUOUS
  62
7
  10
 739.313
  20
 265.206
  30
0.0
  11
 745.980
  21
 265.206
  31
0.0
   0
ARC
   8
LEVEL003
   6
CONTINUOUS
  62
7
  10
 734.000
  20
 275.700
  30
0.0
  40
 2.00000
  50
0.0
  51
 90.0000
   0
LINE
   8
LEVEL003
   6
CONTINUOUS
  62
7
  10
 739.000
  20
 262.500
  30
0.0
  11
 761.000
  21
 262.500
  31
0.0
   0
ARC
   8
LEVEL003
   6
CONTINUOUS
  62
7
  10
 761.000
  20
 265.500
  30
0.0
  40
 3.00000
  50
 270.000
  51
 0.260551E-10
   0
ARC
   8
LEVEL003
   6
CONTINUOUS
  62
7
  10
 766.000
  20
 275.700
  30
0.0
  40
 2.00000
  50
 90.0000
  51
 180.000
   0
LINE
   8
LEVEL003
   6
CONTINUOUS
  62
7
  10
 764.000
  20
 265.500
  30
0.0
  11
 764.000
  21
 275.700
  31
0.0
   0
LINE
   8
LEVEL003
   6
CONTINUOUS
  62
7
  10
 736.000
  20
 265.500
  30
0.0
  11
 736.000
  21
 275.700
  31
0.0
   0
ARC
   8
LEVEL001
   6
CONTINUOUS
  62
7
  10
 722.000
  20
 278.466
  30
0.0
  40
 3.00000
  50
 0.108563E-11
  51
 90.0000
   0
ARC
   8
LEVEL001
   6
CONTINUOUS
  62
7
  10
 778.000
  20
 278.466
  30
0.0
  40
 3.00000
  50
 90.0000
  51
 180.000
   0
LINE
   8
LEVEL001
   6
CONTINUOUS
  62
7
  10
 725.000
  20
 278.466
  30
0.0
  11
 725.000
  21
 231.380
  31
0.0
   0
LINE
   8
LEVEL001
   6
CONTINUOUS
  62
7
  10
 775.000
  20
 278.466
  30
0.0
  11
 775.000
  21
 231.380
  31
0.0
   0
LINE
   8
LEVEL003
   6
CONTINUOUS
  62
7
  10
 719.693
  20
 286.000
  30
0.0
  11
 717.693
  21
 288.000
  31
0.0
   0
LINE
   8
LEVEL003
   6
CONTINUOUS
  62
7
  10
 717.693
  20
 288.000
  30
0.0
  11
 717.693
  21
 287.000
  31
0.0
   0
LINE
   8
LEVEL003
   6
CONTINUOUS
  62
7
  10
 717.693
  20
 287.000
  30
0.0
  11
 710.693
  21
 287.000
  31
0.0
   0
LINE
   8
LEVEL003
   6
CONTINUOUS
  62
7
  10
 710.693
  20
 287.000
  30
0.0
  11
 710.693
  21
 285.000
  31
0.0
   0
LINE
   8
LEVEL003
   6
CONTINUOUS
  62
7
  10
 710.693
  20
 285.000
  30
0.0
  11
 717.693
  21
 285.000
  31
0.0
   0
LINE
   8
LEVEL003
   6
CONTINUOUS
  62
7
  10
 717.693
  20
 285.000
  30
0.0
  11
 717.693
  21
 284.000
  31
0.0
   0
LINE
   8
LEVEL003
   6
CONTINUOUS
  62
7
  10
 717.693
  20
 284.000
  30
0.0
  11
 719.693
  21
 286.000
  31
0.0
   0
TEXT
   8
LEVEL003
  62
7
  10
 707.036
  20
 290.202
  30
0.0
  40
 8.10000
   1
ＵＰ
  50
 180.000
  41
 0.851852
   7
STANDARD
   0
LINE
   8
LEVEL003
   6
CONTINUOUS
  62
7
  10
 768.420
  20
 286.000
  30
0.0
  11
 770.420
  21
 288.000
  31
0.0
   0
LINE
   8
LEVEL003
   6
CONTINUOUS
  62
7
  10
 770.420
  20
 288.000
  30
0.0
  11
 770.420
  21
 287.000
  31
0.0
   0
LINE
   8
LEVEL003
   6
CONTINUOUS
  62
7
  10
 770.420
  20
 287.000
  30
0.0
  11
 777.420
  21
 287.000
  31
0.0
   0
LINE
   8
LEVEL003
   6
CONTINUOUS
  62
7
  10
 777.420
  20
 287.000
  30
0.0
  11
 777.420
  21
 285.000
  31
0.0
   0
LINE
   8
LEVEL003
   6
CONTINUOUS
  62
7
  10
 777.420
  20
 285.000
  30
0.0
  11
 770.420
  21
 285.000
  31
0.0
   0
LINE
   8
LEVEL003
   6
CONTINUOUS
  62
7
  10
 770.420
  20
 285.000
  30
0.0
  11
 770.420
  21
 284.000
  31
0.0
   0
LINE
   8
LEVEL003
   6
CONTINUOUS
  62
7
  10
 770.420
  20
 284.000
  30
0.0
  11
 768.420
  21
 286.000
  31
0.0
   0
TEXT
   8
LEVEL003
  62
7
  10
 808.788
  20
 290.202
  30
0.0
  40
 8.10000
   1
ＤＯＷＮ
  50
 180.000
  41
 0.851852
   7
STANDARD
   0
ARC
   8
LEVEL001
   6
CONTINUOUS
  62
7
  10
 794.890
  20
 384.000
  30
0.0
  40
 2.00000
  50
 184.807
  51
 270.000
   0
ARC
   8
LEVEL001
   6
CONTINUOUS
  62
7
  10
 808.295
  20
 452.000
  30
0.0
  40
 2.00000
  50
 3.25629
  51
 90.0000
   0
LINE
   8
LEVEL001
   6
CONTINUOUS
  62
7
  10
 810.292
  20
 452.114
  30
0.0
  11
 814.161
  21
 384.114
  31
0.0
   0
ARC
   8
LEVEL001
   6
CONTINUOUS
  62
7
  10
 789.172
  20
 452.000
  30
0.0
  40
 2.00000
  50
 90.0000
  51
 184.807
   0
LINE
   8
LEVEL001
   6
CONTINUOUS
  62
7
  10
 787.179
  20
 451.832
  30
0.0
  11
 792.897
  21
 383.832
  31
0.0
   0
LINE
   8
LEVEL001
   6
CONTINUOUS
  62
7
  10
 812.305
  20
 379.906
  30
0.0
  11
 813.325
  21
 364.537
  31
0.0
   0
ARC
   8
LEVEL001
   6
CONTINUOUS
  62
7
  10
 815.298
  20
 380.104
  30
0.0
  40
 3.00000
  50
 128.817
  51
 183.798
   0
ARC
   8
LEVEL001
   6
CONTINUOUS
  62
7
  10
 812.164
  20
 384.000
  30
0.0
  40
 2.00000
  50
 308.817
  51
 3.25629
   0
ARC
   8
LEVEL001
   6
CONTINUOUS
  62
7
  10
 794.301
  20
 379.000
  30
0.0
  40
 3.00000
  50
 90.0000
  51
 185.024
   0
LINE
   8
LEVEL001
   6
CONTINUOUS
  62
7
  10
 794.301
  20
 382.000
  30
0.0
  11
 812.164
  21
 382.000
  31
0.0
   0
LINE
   8
LEVEL001
   6
CONTINUOUS
  62
7
  10
 790.881
  20
 383.655
  30
0.0
  11
 784.904
  21
 451.632
  31
0.0
   0
LINE
   8
LEVEL001
   6
CONTINUOUS
  62
7
  10
 789.172
  20
 454.000
  30
0.0
  11
 808.295
  21
 454.000
  31
0.0
   0
ARC
   8
LEVEL001
   6
CONTINUOUS
  62
7
  10
 786.528
  20
 456.000
  30
0.0
  40
 2.00000
  50
 218.257
  51
 270.000
   0
ARC
   8
LEVEL001
   6
CONTINUOUS
  62
7
  10
 810.392
  20
 454.000
  30
0.0
  40
 3.00000
  50
 121.029
  51
 150.056
   0
ARC
   8
LEVEL001
   6
CONTINUOUS
  62
7
  10
 235.000
  20
 213.000
  30
0.0
  40
 3.00000
  50
 180.000
  51
 270.000
   0
LINE
   8
LEVEL001
   6
CONTINUOUS
  62
7
  10
 232.000
  20
 213.000
  30
0.0
  11
 232.000
  21
 224.000
  31
0.0
   0
ARC
   8
LEVEL001
   6
CONTINUOUS
  62
7
  10
 395.000
  20
 213.000
  30
0.0
  40
 3.00000
  50
 270.000
  51
0.0
   0
LINE
   8
LEVEL001
   6
CONTINUOUS
  62
7
  10
 398.000
  20
 213.000
  30
0.0
  11
 398.000
  21
 224.000
  31
0.0
   0
LINE
   8
LEVEL001
   6
DASHDOT
  62
1
  10
 255.000
  20
 214.564
  30
0.0
  11
 255.000
  21
 207.282
  31
0.0
   0
LINE
   8
LEVEL001
   6
DASHDOT
  62
1
  10
 275.000
  20
 214.564
  30
0.0
  11
 275.000
  21
 207.282
  31
0.0
   0
LINE
   8
LEVEL001
   6
DASHDOT
  62
1
  10
 335.000
  20
 214.564
  30
0.0
  11
 335.000
  21
 207.282
  31
0.0
   0
LINE
   8
LEVEL001
   6
DASHDOT
  62
1
  10
 355.000
  20
 214.564
  30
0.0
  11
 355.000
  21
 207.282
  31
0.0
   0
LINE
   8
LEVEL001
   6
DASHDOT
  62
1
  10
 375.000
  20
 214.564
  30
0.0
  11
 375.000
  21
 207.282
  31
0.0
   0
LINE
   8
LEVEL001
   6
DASHDOT
  62
1
  10
 295.000
  20
 214.064
  30
0.0
  11
 295.000
  21
 207.282
  31
0.0
   0
LINE
   8
LEVEL001
   6
DASHDOT
  62
1
  10
 439.626
  20
 286.000
  30
0.0
  11
 509.626
  21
 286.000
  31
0.0
   0
LINE
   8
LEVEL001
   6
CONTINUOUS
  62
7
  10
 223.500
  20
 239.000
  30
0.0
  11
 223.500
  21
 224.000
  31
0.0
   0
LINE
   8
LEVEL001
   6
CONTINUOUS
  62
7
  10
 230.500
  20
 255.000
  30
0.0
  11
 230.500
  21
 239.000
  31
0.0
   0
LINE
   8
LEVEL001
   6
CONTINUOUS
  62
7
  10
 399.500
  20
 255.000
  30
0.0
  11
 399.500
  21
 239.000
  31
0.0
   0
LINE
   8
LEVEL001
   6
CONTINUOUS
  62
7
  10
 406.500
  20
 239.000
  30
0.0
  11
 406.500
  21
 224.000
  31
0.0
   0
LINE
   8
LEVEL001
   6
DASHDOT
  62
1
  10
 385.000
  20
 231.500
  30
0.0
  11
 407.000
  21
 231.500
  31
0.0
   0
LINE
   8
LEVEL001
   6
CONTINUOUS
  62
7
  10
 441.000
  20
 287.357
  30
0.0
  11
 403.000
  21
 260.000
  31
0.0
   0
ARC
   8
LEVEL001
   6
CONTINUOUS
  62
7
  10
 423.000
  20
 261.322
  30
0.0
  40
 25.0000
  50
 93.1108
  51
 180.000
   0
LINE
   8
LEVEL001
   6
CONTINUOUS
  62
7
  10
 398.000
  20
 261.322
  30
0.0
  11
 398.000
  21
 255.000
  31
0.0
   0
LINE
   8
LEVEL001
   6
CONTINUOUS
  62
7
  10
 444.000
  20
 289.500
  30
0.0
  11
 442.003
  21
 287.391
  31
0.0
   0
LINE
   8
LEVEL001
   6
CONTINUOUS
  62
7
  10
 421.643
  20
 286.285
  30
0.0
  11
 442.003
  21
 287.391
  31
0.0
   0
LINE
   8
LEVEL001
   6
CONTINUOUS
  62
7
  10
 398.000
  20
 260.000
  30
0.0
  11
 403.000
  21
 260.000
  31
0.0
   0
LINE
   8
LEVEL001
   6
CONTINUOUS
  62
7
  10
 442.003
  20
 345.609
  30
0.0
  11
 444.000
  21
 343.500
  31
0.0
   0
ARC
   8
LEVEL001
   6
CONTINUOUS
  62
7
  10
 409.606
  20
 359.387
  30
0.0
  40
 12.0000
  50
 189.220
  51
 266.889
   0
LINE
   8
LEVEL001
   6
CONTINUOUS
  62
7
  10
 408.955
  20
 347.405
  30
0.0
  11
 442.003
  21
 345.609
  31
0.0
   0
ARC
   8
LEVEL001
   6
CONTINUOUS
  62
7
  10
 379.500
  20
 354.500
  30
0.0
  40
 18.5000
  50
 9.22002
  51
 49.5887
   0
LINE
   8
LEVEL001
   6
CONTINUOUS
  62
7
  10
 441.000
  20
 345.663
  30
0.0
  11
 410.563
  21
 363.236
  31
0.0
   0
ARC
   8
LEVEL001
   6
CONTINUOUS
  62
7
  10
 373.000
  20
 480.000
  30
0.0
  40
 2.00000
  50
0.0
  51
 89.9998
   0
LINE
   8
LEVEL001
   6
CONTINUOUS
  62
7
  10
 375.000
  20
 480.000
  30
0.0
  11
 377.000
  21
 480.000
  31
0.0
   0
LINE
   8
LEVEL001
   6
CONTINUOUS
  62
7
  10
 377.000
  20
 475.500
  30
0.0
  11
 377.000
  21
 462.500
  31
0.0
   0
LINE
   8
LEVEL001
   6
CONTINUOUS
  62
7
  10
 377.000
  20
 462.500
  30
0.0
  11
 384.600
  21
 462.500
  31
0.0
   0
LINE
   8
LEVEL001
   6
CONTINUOUS
  62
7
  10
 384.600
  20
 462.500
  30
0.0
  11
 385.000
  21
 463.193
  31
0.0
   0
LINE
   8
LEVEL001
   6
CONTINUOUS
  62
7
  10
 385.000
  20
 463.193
  30
0.0
  11
 385.000
  21
 474.807
  31
0.0
   0
LINE
   8
LEVEL001
   6
CONTINUOUS
  62
7
  10
 385.000
  20
 474.807
  30
0.0
  11
 384.600
  21
 475.500
  31
0.0
   0
LINE
   8
LEVEL001
   6
CONTINUOUS
  62
7
  10
 384.600
  20
 475.500
  30
0.0
  11
 377.000
  21
 475.500
  31
0.0
   0
LINE
   8
LEVEL001
   6
CONTINUOUS
  62
7
  10
 384.600
  20
 475.500
  30
0.0
  11
 384.600
  21
 462.500
  31
0.0
   0
ARC
   8
LEVEL001
   6
CONTINUOUS
  62
7
  10
 257.000
  20
 480.000
  30
0.0
  40
 2.00000
  50
 90.0002
  51
 180.000
   0
LINE
   8
LEVEL001
   6
CONTINUOUS
  62
7
  10
 255.000
  20
 480.000
  30
0.0
  11
 255.000
  21
 457.000
  31
0.0
   0
LINE
   8
LEVEL001
   6
DASHDOT
  62
1
  10
 385.000
  20
 469.000
  30
0.0
  11
 354.500
  21
 469.000
  31
0.0
   0
LINE
   8
LEVEL001
   6
CONTINUOUS
  62
7
  10
 377.000
  20
 455.500
  30
0.0
  11
 377.000
  21
 442.500
  31
0.0
   0
LINE
   8
LEVEL001
   6
CONTINUOUS
  62
7
  10
 377.000
  20
 442.500
  30
0.0
  11
 384.600
  21
 442.500
  31
0.0
   0
LINE
   8
LEVEL001
   6
CONTINUOUS
  62
7
  10
 384.600
  20
 442.500
  30
0.0
  11
 385.000
  21
 443.193
  31
0.0
   0
LINE
   8
LEVEL001
   6
CONTINUOUS
  62
7
  10
 385.000
  20
 443.193
  30
0.0
  11
 385.000
  21
 454.807
  31
0.0
   0
LINE
   8
LEVEL001
   6
CONTINUOUS
  62
7
  10
 385.000
  20
 454.807
  30
0.0
  11
 384.600
  21
 455.500
  31
0.0
   0
LINE
   8
LEVEL001
   6
CONTINUOUS
  62
7
  10
 384.600
  20
 455.500
  30
0.0
  11
 377.000
  21
 455.500
  31
0.0
   0
LINE
   8
LEVEL001
   6
CONTINUOUS
  62
7
  10
 384.600
  20
 455.500
  30
0.0
  11
 384.600
  21
 442.500
  31
0.0
   0
LINE
   8
LEVEL001
   6
DASHDOT
  62
1
  10
 385.000
  20
 449.000
  30
0.0
  11
 354.500
  21
 449.000
  31
0.0
   0
ARC
   8
LEVEL001
   6
CONTINUOUS
  62
7
  10
 375.000
  20
 438.713
  30
0.0
  40
 2.00000
  50
 289.505
  51
 0.987647E-3
   0
LINE
   8
LEVEL001
   6
CONTINUOUS
  62
7
  10
 377.000
  20
 480.000
  30
0.0
  11
 377.000
  21
 438.713
  31
0.0
   0
ARC
   8
LEVEL001
   6
CONTINUOUS
  62
7
  10
 376.669
  20
 434.000
  30
0.0
  40
 3.00000
  50
 109.505
  51
 182.987
   0
ARC
   8
LEVEL001
   6
CONTINUOUS
  62
7
  10
 254.608
  20
 454.000
  30
0.0
  40
 3.00000
  50
 356.202
  51
 89.9999
   0
LINE
   8
LEVEL001
   6
CONTINUOUS
  62
7
  10
 255.000
  20
 457.000
  30
0.0
  11
 232.970
  21
 314.151
  31
0.0
   0
ARC
   8
LEVEL001
   6
CONTINUOUS
  62
7
  10
 216.752
  20
 366.855
  30
0.0
  40
 35.0000
  50
 326.368
  51
 356.202
   0
LINE
   8
LEVEL001
   6
CONTINUOUS
  62
7
  10
 257.601
  20
 453.801
  30
0.0
  11
 251.675
  21
 364.536
  31
0.0
   0
LINE
   8
LEVEL001
   6
CONTINUOUS
  62
7
  10
 377.000
  20
 438.713
  30
0.0
  11
 392.160
  21
 386.687
  31
0.0
   0
ARC
   8
LEVEL001
   6
CONTINUOUS
  62
7
  10
 430.563
  20
 397.877
  30
0.0
  40
 40.0000
  50
 196.246
  51
 240.000
   0
ARC
   8
LEVEL001
   6
CONTINUOUS
  62
7
  10
 396.697
  20
 389.727
  30
0.0
  40
 20.0000
  50
 183.798
  51
 234.420
   0
ARC
   8
LEVEL001
   6
CONTINUOUS
  62
7
  10
 295.165
  20
 247.806
  30
0.0
  40
 154.500
  50
 51.4256
  51
 54.4195
   0
LINE
   8
LEVEL003
   6
CONTINUOUS
  62
7
  10
 262.500
  20
 482.000
  30
0.0
  11
 262.500
  21
 497.000
  31
0.0
   0
ARC
   8
LEVEL003
   6
CONTINUOUS
  62
7
  10
 265.500
  20
 497.000
  30
0.0
  40
 3.00000
  50
 90.0000
  51
 180.000
   0
LINE
   8
LEVEL003
   6
CONTINUOUS
  62
7
  10
 265.500
  20
 500.000
  30
0.0
  11
 364.500
  21
 500.000
  31
0.0
   0
ARC
   8
LEVEL003
   6
CONTINUOUS
  62
7
  10
 364.500
  20
 497.000
  30
0.0
  40
 3.00000
  50
 0.868503E-11
  51
 90.0000
   0
LINE
   8
LEVEL003
   6
CONTINUOUS
  62
7
  10
 367.500
  20
 482.000
  30
0.0
  11
 367.500
  21
 497.000
  31
0.0
   0
LINE
   8
LEVEL003
   6
DASHDOT
  62
1
  10
 332.500
  20
 496.250
  30
0.0
  11
 332.500
  21
 500.750
  31
0.0
   0
LINE
   8
LEVEL003
   6
DASHDOT
  62
1
  10
 350.000
  20
 496.250
  30
0.0
  11
 350.000
  21
 500.750
  31
0.0
   0
LINE
   8
LEVEL003
   6
DASHDOT
  62
1
  10
 297.500
  20
 496.250
  30
0.0
  11
 297.500
  21
 500.750
  31
0.0
   0
LINE
   8
LEVEL003
   6
DASHDOT
  62
1
  10
 280.000
  20
 496.250
  30
0.0
  11
 280.000
  21
 500.750
  31
0.0
   0
LINE
   8
LEVEL003
   6
CONTINUOUS
  62
3
  10
 262.500
  20
 500.000
  30
0.0
  11
 262.500
  21
 534.500
  31
0.0
   0
LINE
   8
LEVEL003
   6
CONTINUOUS
  62
3
  10
 367.500
  20
 500.000
  30
0.0
  11
 367.500
  21
 534.500
  31
0.0
   0
LINE
   8
LEVEL003
   6
CONTINUOUS
  62
3
  10
 262.500
  20
 528.500
  30
0.0
  11
 367.500
  21
 528.500
  31
0.0
   0
LINE
   8
LEVEL003
   6
CONTINUOUS
  62
3
  10
 271.500
  20
 527.000
  30
0.0
  11
 262.500
  21
 528.500
  31
0.0
   0
LINE
   8
LEVEL003
   6
CONTINUOUS
  62
3
  10
 262.500
  20
 528.500
  30
0.0
  11
 271.500
  21
 530.000
  31
0.0
   0
LINE
   8
LEVEL003
   6
CONTINUOUS
  62
3
  10
 262.500
  20
 528.500
  30
0.0
  11
 271.500
  21
 528.500
  31
0.0
   0
LINE
   8
LEVEL003
   6
CONTINUOUS
  62
3
  10
 358.500
  20
 530.000
  30
0.0
  11
 367.500
  21
 528.500
  31
0.0
   0
LINE
   8
LEVEL003
   6
CONTINUOUS
  62
3
  10
 367.500
  20
 528.500
  30
0.0
  11
 358.500
  21
 527.000
  31
0.0
   0
LINE
   8
LEVEL003
   6
CONTINUOUS
  62
3
  10
 367.500
  20
 528.500
  30
0.0
  11
 358.500
  21
 528.500
  31
0.0
   0
TEXT
   8
LEVEL003
  62
3
  10
 300.000
  20
 522.900
  30
0.0
  40
 12.0000
   1
%%c105
   7
STANDARD
  72
1
  11
 315.000
  21
 530.900
  31
0.0
  73
2
   0
LINE
   8
LEVEL001
   6
DASHDOT
  62
1
  10
 315.000
  20
 198.500
  30
0.0
  11
 315.000
  21
 506.555
  31
0.0
   0
LINE
   8
LEVEL001
   6
CONTINUOUS
  62
7
  10
 395.000
  20
 210.000
  30
0.0
  11
 235.000
  21
 210.000
  31
0.0
   0
LINE
   8
LEVEL003
   6
CONTINUOUS
  62
3
  10
 262.500
  20
 500.000
  30
0.0
  11
 149.000
  21
 500.000
  31
0.0
   0
LINE
   8
LEVEL003
   6
CONTINUOUS
  62
3
  10
 232.000
  20
 210.000
  30
0.0
  11
 149.000
  21
 210.000
  31
0.0
   0
LINE
   8
LEVEL003
   6
CONTINUOUS
  62
3
  10
 155.000
  20
 500.000
  30
0.0
  11
 155.000
  21
 210.000
  31
0.0
   0
LINE
   8
LEVEL003
   6
CONTINUOUS
  62
3
  10
 153.500
  20
 491.000
  30
0.0
  11
 155.000
  21
 500.000
  31
0.0
   0
LINE
   8
LEVEL003
   6
CONTINUOUS
  62
3
  10
 155.000
  20
 500.000
  30
0.0
  11
 156.500
  21
 491.000
  31
0.0
   0
LINE
   8
LEVEL003
   6
CONTINUOUS
  62
3
  10
 155.000
  20
 500.000
  30
0.0
  11
 155.000
  21
 491.000
  31
0.0
   0
LINE
   8
LEVEL003
   6
CONTINUOUS
  62
3
  10
 156.500
  20
 219.000
  30
0.0
  11
 155.000
  21
 210.000
  31
0.0
   0
LINE
   8
LEVEL003
   6
CONTINUOUS
  62
3
  10
 155.000
  20
 210.000
  30
0.0
  11
 153.500
  21
 219.000
  31
0.0
   0
LINE
   8
LEVEL003
   6
CONTINUOUS
  62
3
  10
 155.000
  20
 210.000
  30
0.0
  11
 155.000
  21
 219.000
  31
0.0
   0
TEXT
   8
LEVEL003
  62
3
  10
 160.600
  20
 346.000
  30
0.0
  40
 12.0000
   1
290
  50
 90.0000
  41
 0.500000
   7
STANDARD
  72
1
  11
 152.600
  21
 355.000
  31
0.0
  73
2
   0
LINE
   8
LEVEL003
   6
CONTINUOUS
  62
3
  10
 232.000
  20
 210.000
  30
0.0
  11
 232.000
  21
 162.500
  31
0.0
   0
LINE
   8
LEVEL003
   6
CONTINUOUS
  62
3
  10
 398.000
  20
 210.000
  30
0.0
  11
 398.000
  21
 162.500
  31
0.0
   0
LINE
   8
LEVEL003
   6
CONTINUOUS
  62
3
  10
 232.000
  20
 168.500
  30
0.0
  11
 398.000
  21
 168.500
  31
0.0
   0
LINE
   8
LEVEL003
   6
CONTINUOUS
  62
3
  10
 241.000
  20
 167.000
  30
0.0
  11
 232.000
  21
 168.500
  31
0.0
   0
LINE
   8
LEVEL003
   6
CONTINUOUS
  62
3
  10
 232.000
  20
 168.500
  30
0.0
  11
 241.000
  21
 170.000
  31
0.0
   0
LINE
   8
LEVEL003
   6
CONTINUOUS
  62
3
  10
 232.000
  20
 168.500
  30
0.0
  11
 241.000
  21
 168.500
  31
0.0
   0
LINE
   8
LEVEL003
   6
CONTINUOUS
  62
3
  10
 389.000
  20
 170.000
  30
0.0
  11
 398.000
  21
 168.500
  31
0.0
   0
LINE
   8
LEVEL003
   6
CONTINUOUS
  62
3
  10
 398.000
  20
 168.500
  30
0.0
  11
 389.000
  21
 167.000
  31
0.0
   0
LINE
   8
LEVEL003
   6
CONTINUOUS
  62
3
  10
 398.000
  20
 168.500
  30
0.0
  11
 389.000
  21
 168.500
  31
0.0
   0
TEXT
   8
LEVEL003
  62
3
  10
 300.000
  20
 162.900
  30
0.0
  40
 12.0000
   1
%%c166
   7
STANDARD
  72
1
  11
 315.000
  21
 170.900
  31
0.0
  73
2
   0
LINE
   8
LEVEL003
   6
CONTINUOUS
  62
3
  10
 262.500
  20
 500.000
  30
0.0
  11
 179.000
  21
 500.000
  31
0.0
   0
LINE
   8
LEVEL003
   6
CONTINUOUS
  62
3
  10
 254.000
  20
 482.000
  30
0.0
  11
 179.000
  21
 482.000
  31
0.0
   0
LINE
   8
LEVEL003
   6
CONTINUOUS
  62
3
  10
 185.000
  20
 500.000
  30
0.0
  11
 185.000
  21
 482.000
  31
0.0
   0
LINE
   8
LEVEL003
   6
CONTINUOUS
  62
3
  10
 183.500
  20
 491.000
  30
0.0
  11
 185.000
  21
 500.000
  31
0.0
   0
LINE
   8
LEVEL003
   6
CONTINUOUS
  62
3
  10
 185.000
  20
 500.000
  30
0.0
  11
 186.500
  21
 491.000
  31
0.0
   0
LINE
   8
LEVEL003
   6
CONTINUOUS
  62
3
  10
 185.000
  20
 500.000
  30
0.0
  11
 185.000
  21
 491.000
  31
0.0
   0
LINE
   8
LEVEL003
   6
CONTINUOUS
  62
3
  10
 186.500
  20
 491.000
  30
0.0
  11
 185.000
  21
 482.000
  31
0.0
   0
LINE
   8
LEVEL003
   6
CONTINUOUS
  62
3
  10
 185.000
  20
 482.000
  30
0.0
  11
 183.500
  21
 491.000
  31
0.0
   0
LINE
   8
LEVEL003
   6
CONTINUOUS
  62
3
  10
 185.000
  20
 482.000
  30
0.0
  11
 185.000
  21
 491.000
  31
0.0
   0
TEXT
   8
LEVEL003
  62
3
  10
 190.635
  20
 483.799
  30
0.0
  40
 12.0000
   1
18
  50
 90.0000
  41
 0.500000
   7
STANDARD
  72
1
  11
 182.635
  21
 489.799
  31
0.0
  73
2
   0
ARC
   8
LEVEL001
   6
CONTINUOUS
  62
7
  10
 494.500
  20
 292.000
  30
0.0
  40
 1.00000
  50
 90.0009
  51
 180.002
   0
ARC
   8
LEVEL001
   6
CONTINUOUS
  62
7
  10
 494.500
  20
 218.500
  30
0.0
  40
 2.00000
  50
 270.000
  51
 0.112363E-9
   0
ARC
   8
LEVEL001
   6
CONTINUOUS
  62
7
  10
 495.500
  20
 225.500
  30
0.0
  40
 1.00000
  50
 359.998
  51
 89.9991
   0
ARC
   8
LEVEL001
   6
CONTINUOUS
  62
7
  10
 495.000
  20
 227.500
  30
0.0
  40
 1.00000
  50
 180.001
  51
 269.999
   0
LINE
   8
LEVEL001
   6
CONTINUOUS
  62
7
  10
 495.000
  20
 226.500
  30
0.0
  11
 495.500
  21
 226.500
  31
0.0
   0
LINE
   8
LEVEL001
   6
DASHDOT
  62
1
  10
 482.126
  20
 236.500
  30
0.0
  11
 527.126
  21
 236.500
  31
0.0
   0
ARC
   8
LEVEL001
   6
CONTINUOUS
  62
7
  10
 484.000
  20
 282.877
  30
0.0
  40
 10.0000
  50
0.0
  51
 18.1960
   0
LINE
   8
LEVEL001
   6
CONTINUOUS
  62
7
  10
 444.500
  20
 291.000
  30
0.0
  11
 444.500
  21
 286.000
  31
0.0
   0
ARC
   8
LEVEL001
   6
CONTINUOUS
  62
7
  10
 443.500
  20
 218.500
  30
0.0
  40
 2.00000
  50
 180.001
  51
 270.000
   0
ARC
   8
LEVEL001
   6
CONTINUOUS
  62
7
  10
 442.500
  20
 225.500
  30
0.0
  40
 1.00000
  50
 90.0009
  51
 180.002
   0
LINE
   8
LEVEL001
   6
CONTINUOUS
  62
7
  10
 441.500
  20
 225.500
  30
0.0
  11
 441.500
  21
 218.500
  31
0.0
   0
ARC
   8
LEVEL001
   6
CONTINUOUS
  62
7
  10
 443.000
  20
 227.500
  30
0.0
  40
 1.00000
  50
 270.001
  51
 0.227982E-10
   0
LINE
   8
LEVEL001
   6
CONTINUOUS
  62
7
  10
 443.000
  20
 226.500
  30
0.0
  11
 442.500
  21
 226.500
  31
0.0
   0
ARC
   8
LEVEL001
   6
CONTINUOUS
  62
7
  10
 454.000
  20
 282.877
  30
0.0
  40
 10.0000
  50
 161.804
  51
 180.000
   0
ARC
   8
LEVEL001
   6
CONTINUOUS
  62
7
  10
 521.000
  20
 236.500
  30
0.0
  40
 3.00000
  50
 274.224
  51
 85.7766
   0
ARC
   8
LEVEL001
   6
CONTINUOUS
  62
7
  10
 500.500
  20
 330.500
  30
0.0
  40
 1.00000
  50
 359.998
  51
 89.9991
   0
LINE
   8
LEVEL001
   6
CONTINUOUS
  62
7
  10
 501.500
  20
 330.500
  30
0.0
  11
 501.500
  21
 316.500
  31
0.0
   0
LINE
   8
LEVEL001
   6
CONTINUOUS
  62
7
  10
 499.150
  20
 331.500
  30
0.0
  11
 500.500
  21
 331.500
  31
0.0
   0
LINE
   8
LEVEL001
   6
CONTINUOUS
  62
7
  10
 497.500
  20
 339.000
  30
0.0
  11
 495.500
  21
 339.000
  31
0.0
   0
LINE
   8
LEVEL001
   6
CONTINUOUS
  62
7
  10
 497.500
  20
 294.000
  30
0.0
  11
 497.500
  21
 339.000
  31
0.0
   0
ARC
   8
LEVEL001
   6
CONTINUOUS
  62
7
  10
 494.500
  20
 341.000
  30
0.0
  40
 1.00000
  50
 180.001
  51
 269.999
   0
LINE
   8
LEVEL001
   6
CONTINUOUS
  62
7
  10
 445.250
  20
 350.400
  30
0.0
  11
 492.750
  21
 350.400
  31
0.0
   0
LINE
   8
LEVEL001
   6
CONTINUOUS
  62
7
  10
 499.150
  20
 316.500
  30
0.0
  11
 499.150
  21
 335.600
  31
0.0
   0
LINE
   8
LEVEL003
   6
CONTINUOUS
  62
7
  10
 497.500
  20
 335.600
  30
0.0
  11
 499.150
  21
 335.600
  31
0.0
   0
ARC
   8
LEVEL001
   6
CONTINUOUS
  62
7
  10
 500.500
  20
 302.500
  30
0.0
  40
 1.00000
  50
 270.001
  51
 359.997
   0
LINE
   8
LEVEL001
   6
CONTINUOUS
  62
7
  10
 501.500
  20
 302.500
  30
0.0
  11
 501.500
  21
 316.500
  31
0.0
   0
LINE
   8
LEVEL001
   6
CONTINUOUS
  62
7
  10
 499.150
  20
 301.500
  30
0.0
  11
 500.500
  21
 301.500
  31
0.0
   0
LINE
   8
LEVEL001
   6
CONTINUOUS
  62
7
  10
 497.500
  20
 316.500
  30
0.0
  11
 497.500
  21
 294.000
  31
0.0
   0
LINE
   8
LEVEL001
   6
CONTINUOUS
  62
7
  10
 497.500
  20
 294.000
  30
0.0
  11
 495.500
  21
 294.000
  31
0.0
   0
LINE
   8
LEVEL001
   6
CONTINUOUS
  62
7
  10
 499.150
  20
 316.500
  30
0.0
  11
 499.150
  21
 298.700
  31
0.0
   0
LINE
   8
LEVEL003
   6
CONTINUOUS
  62
7
  10
 497.500
  20
 298.700
  30
0.0
  11
 499.150
  21
 298.700
  31
0.0
   0
LINE
   8
LEVEL001
   6
DASHDOT
  62
1
  10
 469.000
  20
 348.500
  30
0.0
  11
 469.000
  21
 213.500
  31
0.0
   0
LINE
   8
LEVEL001
   6
CONTINUOUS
  62
7
  10
 444.000
  20
 282.877
  30
0.0
  11
 444.000
  21
 227.500
  31
0.0
   0
ARC
   8
LEVEL001
   6
CONTINUOUS
  62
7
  10
 230.000
  20
 266.000
  30
0.0
  40
 2.00000
  50
 300.000
  51
0.0
   0
LINE
   8
LEVEL001
   6
CONTINUOUS
  62
7
  10
 232.000
  20
 257.637
  30
0.0
  11
 232.000
  21
 255.000
  31
0.0
   0
ARC
   8
LEVEL001
   6
CONTINUOUS
  62
7
  10
 227.000
  20
 257.637
  30
0.0
  40
 5.00000
  50
 0.911929E-11
  51
 44.4153
   0
ARC
   8
LEVEL001
   6
CONTINUOUS
  62
7
  10
 232.000
  20
 262.536
  30
0.0
  40
 2.00000
  50
 120.000
  51
 224.415
   0
ARC
   8
LEVEL001
   6
CONTINUOUS
  62
7
  10
 230.000
  20
 300.000
  30
0.0
  40
 2.00000
  50
0.0
  51
 59.6202
   0
LINE
   8
LEVEL001
   6
CONTINUOUS
  62
7
  10
 232.000
  20
 300.000
  30
0.0
  11
 232.000
  21
 266.000
  31
0.0
   0
ARC
   8
LEVEL001
   6
CONTINUOUS
  62
7
  10
 232.023
  20
 303.451
  30
0.0
  40
 2.00000
  50
 132.572
  51
 239.620
   0
ARC
   8
LEVEL001
   6
CONTINUOUS
  62
7
  10
 227.287
  20
 308.606
  30
0.0
  40
 5.00000
  50
 312.572
  51
 355.368
   0
ARC
   8
LEVEL001
   6
CONTINUOUS
  62
7
  10
 315.000
  20
 301.500
  30
0.0
  40
 83.0000
  50
 146.368
  51
 175.368
   0
LINE
   8
LEVEL001
   6
CONTINUOUS
  62
7
  10
 257.000
  20
 482.000
  30
0.0
  11
 373.000
  21
 482.000
  31
0.0
   0
LINE
   8
LEVEL001
   6
CONTINUOUS
  62
7
  10
 444.000
  20
 334.500
  30
0.0
  11
 444.500
  21
 334.500
  31
0.0
   0
LINE
   8
LEVEL001
   6
CONTINUOUS
  62
7
  10
 444.000
  20
 298.500
  30
0.0
  11
 444.500
  21
 298.500
  31
0.0
   0
LINE
   8
LEVEL001
   6
CONTINUOUS
  62
7
  10
 444.000
  20
 289.500
  30
0.0
  11
 444.000
  21
 343.500
  31
0.0
   0
LINE
   8
LEVEL001
   6
CONTINUOUS
  62
7
  10
 444.500
  20
 291.000
  30
0.0
  11
 444.500
  21
 349.000
  31
0.0
   0
LINE
   8
LEVEL001
   6
CONTINUOUS
  62
7
  10
 494.500
  20
 340.000
  30
0.0
  11
 494.500
  21
 293.000
  31
0.0
   0
LINE
   8
LEVEL001
   6
CONTINUOUS
  62
7
  10
 495.500
  20
 339.000
  30
0.0
  11
 495.500
  21
 294.000
  31
0.0
   0
LINE
   8
LEVEL001
   6
CONTINUOUS
  62
7
  10
 494.500
  20
 301.500
  30
0.0
  11
 495.500
  21
 301.500
  31
0.0
   0
LINE
   8
LEVEL001
   6
CONTINUOUS
  62
7
  10
 494.500
  20
 331.500
  30
0.0
  11
 495.500
  21
 331.500
  31
0.0
   0
ARC
   8
LEVEL001
   6
DOT
  62
3
  10
 483.000
  20
 262.250
  30
0.0
  40
 2.50000
  50
 0.130276E-11
  51
 89.9996
   0
LINE
   8
LEVEL001
   6
DOT
  62
3
  10
 483.000
  20
 264.750
  30
0.0
  11
 469.000
  21
 264.750
  31
0.0
   0
ARC
   8
LEVEL001
   6
DOT
  62
3
  10
 488.000
  20
 219.000
  30
0.0
  40
 2.50000
  50
 179.999
  51
 270.000
   0
LINE
   8
LEVEL001
   6
DOT
  62
3
  10
 485.500
  20
 219.000
  30
0.0
  11
 485.500
  21
 262.250
  31
0.0
   0
ARC
   8
LEVEL001
   6
DOT
  62
3
  10
 455.000
  20
 262.250
  30
0.0
  40
 2.50000
  50
 90.0004
  51
 180.001
   0
LINE
   8
LEVEL001
   6
DOT
  62
3
  10
 455.000
  20
 264.750
  30
0.0
  11
 469.000
  21
 264.750
  31
0.0
   0
ARC
   8
LEVEL001
   6
DOT
  62
3
  10
 450.000
  20
 219.000
  30
0.0
  40
 2.50000
  50
 270.000
  51
 0.696680E-3
   0
LINE
   8
LEVEL001
   6
DOT
  62
3
  10
 452.500
  20
 219.000
  30
0.0
  11
 452.500
  21
 262.250
  31
0.0
   0
LINE
   8
LEVEL001
   6
CONTINUOUS
  62
7
  10
 406.500
  20
 224.000
  30
0.0
  11
 223.500
  21
 224.000
  31
0.0
   0
LINE
   8
LEVEL001
   6
CONTINUOUS
  62
7
  10
 236.005
  20
 241.000
  30
0.0
  11
 236.005
  21
 224.000
  31
0.0
   0
LINE
   8
LEVEL001
   6
CONTINUOUS
  62
7
  10
 393.995
  20
 241.000
  30
0.0
  11
 393.995
  21
 224.000
  31
0.0
   0
LINE
   8
LEVEL001
   6
CONTINUOUS
  62
7
  10
 236.005
  20
 239.000
  30
0.0
  11
 223.500
  21
 239.000
  31
0.0
   0
LINE
   8
LEVEL001
   6
CONTINUOUS
  62
7
  10
 285.000
  20
 241.000
  30
0.0
  11
 236.005
  21
 241.000
  31
0.0
   0
LINE
   8
LEVEL001
   6
CONTINUOUS
  62
7
  10
 285.000
  20
 224.000
  30
0.0
  11
 285.000
  21
 241.000
  31
0.0
   0
LINE
   8
LEVEL001
   6
CONTINUOUS
  62
7
  10
 345.000
  20
 224.000
  30
0.0
  11
 345.000
  21
 241.000
  31
0.0
   0
LINE
   8
LEVEL001
   6
CONTINUOUS
  62
7
  10
 345.000
  20
 241.000
  30
0.0
  11
 393.995
  21
 241.000
  31
0.0
   0
LINE
   8
LEVEL001
   6
CONTINUOUS
  62
7
  10
 399.500
  20
 255.000
  30
0.0
  11
 230.500
  21
 255.000
  31
0.0
   0
LINE
   8
LEVEL001
   6
CONTINUOUS
  62
7
  10
 393.995
  20
 239.000
  30
0.0
  11
 406.500
  21
 239.000
  31
0.0
   0
LINE
   8
LEVEL001
   6
CONTINUOUS
  62
7
  10
 345.000
  20
 239.000
  30
0.0
  11
 285.000
  21
 239.000
  31
0.0
   0
LINE
   8
LEVEL001
   6
CONTINUOUS
  62
7
  10
 442.003
  20
 345.609
  30
0.0
  11
 442.003
  21
 287.391
  31
0.0
   0
LINE
   8
LEVEL001
   6
CONTINUOUS
  62
7
  10
 493.500
  20
 286.000
  30
0.0
  11
 493.500
  21
 349.000
  31
0.0
   0
LINE
   8
LEVEL001
   6
CONTINUOUS
  62
7
  10
 444.500
  20
 349.000
  30
0.0
  11
 445.250
  21
 349.000
  31
0.0
   0
LINE
   8
LEVEL001
   6
CONTINUOUS
  62
7
  10
 492.750
  20
 349.000
  30
0.0
  11
 493.500
  21
 349.000
  31
0.0
   0
LINE
   8
LEVEL001
   6
CONTINUOUS
  62
7
  10
 442.003
  20
 319.000
  30
0.0
  11
 398.000
  21
 319.000
  31
0.0
   0
ARC
   8
LEVEL001
   6
CONTINUOUS
  62
7
  10
 398.000
  20
 322.000
  30
0.0
  40
 3.00000
  50
 180.000
  51
 270.000
   0
LINE
   8
LEVEL001
   6
CONTINUOUS
  62
7
  10
 442.003
  20
 314.000
  30
0.0
  11
 398.000
  21
 314.000
  31
0.0
   0
ARC
   8
LEVEL001
   6
CONTINUOUS
  62
7
  10
 398.000
  20
 311.000
  30
0.0
  40
 3.00000
  50
 90.0000
  51
 180.000
   0
LINE
   8
LEVEL001
   6
DASHDOT
  62
1
  10
 315.000
  20
 316.500
  30
0.0
  11
 504.000
  21
 316.500
  31
0.0
   0
LINE
   8
LEVEL001
   6
CONTINUOUS
  62
7
  10
 372.307
  20
 455.188
  30
0.0
  11
 376.741
  21
 388.402
  31
0.0
   0
LINE
   8
LEVEL001
   6
CONTINUOUS
  62
7
  10
 257.601
  20
 457.000
  30
0.0
  11
 371.544
  21
 457.000
  31
0.0
   0
LINE
   8
LEVEL001
   6
CONTINUOUS
  62
7
  10
 371.544
  20
 457.000
  30
0.0
  11
 371.544
  21
 480.000
  31
0.0
   0
ARC
   8
LEVEL001
   6
CONTINUOUS
  62
7
  10
 320.500
  20
 454.000
  30
0.0
  40
 3.00000
  50
 90.0000
  51
 180.000
   0
ARC
   8
LEVEL001
   6
CONTINUOUS
  62
7
  10
 309.500
  20
 454.000
  30
0.0
  40
 3.00000
  50
 0.868503E-11
  51
 90.0000
   0
ARC
   8
LEVEL001
   6
CONTINUOUS
  62
7
  10
 315.000
  20
 406.996
  30
0.0
  40
 2.50000
  50
0.0
  51
 180.000
   0
ARC
   8
LEVEL001
   6
CONTINUOUS
  62
7
  10
 307.500
  20
 406.092
  30
0.0
  40
 5.00000
  50
 270.000
  51
 0.143303E-10
   0
ARC
   8
LEVEL001
   6
CONTINUOUS
  62
7
  10
 307.500
  20
 398.592
  30
0.0
  40
 2.50000
  50
 90.0000
  51
 180.000
   0
ARC
   8
LEVEL001
   6
CONTINUOUS
  62
7
  10
 322.500
  20
 406.092
  30
0.0
  40
 5.00000
  50
 180.000
  51
 270.000
   0
ARC
   8
LEVEL001
   6
CONTINUOUS
  62
7
  10
 322.500
  20
 398.592
  30
0.0
  40
 2.50000
  50
 0.495047E-10
  51
 90.0000
   0
ARC
   8
LEVEL001
   6
CONTINUOUS
  62
7
  10
 330.000
  20
 399.251
  30
0.0
  40
 5.00000
  50
 90.0000
  51
 180.000
   0
ARC
   8
LEVEL001
   6
CONTINUOUS
  62
7
  10
 300.000
  20
 399.251
  30
0.0
  40
 5.00000
  50
0.0
  51
 90.0000
   0
ARC
   8
LEVEL001
   6
CONTINUOUS
  62
7
  10
 307.500
  20
 271.908
  30
0.0
  40
 5.00000
  50
0.0
  51
 90.0000
   0
ARC
   8
LEVEL001
   6
CONTINUOUS
  62
7
  10
 307.500
  20
 279.408
  30
0.0
  40
 2.50000
  50
 180.000
  51
 270.000
   0
ARC
   8
LEVEL001
   6
CONTINUOUS
  62
7
  10
 322.500
  20
 271.908
  30
0.0
  40
 5.00000
  50
 90.0000
  51
 180.000
   0
ARC
   8
LEVEL001
   6
CONTINUOUS
  62
7
  10
 322.500
  20
 279.408
  30
0.0
  40
 2.50000
  50
 270.000
  51
0.0
   0
ARC
   8
LEVEL001
   6
CONTINUOUS
  62
7
  10
 315.000
  20
 271.004
  30
0.0
  40
 2.50000
  50
 180.000
  51
0.0
   0
ARC
   8
LEVEL001
   6
CONTINUOUS
  62
7
  10
 330.000
  20
 278.985
  30
0.0
  40
 5.00000
  50
 180.000
  51
 270.000
   0
ARC
   8
LEVEL001
   6
CONTINUOUS
  62
7
  10
 300.000
  20
 278.985
  30
0.0
  40
 5.00000
  50
 270.000
  51
 0.651378E-11
   0
LINE
   8
LEVEL001
   6
CONTINUOUS
  62
7
  10
 325.000
  20
 398.592
  30
0.0
  11
 325.000
  21
 278.985
  31
0.0
   0
LINE
   8
LEVEL001
   6
CONTINUOUS
  62
7
  10
 305.000
  20
 399.251
  30
0.0
  11
 305.000
  21
 279.408
  31
0.0
   0
ARC
   8
LEVEL001
   6
CONTINUOUS
  62
7
  10
 309.500
  20
 258.875
  30
0.0
  40
 3.00000
  50
 270.000
  51
0.0
   0
ARC
   8
LEVEL001
   6
CONTINUOUS
  62
7
  10
 320.500
  20
 258.875
  30
0.0
  40
 3.00000
  50
 180.000
  51
 270.000
   0
LINE
   8
LEVEL001
   6
CONTINUOUS
  62
7
  10
 312.500
  20
 454.000
  30
0.0
  11
 312.500
  21
 258.875
  31
0.0
   0
LINE
   8
LEVEL001
   6
CONTINUOUS
  62
7
  10
 317.500
  20
 454.000
  30
0.0
  11
 317.500
  21
 258.875
  31
0.0
   0
POLYLINE
   8
LEVEL001
   6
CONTINUOUS
  62
7
  66
1
  10
0.0
  20
0.0
  30
0.0
  70
0
   0
VERTEX
   8
LEVEL001
   6
CONTINUOUS
  62
7
  10
 230.993
  20
 264.391
  30
0.0
   0
VERTEX
   8
LEVEL001
   6
CONTINUOUS
  62
7
  10
 232.072
  20
 264.800
  30
0.0
   0
VERTEX
   8
LEVEL001
   6
CONTINUOUS
  62
7
  10
 233.118
  20
 265.494
  30
0.0
   0
VERTEX
   8
LEVEL001
   6
CONTINUOUS
  62
7
  10
 234.116
  20
 266.461
  30
0.0
   0
VERTEX
   8
LEVEL001
   6
CONTINUOUS
  62
7
  10
 235.049
  20
 267.686
  30
0.0
   0
VERTEX
   8
LEVEL001
   6
CONTINUOUS
  62
7
  10
 235.904
  20
 269.150
  30
0.0
   0
VERTEX
   8
LEVEL001
   6
CONTINUOUS
  62
7
  10
 236.666
  20
 270.830
  30
0.0
   0
VERTEX
   8
LEVEL001
   6
CONTINUOUS
  62
7
  10
 237.325
  20
 272.700
  30
0.0
   0
VERTEX
   8
LEVEL001
   6
CONTINUOUS
  62
7
  10
 237.869
  20
 274.731
  30
0.0
   0
VERTEX
   8
LEVEL001
   6
CONTINUOUS
  62
7
  10
 238.290
  20
 276.890
  30
0.0
   0
VERTEX
   8
LEVEL001
   6
CONTINUOUS
  62
7
  10
 238.582
  20
 279.145
  30
0.0
   0
VERTEX
   8
LEVEL001
   6
CONTINUOUS
  62
7
  10
 238.740
  20
 281.461
  30
0.0
   0
VERTEX
   8
LEVEL001
   6
CONTINUOUS
  62
7
  10
 238.762
  20
 283.800
  30
0.0
   0
VERTEX
   8
LEVEL001
   6
CONTINUOUS
  62
7
  10
 238.647
  20
 286.127
  30
0.0
   0
VERTEX
   8
LEVEL001
   6
CONTINUOUS
  62
7
  10
 238.397
  20
 288.405
  30
0.0
   0
VERTEX
   8
LEVEL001
   6
CONTINUOUS
  62
7
  10
 238.016
  20
 290.598
  30
0.0
   0
VERTEX
   8
LEVEL001
   6
CONTINUOUS
  62
7
  10
 237.510
  20
 292.673
  30
0.0
   0
VERTEX
   8
LEVEL001
   6
CONTINUOUS
  62
7
  10
 236.886
  20
 294.598
  30
0.0
   0
VERTEX
   8
LEVEL001
   6
CONTINUOUS
  62
7
  10
 236.156
  20
 296.341
  30
0.0
   0
VERTEX
   8
LEVEL001
   6
CONTINUOUS
  62
7
  10
 235.329
  20
 297.876
  30
0.0
   0
VERTEX
   8
LEVEL001
   6
CONTINUOUS
  62
7
  10
 234.419
  20
 299.179
  30
0.0
   0
VERTEX
   8
LEVEL001
   6
CONTINUOUS
  62
7
  10
 233.440
  20
 300.229
  30
0.0
   0
VERTEX
   8
LEVEL001
   6
CONTINUOUS
  62
7
  10
 232.407
  20
 301.010
  30
0.0
   0
VERTEX
   8
LEVEL001
   6
CONTINUOUS
  62
7
  10
 231.337
  20
 301.511
  30
0.0
   0
VERTEX
   8
LEVEL001
   6
CONTINUOUS
  62
7
  10
 231.294
  20
 301.525
  30
0.0
   0
SEQEND
   0
POLYLINE
   8
LEVEL001
   6
CONTINUOUS
  62
7
  66
1
  10
0.0
  20
0.0
  30
0.0
  70
0
   0
VERTEX
   8
LEVEL001
   6
CONTINUOUS
  62
7
  10
 233.552
  20
 261.088
  30
0.0
   0
VERTEX
   8
LEVEL001
   6
CONTINUOUS
  62
7
  10
 235.055
  20
 262.050
  30
0.0
   0
VERTEX
   8
LEVEL001
   6
CONTINUOUS
  62
7
  10
 236.479
  20
 263.338
  30
0.0
   0
VERTEX
   8
LEVEL001
   6
CONTINUOUS
  62
7
  10
 237.801
  20
 264.933
  30
0.0
   0
VERTEX
   8
LEVEL001
   6
CONTINUOUS
  62
7
  10
 239.003
  20
 266.810
  30
0.0
   0
VERTEX
   8
LEVEL001
   6
CONTINUOUS
  62
7
  10
 240.063
  20
 268.940
  30
0.0
   0
VERTEX
   8
LEVEL001
   6
CONTINUOUS
  62
7
  10
 240.967
  20
 271.289
  30
0.0
   0
VERTEX
   8
LEVEL001
   6
CONTINUOUS
  62
7
  10
 241.699
  20
 273.820
  30
0.0
   0
VERTEX
   8
LEVEL001
   6
CONTINUOUS
  62
7
  10
 242.249
  20
 276.495
  30
0.0
   0
VERTEX
   8
LEVEL001
   6
CONTINUOUS
  62
7
  10
 242.608
  20
 279.272
  30
0.0
   0
VERTEX
   8
LEVEL001
   6
CONTINUOUS
  62
7
  10
 242.770
  20
 282.106
  30
0.0
   0
VERTEX
   8
LEVEL001
   6
CONTINUOUS
  62
7
  10
 242.733
  20
 284.955
  30
0.0
   0
VERTEX
   8
LEVEL001
   6
CONTINUOUS
  62
7
  10
 242.497
  20
 287.773
  30
0.0
   0
VERTEX
   8
LEVEL001
   6
CONTINUOUS
  62
7
  10
 242.066
  20
 290.517
  30
0.0
   0
VERTEX
   8
LEVEL001
   6
CONTINUOUS
  62
7
  10
 241.447
  20
 293.143
  30
0.0
   0
VERTEX
   8
LEVEL001
   6
CONTINUOUS
  62
7
  10
 240.649
  20
 295.611
  30
0.0
   0
VERTEX
   8
LEVEL001
   6
CONTINUOUS
  62
7
  10
 239.685
  20
 297.882
  30
0.0
   0
VERTEX
   8
LEVEL001
   6
CONTINUOUS
  62
7
  10
 238.570
  20
 299.921
  30
0.0
   0
VERTEX
   8
LEVEL001
   6
CONTINUOUS
  62
7
  10
 237.321
  20
 301.696
  30
0.0
   0
VERTEX
   8
LEVEL001
   6
CONTINUOUS
  62
7
  10
 235.958
  20
 303.180
  30
0.0
   0
VERTEX
   8
LEVEL001
   6
CONTINUOUS
  62
7
  10
 234.502
  20
 304.348
  30
0.0
   0
VERTEX
   8
LEVEL001
   6
CONTINUOUS
  62
7
  10
 233.575
  20
 304.899
  30
0.0
   0
SEQEND
   0
ARC
   8
LEVEL001
   6
CONTINUOUS
  62
7
  10
 470.117
  20
 312.982
  30
0.0
  40
 3.40000
  50
 5.75579
  51
 56.0536
   0
ARC
   8
LEVEL001
   6
CONTINUOUS
  62
7
  10
 469.000
  20
 311.323
  30
0.0
  40
 5.40000
  50
 56.0539
  51
 90.0013
   0
ARC
   8
LEVEL001
   6
CONTINUOUS
  62
7
  10
 467.883
  20
 312.982
  30
0.0
  40
 3.40000
  50
 123.947
  51
 174.246
   0
ARC
   8
LEVEL001
   6
CONTINUOUS
  62
7
  10
 469.000
  20
 311.323
  30
0.0
  40
 5.40000
  50
 90.0000
  51
 123.947
   0
LINE
   8
LEVEL001
   6
CONTINUOUS
  62
7
  10
 464.500
  20
 313.323
  30
0.0
  11
 473.500
  21
 313.323
  31
0.0
   0
LINE
   8
LEVEL001
   6
CONTINUOUS
  62
7
  10
 492.750
  20
 350.400
  30
0.0
  11
 492.750
  21
 311.149
  31
0.0
   0
LINE
   8
LEVEL001
   6
CONTINUOUS
  62
7
  10
 445.250
  20
 350.400
  30
0.0
  11
 445.250
  21
 311.149
  31
0.0
   0
LINE
   8
LEVEL001
   6
CONTINUOUS
  62
7
  10
 445.250
  20
 311.149
  30
0.0
  11
 492.750
  21
 311.149
  31
0.0
   0
LINE
   8
LEVEL001
   6
CONTINUOUS
  62
7
  10
 492.750
  20
 312.543
  30
0.0
  11
 445.250
  21
 312.543
  31
0.0
   0
CIRCLE
   8
LEVEL001
   6
CONTINUOUS
  62
7
  10
 469.000
  20
 286.000
  30
0.0
  40
 17.2500
   0
ARC
   8
LEVEL001
   6
CONTINUOUS
  62
7
  10
 469.000
  20
 286.000
  30
0.0
  40
 24.5000
  50
 180.000
  51
0.0
   0
LINE
   8
LEVEL001
   6
CONTINUOUS
  62
7
  10
 452.500
  20
 216.500
  30
0.0
  11
 443.500
  21
 216.500
  31
0.0
   0
LINE
   8
LEVEL001
   6
CONTINUOUS
  62
7
  10
 485.500
  20
 216.500
  30
0.0
  11
 494.500
  21
 216.500
  31
0.0
   0
ARC
   8
LEVEL001
   6
CONTINUOUS
  62
7
  10
 469.000
  20
 120.841
  30
0.0
  40
 97.0718
  50
 80.2134
  51
 99.7866
   0
ARC
   8
LEVEL001
   6
CONTINUOUS
  62
7
  10
 469.000
  20
 65.3447
  30
0.0
  40
 155.011
  50
 80.5471
  51
 99.4529
   0
ARC
   8
LEVEL001
   6
CONTINUOUS
  62
7
  10
 469.000
  20
 73.7190
  30
0.0
  40
 155.011
  50
 80.5471
  51
 99.4529
   0
ARC
   8
LEVEL001
   6
CONTINUOUS
  62
7
  10
 505.502
  20
 245.665
  30
0.0
  40
 5.00000
  50
 240.154
  51
 265.781
   0
LINE
   8
LEVEL001
   6
CONTINUOUS
  62
7
  10
 505.134
  20
 240.679
  30
0.0
  11
 521.221
  21
 239.492
  31
0.0
   0
ARC
   8
LEVEL001
   6
CONTINUOUS
  62
7
  10
 505.502
  20
 227.335
  30
0.0
  40
 5.00000
  50
 94.2191
  51
 119.846
   0
LINE
   8
LEVEL001
   6
CONTINUOUS
  62
7
  10
 505.134
  20
 232.321
  30
0.0
  11
 521.221
  21
 233.508
  31
0.0
   0
LINE
   8
LEVEL001
   6
CONTINUOUS
  62
7
  10
 494.000
  20
 282.877
  30
0.0
  11
 494.000
  21
 249.396
  31
0.0
   0
ARC
   8
LEVEL001
   6
CONTINUOUS
  62
7
  10
 499.000
  20
 249.396
  30
0.0
  40
 5.00000
  50
 180.000
  51
 240.154
   0
LINE
   8
LEVEL001
   6
CONTINUOUS
  62
7
  10
 496.512
  20
 245.059
  30
0.0
  11
 503.014
  21
 241.328
  31
0.0
   0
LINE
   8
LEVEL001
   6
CONTINUOUS
  62
7
  10
 496.500
  20
 225.039
  30
0.0
  11
 496.500
  21
 218.500
  31
0.0
   0
ARC
   8
LEVEL001
   6
CONTINUOUS
  62
7
  10
 501.500
  20
 225.039
  30
0.0
  40
 5.00000
  50
 119.846
  51
 180.000
   0
LINE
   8
LEVEL001
   6
CONTINUOUS
  62
7
  10
 499.012
  20
 229.375
  30
0.0
  11
 503.014
  21
 231.672
  31
0.0
   0
LINE
   8
LEVEL001
   6
CONTINUOUS
  62
7
  10
 504.000
  20
 239.644
  30
0.0
  11
 504.000
  21
 233.297
  31
0.0
   0
ARC
   8
LEVEL001
   6
CONTINUOUS
  62
7
  10
 518.142
  20
 236.500
  30
0.0
  40
 26.1313
  50
 157.500
  51
 196.956
   0
LINE
   8
LEVEL001
   6
CONTINUOUS
  62
7
  10
 658.500
  20
 239.000
  30
0.0
  11
 658.500
  21
 224.000
  31
0.0
   0
CIRCLE
   8
LEVEL003
   6
CONTINUOUS
  62
7
  10
 936.719
  20
 99.7137
  30
0.0
  40
 8.06216
   0
LINE
   8
LEVEL003
   6
CONTINUOUS
  62
7
  10
 952.542
  20
 107.776
  30
0.0
  11
 942.303
  21
 90.0391
  31
0.0
   0
LINE
   8
LEVEL003
   6
CONTINUOUS
  62
7
  10
 942.303
  20
 90.0391
  30
0.0
  11
 921.823
  21
 90.0391
  31
0.0
   0
LINE
   8
LEVEL003
   6
CONTINUOUS
  62
7
  10
 919.495
  20
 86.0080
  30
0.0
  11
 956.101
  21
 86.0080
  31
0.0
   0
LINE
   8
LEVEL003
   6
CONTINUOUS
  62
7
  10
 956.101
  20
 86.0080
  30
0.0
  11
 968.667
  21
 107.776
  31
0.0
   0
LINE
   8
LEVEL003
   6
CONTINUOUS
  62
7
  10
 968.667
  20
 107.776
  30
0.0
  11
 952.542
  21
 107.776
  31
0.0
   0
LINE
   8
LEVEL003
   6
CONTINUOUS
  62
7
  10
 921.823
  20
 90.0391
  30
0.0
  11
 919.495
  21
 86.0080
  31
0.0
   0
TEXT
   8
LEVEL003
  62
7
  10
 978.949
  20
 81.4766
  30
0.0
  40
 20.1554
   1
ＯＳＡＫＡ ＪＡＣＫ
   7
STANDARD
   0
TEXT
   8
LEVEL003
  62
7
  10
 979.315
  20
 121.418
  30
0.0
  40
 13.4369
   1
Model : ＪＪ－５０１３
   7
STANDARD
   0
ENDSEC
   0
EOF
