   0
SECTION
   2
HEADER
   9
$LIMMIN
  10
0.0
  20
0.0
   9
$LIMMAX
  10
 1269.00
  20
 891.000
   9
$EXTMIN
  10
0.0
  20
0.0
   9
$EXTMAX
  10
 1269.00
  20
 891.000
   9
$LTSCALE
  40
 25.3800
   0
ENDSEC
   0
SECTION
   2
TABLES
  0
TABLE
  2
LTYPE
 70
    25
  0
LTYPE
  2
CONTINUOUS
 70
    64
  3
Solid line
 72
    65
 73
     0
 40
0.0
  0
LTYPE
  2
BORDER
 70
    64
  3
__ __ . __ __ . __ __ . __ __ . __ __ . __ __ .
 72
    65
 73
     6
 40
1.75
 49
0.5
 49
-0.25
 49
0.5
 49
-0.25
 49
0.0
 49
-0.25
  0
LTYPE
  2
BORDER2
 70
    64
  3
__.__.__.__.__.__.__.__.__.__.__.__.__.__.__.__
 72
    65
 73
     6
 40
0.875
 49
0.25
 49
-0.125
 49
0.25
 49
-0.125
 49
0.0
 49
-0.125
  0
LTYPE
  2
BORDERX2
 70
    64
  3
____  ____  .  ____  ____  .  ____  ____  .  __
 72
    65
 73
     6
 40
3.5
 49
1.0
 49
-0.5
 49
1.0
 49
-0.5
 49
0.0
 49
-0.5
  0
LTYPE
  2
CENTER
 70
    64
  3
____ _ ____ _ ____ _ ____ _ ____ _ ____ _ ____ 
 72
    65
 73
     4
 40
2.0
 49
1.25
 49
-0.25
 49
0.25
 49
-0.25
  0
LTYPE
  2
CENTER2
 70
    64
  3
___ _ ___ _ ___ _ ___ _ ___ _ ___ _ ___ _ ___ _
 72
    65
 73
     4
 40
1.125
 49
0.75
 49
-0.125
 49
0.125
 49
-0.125
  0
LTYPE
  2
CENTERX2
 70
    64
  3
________  __  ________  __  ________  __  _____
 72
    65
 73
     4
 40
4.0
 49
2.5
 49
-0.5
 49
0.5
 49
-0.5
  0
LTYPE
  2
DASHDOT
 70
    64
  3
__ . __ . __ . __ . __ . __ . __ . __ . __ . __
 72
    65
 73
     4
 40
1.0
 49
0.5
 49
-0.25
 49
0.0
 49
-0.25
  0
LTYPE
  2
DASHDOT2
 70
    64
  3
_._._._._._._._._._._._._._._._._._._._._._._._
 72
    65
 73
     4
 40
0.5
 49
0.25
 49
-0.125
 49
0.0
 49
-0.125
  0
LTYPE
  2
DASHDOTX2
 70
    64
  3
____  .  ____  .  ____  .  ____  .  ____  .  __
 72
    65
 73
     4
 40
2.0
 49
1.0
 49
-0.5
 49
0.0
 49
-0.5
  0
LTYPE
  2
DASHED
 70
    64
  3
__ __ __ __ __ __ __ __ __ __ __ __ __ __ __ __
 72
    65
 73
     2
 40
0.75
 49
0.5
 49
-0.25
  0
LTYPE
  2
DASHED2
 70
    64
  3
_ _ _ _ _ _ _ _ _ _ _ _ _ _ _ _ _ _ _ _ _ _ _ _
 72
    65
 73
     2
 40
0.375
 49
0.25
 49
-0.125
  0
LTYPE
  2
DASHEDX2
 70
    64
  3
____  ____  ____  ____  ____  ____  ____  ____ 
 72
    65
 73
     2
 40
1.5
 49
1.0
 49
-0.5
  0
LTYPE
  2
DIVIDE
 70
    64
  3
____ . . ____ . . ____ . . ____ . . ____ . . __
 72
    65
 73
     6
 40
1.25
 49
0.5
 49
-0.25
 49
0.0
 49
-0.25
 49
0.0
 49
-0.25
  0
LTYPE
  2
DIVIDE2
 70
    64
  3
__..__..__..__..__..__..__..__..__..__..__..__.
 72
    65
 73
     6
 40
0.625
 49
0.25
 49
-0.125
 49
0.0
 49
-0.125
 49
0.0
 49
-0.125
  0
LTYPE
  2
DIVIDEX2
 70
    64
  3
________  .  .  ________  .  .  ________  .  . 
 72
    65
 73
     6
 40
2.5
 49
1.0
 49
-0.5
 49
0.0
 49
-0.5
 49
0.0
 49
-0.5
  0
LTYPE
  2
DOT
 70
    64
  3
. . . . . . . . . . . . . . . . . . . . . . . .
 72
    65
 73
     2
 40
0.25
 49
0.0
 49
-0.25
  0
LTYPE
  2
DOT2
 70
    64
  3
...............................................
 72
    65
 73
     2
 40
0.125
 49
0.0
 49
-0.125
  0
LTYPE
  2
DOTX2
 70
    64
  3
.  .  .  .  .  .  .  .  .  .  .  .  .  .  .  . 
 72
    65
 73
     2
 40
0.5
 49
0.0
 49
-0.5
  0
LTYPE
  2
HIDDEN
 70
    64
  3
__ __ __ __ __ __ __ __ __ __ __ __ __ __ __ __
 72
    65
 73
     2
 40
0.375
 49
0.25
 49
-0.125
  0
LTYPE
  2
HIDDEN2
 70
    64
  3
_ _ _ _ _ _ _ _ _ _ _ _ _ _ _ _ _ _ _ _ _ _ _ _
 72
    65
 73
     2
 40
0.1875
 49
0.125
 49
-0.0625
  0
LTYPE
  2
HIDDENX2
 70
    64
  3
____ ____ ____ ____ ____ ____ ____ ____ ____ __
 72
    65
 73
     2
 40
0.75
 49
0.5
 49
-0.25
  0
LTYPE
  2
PHANTOM
 70
    64
  3
______  __  __  ______  __  __  ______  __  __ 
 72
    65
 73
     6
 40
2.5
 49
1.25
 49
-0.25
 49
0.25
 49
-0.25
 49
0.25
 49
-0.25
  0
LTYPE
  2
PHANTOM2
 70
    64
  3
___ _ _ ___ _ _ ___ _ _ ___ _ _ ___ _ _ ___ _ _
 72
    65
 73
     6
 40
1.25
 49
0.625
 49
-0.125
 49
0.125
 49
-0.125
 49
0.125
 49
-0.125
  0
LTYPE
  2
PHANTOMX2
 70
    64
  3
____________    ____    ____    ____________   
 72
    65
 73
     6
 40
5.0
 49
2.5
 49
-0.5
 49
0.5
 49
-0.5
 49
0.5
 49
-0.5
  0
ENDTAB
  0
TABLE
  2
STYLE
 70
     2
  0
STYLE
  2
STANDARD
 70
0
 40
0.0
 41
1.0
 50
0.0
 71
0
 42
0.2
  3
TXT
  4
BIGFONT
  0
STYLE
  2
STANDARD1
 70
     4
 40
0.0
 41
1.0
 50
0.0
 71
     0
 42
0.2
  3
TXT
  4
BIGFONT
  0
ENDTAB
   0
TABLE
   2
LAYER
  70
7
   0
LAYER
   2
0
  70
0
  62
7
   6
CONTINUOUS
   0
LAYER
   2
LEVEL001
  70
0
  62
7
   6
CONTINUOUS
   0
LAYER
   2
LEVEL003
  70
0
  62
7
   6
CONTINUOUS
   0
LAYER
   2
LEVEL020
  70
0
  62
7
   6
CONTINUOUS
   0
LAYER
   2
LEVEL050
  70
0
  62
-7
   6
CONTINUOUS
   0
LAYER
   2
LEVEL100
  70
0
  62
-7
   6
CONTINUOUS
   0
LAYER
   2
LEVEL110
  70
0
  62
-7
   6
CONTINUOUS
   0
ENDTAB
   0
ENDSEC
   0
SECTION
   2
ENTITIES
   0
LINE
   8
LEVEL100
   6
CONTINUOUS
  62
7
  10
 933.750
  20
 192.000
  30
0.0
  11
 933.750
  21
 171.000
  31
0.0
   0
LINE
   8
LEVEL100
   6
CONTINUOUS
  62
7
  10
 1023.75
  20
 192.000
  30
0.0
  11
 1023.75
  21
 123.000
  31
0.0
   0
LINE
   8
LEVEL100
   6
CONTINUOUS
  62
7
  10
 1083.75
  20
 192.000
  30
0.0
  11
 1083.75
  21
 171.000
  31
0.0
   0
LINE
   8
LEVEL100
   6
CONTINUOUS
  62
7
  10
 1107.75
  20
 192.000
  30
0.0
  11
 1107.75
  21
 171.000
  31
0.0
   0
LINE
   8
LEVEL100
   6
CONTINUOUS
  62
7
  10
 1142.25
  20
 192.000
  30
0.0
  11
 1142.25
  21
 171.000
  31
0.0
   0
LINE
   8
LEVEL100
   6
CONTINUOUS
  62
7
  10
 995.250
  20
 171.000
  30
0.0
  11
 995.250
  21
 123.000
  31
0.0
   0
LINE
   8
LEVEL100
   6
CONTINUOUS
  62
7
  10
 945.750
  20
 79.5000
  30
0.0
  11
 960.750
  21
 94.5000
  31
0.0
   0
CIRCLE
   8
LEVEL100
   6
CONTINUOUS
  62
7
  10
 924.750
  20
 34.5000
  30
0.0
  40
 1.20000
   0
CIRCLE
   8
LEVEL100
   6
CONTINUOUS
  62
7
  10
 945.750
  20
 34.5000
  30
0.0
  40
 1.20000
   0
CIRCLE
   8
LEVEL100
   6
CONTINUOUS
  62
7
  10
 924.750
  20
 34.5000
  30
0.0
  40
 0.750000
   0
CIRCLE
   8
LEVEL100
   6
CONTINUOUS
  62
7
  10
 945.750
  20
 34.5000
  30
0.0
  40
 0.750000
   0
LINE
   8
LEVEL100
   6
CONTINUOUS
  62
7
  10
 1038.00
  20
 46.5000
  30
0.0
  11
 1038.00
  21
 49.5000
  31
0.0
   0
LINE
   8
LEVEL100
   6
CONTINUOUS
  62
7
  10
 1038.00
  20
 49.5000
  30
0.0
  11
 1047.00
  21
 49.5000
  31
0.0
   0
LINE
   8
LEVEL100
   6
CONTINUOUS
  62
7
  10
 1047.00
  20
 49.5000
  30
0.0
  11
 1047.00
  21
 46.5000
  31
0.0
   0
LINE
   8
LEVEL100
   6
CONTINUOUS
  62
7
  10
 1047.00
  20
 46.5000
  30
0.0
  11
 1038.00
  21
 46.5000
  31
0.0
   0
LINE
   8
LEVEL100
   6
CONTINUOUS
  62
7
  10
 903.750
  20
 30.0000
  30
0.0
  11
 903.750
  21
 192.000
  31
0.0
   0
LINE
   8
LEVEL100
   6
CONTINUOUS
  62
7
  10
 966.750
  20
 171.000
  30
0.0
  11
 966.750
  21
 30.0000
  31
0.0
   0
LINE
   8
LEVEL100
   6
CONTINUOUS
  62
7
  10
 903.750
  20
 99.0000
  30
0.0
  11
 966.750
  21
 99.0000
  31
0.0
   0
TEXT
   8
LEVEL100
  62
7
  10
 977.250
  20
 40.5000
  30
0.0
  40
 15.0000
   1
ＯＪ
  41
 0.700000
   7
STANDARD
   0
LINE
   8
LEVEL100
   6
CONTINUOUS
  62
7
  10
 903.750
  20
 171.000
  30
0.0
  11
 1224.45
  21
 171.000
  31
0.0
   0
LINE
   8
LEVEL100
   6
CONTINUOUS
  62
7
  10
 903.750
  20
 159.000
  30
0.0
  11
 1224.45
  21
 159.000
  31
0.0
   0
LINE
   8
LEVEL100
   6
CONTINUOUS
  62
7
  10
 903.750
  20
 192.000
  30
0.0
  11
 1224.45
  21
 192.000
  31
0.0
   0
LINE
   8
LEVEL100
   6
CONTINUOUS
  62
7
  10
 981.450
  20
 789.000
  30
0.0
  11
 981.450
  21
 864.000
  31
0.0
   0
LINE
   8
LEVEL100
   6
CONTINUOUS
  62
7
  10
 981.450
  20
 849.000
  30
0.0
  11
 1224.45
  21
 849.000
  31
0.0
   0
LINE
   8
LEVEL100
   6
CONTINUOUS
  62
7
  10
 981.450
  20
 834.000
  30
0.0
  11
 1224.45
  21
 834.000
  31
0.0
   0
LINE
   8
LEVEL100
   6
CONTINUOUS
  62
7
  10
 1008.45
  20
 849.000
  30
0.0
  11
 1008.45
  21
 834.000
  31
0.0
   0
LINE
   8
LEVEL100
   6
CONTINUOUS
  62
7
  10
 1164.45
  20
 849.000
  30
0.0
  11
 1164.45
  21
 834.000
  31
0.0
   0
LINE
   8
LEVEL100
   6
CONTINUOUS
  62
7
  10
 1200.45
  20
 849.000
  30
0.0
  11
 1200.45
  21
 834.000
  31
0.0
   0
LINE
   8
LEVEL100
   6
CONTINUOUS
  62
7
  10
 903.750
  20
 123.000
  30
0.0
  11
 1224.45
  21
 123.000
  31
0.0
   0
LINE
   8
LEVEL100
   6
CONTINUOUS
  62
7
  10
 903.750
  20
 75.0000
  30
0.0
  11
 1224.45
  21
 75.0000
  31
0.0
   0
LINE
   8
LEVEL100
   6
CONTINUOUS
  62
7
  10
 1140.45
  20
 75.0000
  30
0.0
  11
 1140.45
  21
 30.0000
  31
0.0
   0
LINE
   8
LEVEL100
   6
CONTINUOUS
  62
7
  10
 1152.45
  20
 30.0000
  30
0.0
  11
 1203.45
  21
 60.0000
  31
0.0
   0
LINE
   8
LEVEL100
   6
CONTINUOUS
  62
7
  10
 75.0000
  20
 864.000
  30
0.0
  11
 1224.45
  21
 864.000
  31
0.0
   0
LINE
   8
LEVEL100
   6
CONTINUOUS
  62
7
  10
 1224.45
  20
 864.000
  30
0.0
  11
 1224.45
  21
 30.0000
  31
0.0
   0
LINE
   8
LEVEL100
   6
CONTINUOUS
  62
7
  10
 1224.45
  20
 30.0000
  30
0.0
  11
 75.0000
  21
 30.0000
  31
0.0
   0
LINE
   8
LEVEL100
   6
CONTINUOUS
  62
7
  10
 75.0000
  20
 837.600
  30
0.0
  11
 225.450
  21
 837.600
  31
0.0
   0
LINE
   8
LEVEL100
   6
CONTINUOUS
  62
7
  10
 225.450
  20
 837.600
  30
0.0
  11
 225.450
  21
 864.000
  31
0.0
   0
TEXT
   8
LEVEL100
  62
7
  10
 222.450
  20
 858.300
  30
0.0
  40
 15.0000
   1
ＯＪ．
  50
 180.000
  41
 0.900000
   7
STANDARD
   0
LINE
   8
LEVEL100
   6
CONTINUOUS
  62
7
  10
 171.450
  20
 852.300
  30
0.0
  11
 162.450
  21
 852.300
  31
0.0
   0
LINE
   8
LEVEL100
   6
CONTINUOUS
  62
7
  10
 162.450
  20
 852.300
  30
0.0
  11
 162.450
  21
 849.300
  31
0.0
   0
LINE
   8
LEVEL100
   6
CONTINUOUS
  62
7
  10
 162.450
  20
 849.300
  30
0.0
  11
 171.450
  21
 849.300
  31
0.0
   0
LINE
   8
LEVEL100
   6
CONTINUOUS
  62
7
  10
 171.450
  20
 849.300
  30
0.0
  11
 171.450
  21
 852.300
  31
0.0
   0
TEXT
   8
LEVEL050
  62
3
  10
 945.819
  20
 86.4923
  30
0.0
  40
 7.50000
   1
１
  41
 0.600000
   7
STANDARD
   0
TEXT
   8
LEVEL050
  62
3
  10
 951.750
  20
 78.0000
  30
0.0
  40
 7.50000
   1
　２
  41
 0.600000
   7
STANDARD
   0
TEXT
   8
LEVEL100
  62
7
  10
 936.750
  20
 174.000
  30
0.0
  40
 12.0000
   1
Ｓ．ＩＭＡＮＩＳＨＩ
  41
 0.625000
   7
STANDARD
   0
TEXT
   8
LEVEL050
  62
2
  10
 1022.25
  20
 99.0000
  30
0.0
  40
 15.0000
   1
　　ＪＪ－５０２５
   7
STANDARD
   0
TEXT
   8
LEVEL050
  62
3
  10
 1023.75
  20
 147.750
  30
0.0
  40
 9.45000
   1
ＦＬＮＯ．　ＬＡＮ
   7
STANDARD
   0
TEXT
   8
LEVEL050
  62
2
  10
 977.250
  20
 79.5000
  30
0.0
  40
 15.0000
   1
　　ＯＪ　ジャーナルジャッキ
   7
STANDARD
   0
LINE
   8
LEVEL001
   6
DASHDOT
  62
1
  10
 650.000
  20
 223.000
  30
0.0
  11
 765.000
  21
 223.000
  31
0.0
   0
CIRCLE
   8
LEVEL001
   6
CONTINUOUS
  62
7
  10
 710.000
  20
 223.000
  30
0.0
  40
 22.5000
   0
CIRCLE
   8
LEVEL001
   6
CONTINUOUS
  62
7
  10
 710.000
  20
 223.000
  30
0.0
  40
 23.5000
   0
ARC
   8
LEVEL001
   6
CONTINUOUS
  62
7
  10
 651.000
  20
 216.588
  30
0.0
  40
 1.00000
  50
 95.2380
  51
 180.001
   0
ARC
   8
LEVEL001
   6
CONTINUOUS
  62
7
  10
 651.000
  20
 168.500
  30
0.0
  40
 1.00000
  50
 180.000
  51
 269.999
   0
LINE
   8
LEVEL001
   6
CONTINUOUS
  62
7
  10
 650.000
  20
 216.587
  30
0.0
  11
 650.000
  21
 168.500
  31
0.0
   0
ARC
   8
LEVEL001
   6
CONTINUOUS
  62
7
  10
 769.000
  20
 216.587
  30
0.0
  40
 1.00000
  50
 0.159671E-2
  51
 84.7620
   0
ARC
   8
LEVEL001
   6
CONTINUOUS
  62
7
  10
 769.000
  20
 168.500
  30
0.0
  40
 1.00000
  50
 270.001
  51
 0.435430E-3
   0
LINE
   8
LEVEL001
   6
CONTINUOUS
  62
7
  10
 770.000
  20
 216.588
  30
0.0
  11
 770.000
  21
 168.500
  31
0.0
   0
ARC
   8
LEVEL001
   6
CONTINUOUS
  62
7
  10
 667.953
  20
 229.188
  30
0.0
  40
 10.0000
  50
 275.238
  51
 351.629
   0
LINE
   8
LEVEL001
   6
CONTINUOUS
  62
7
  10
 650.909
  20
 217.583
  30
0.0
  11
 668.866
  21
 219.229
  31
0.0
   0
ARC
   8
LEVEL001
   6
CONTINUOUS
  62
7
  10
 667.953
  20
 229.188
  30
0.0
  40
 8.60000
  50
 275.238
  51
 351.628
   0
ARC
   8
LEVEL001
   6
CONTINUOUS
  62
7
  10
 752.047
  20
 229.188
  30
0.0
  40
 8.60000
  50
 188.371
  51
 264.763
   0
ARC
   8
LEVEL001
   6
CONTINUOUS
  62
7
  10
 710.000
  20
 223.000
  30
0.0
  40
 33.9000
  50
 8.37164
  51
 171.628
   0
ARC
   8
LEVEL001
   6
CONTINUOUS
  62
7
  10
 752.047
  20
 229.188
  30
0.0
  40
 10.0000
  50
 188.371
  51
 264.762
   0
LINE
   8
LEVEL001
   6
CONTINUOUS
  62
7
  10
 751.134
  20
 219.229
  30
0.0
  11
 769.091
  21
 217.583
  31
0.0
   0
ARC
   8
LEVEL001
   6
CONTINUOUS
  62
7
  10
 710.000
  20
 223.000
  30
0.0
  40
 32.5000
  50
 8.37126
  51
 171.629
   0
LINE
   8
LEVEL001
   6
CONTINUOUS
  62
7
  10
 651.628
  20
 217.649
  30
0.0
  11
 651.500
  21
 219.043
  31
0.0
   0
LINE
   8
LEVEL001
   6
CONTINUOUS
  62
7
  10
 768.372
  20
 217.649
  30
0.0
  11
 768.500
  21
 219.043
  31
0.0
   0
LINE
   8
LEVEL001
   6
CONTINUOUS
  62
7
  10
 751.262
  20
 220.624
  30
0.0
  11
 768.500
  21
 219.043
  31
0.0
   0
LINE
   8
LEVEL001
   6
CONTINUOUS
  62
7
  10
 651.500
  20
 219.043
  30
0.0
  11
 668.738
  21
 220.624
  31
0.0
   0
ARC
   8
LEVEL001
   6
CONTINUOUS
  62
7
  10
 660.183
  20
 217.831
  30
0.0
  40
 5.40000
  50
 95.2376
  51
 129.185
   0
ARC
   8
LEVEL001
   6
CONTINUOUS
  62
7
  10
 658.919
  20
 219.381
  30
0.0
  40
 3.40000
  50
 129.185
  51
 179.483
   0
ARC
   8
LEVEL001
   6
CONTINUOUS
  62
7
  10
 660.183
  20
 217.831
  30
0.0
  40
 5.40000
  50
 61.2915
  51
 95.2389
   0
ARC
   8
LEVEL001
   6
CONTINUOUS
  62
7
  10
 661.143
  20
 219.585
  30
0.0
  40
 3.40000
  50
 10.9934
  51
 61.2913
   0
ARC
   8
LEVEL001
   6
CONTINUOUS
  62
7
  10
 759.817
  20
 217.831
  30
0.0
  40
 5.40000
  50
 50.8154
  51
 84.7624
   0
ARC
   8
LEVEL001
   6
CONTINUOUS
  62
7
  10
 761.081
  20
 219.381
  30
0.0
  40
 3.40000
  50
 0.517102
  51
 50.8152
   0
ARC
   8
LEVEL001
   6
CONTINUOUS
  62
7
  10
 759.817
  20
 217.831
  30
0.0
  40
 5.40000
  50
 84.7611
  51
 118.708
   0
ARC
   8
LEVEL001
   6
CONTINUOUS
  62
7
  10
 758.857
  20
 219.585
  30
0.0
  40
 3.40000
  50
 118.709
  51
 169.007
   0
LINE
   8
LEVEL001
   6
DASHDOT
  62
1
  10
 659.530
  20
 224.957
  30
0.0
  11
 660.893
  21
 210.082
  31
0.0
   0
LINE
   8
LEVEL001
   6
DASHDOT
  62
1
  10
 760.470
  20
 224.957
  30
0.0
  11
 759.107
  21
 210.082
  31
0.0
   0
ARC
   8
LEVEL001
   6
CONTINUOUS
  62
7
  10
 684.500
  20
 128.376
  30
0.0
  40
 2.00000
  50
 180.000
  51
 254.918
   0
ARC
   8
LEVEL001
   6
CONTINUOUS
  62
7
  10
 735.500
  20
 128.376
  30
0.0
  40
 2.00000
  50
 285.081
  51
 0.124398E-3
   0
ARC
   8
LEVEL001
   6
CONTINUOUS
  62
7
  10
 710.000
  20
 223.000
  30
0.0
  40
 100.000
  50
 254.918
  51
 285.082
   0
LINE
   8
LEVEL001
   6
CONTINUOUS
  62
7
  10
 682.500
  20
 128.376
  30
0.0
  11
 682.500
  21
 135.944
  31
0.0
   0
LINE
   8
LEVEL001
   6
CONTINUOUS
  62
7
  10
 737.500
  20
 135.944
  30
0.0
  11
 737.500
  21
 128.376
  31
0.0
   0
ARC
   8
LEVEL001
   6
CONTINUOUS
  62
7
  10
 710.000
  20
 223.000
  30
0.0
  40
 90.0000
  50
 253.070
  51
 286.930
   0
ARC
   8
LEVEL001
   6
CONTINUOUS
  62
7
  10
 684.000
  20
 137.880
  30
0.0
  40
 1.00000
  50
 255.522
  51
 0.221468E-9
   0
ARC
   8
LEVEL001
   6
CONTINUOUS
  62
7
  10
 683.500
  20
 135.944
  30
0.0
  40
 1.00000
  50
 75.5216
  51
 180.000
   0
ARC
   8
LEVEL001
   6
CONTINUOUS
  62
7
  10
 736.000
  20
 137.880
  30
0.0
  40
 1.00000
  50
 180.000
  51
 284.476
   0
ARC
   8
LEVEL001
   6
CONTINUOUS
  62
7
  10
 736.500
  20
 135.944
  30
0.0
  40
 1.00000
  50
 0.855055E-3
  51
 104.476
   0
ARC
   8
LEVEL001
   6
CONTINUOUS
  62
7
  10
 678.328
  20
 153.500
  30
0.0
  40
 8.00000
  50
 189.040
  51
 270.000
   0
ARC
   8
LEVEL001
   6
CONTINUOUS
  62
7
  10
 663.733
  20
 162.500
  30
0.0
  40
 5.00000
  50
 9.03949
  51
 89.9999
   0
LINE
   8
LEVEL001
   6
CONTINUOUS
  62
7
  10
 668.670
  20
 163.286
  30
0.0
  11
 670.427
  21
 152.243
  31
0.0
   0
ARC
   8
LEVEL001
   6
CONTINUOUS
  62
7
  10
 680.000
  20
 140.500
  30
0.0
  40
 5.00000
  50
 0.901583E-4
  51
 90.0002
   0
LINE
   8
LEVEL001
   6
CONTINUOUS
  62
7
  10
 678.328
  20
 145.500
  30
0.0
  11
 680.000
  21
 145.500
  31
0.0
   0
LINE
   8
LEVEL001
   6
CONTINUOUS
  62
7
  10
 683.084
  20
 144.436
  30
0.0
  11
 682.500
  21
 144.436
  31
0.0
   0
ARC
   8
LEVEL001
   6
CONTINUOUS
  62
7
  10
 784.904
  20
 120.043
  30
0.0
  40
 50.0000
  50
 108.171
  51
 161.457
   0
ARC
   8
LEVEL001
   6
CONTINUOUS
  62
7
  10
 738.000
  20
 164.500
  30
0.0
  40
 3.00000
  50
 90.0000
  51
 180.000
   0
LINE
   8
LEVEL001
   6
CONTINUOUS
  62
7
  10
 738.000
  20
 167.500
  30
0.0
  11
 769.000
  21
 167.500
  31
0.0
   0
ARC
   8
LEVEL001
   6
CONTINUOUS
  62
7
  10
 682.000
  20
 164.500
  30
0.0
  40
 3.00000
  50
 0.184557E-10
  51
 90.0000
   0
LINE
   8
LEVEL001
   6
CONTINUOUS
  62
7
  10
 651.000
  20
 167.500
  30
0.0
  11
 682.000
  21
 167.500
  31
0.0
   0
CIRCLE
   8
LEVEL001
   6
CONTINUOUS
  62
7
  10
 710.000
  20
 143.000
  30
0.0
  40
 5.00000
   0
LINE
   8
LEVEL001
   6
DASHDOT
  62
1
  10
 700.000
  20
 143.000
  30
0.0
  11
 720.000
  21
 143.000
  31
0.0
   0
LINE
   8
LEVEL001
   6
DASHDOT
  62
1
  10
 645.000
  20
 192.500
  30
0.0
  11
 790.500
  21
 192.500
  31
0.0
   0
ARC
   8
LEVEL001
   6
CONTINUOUS
  62
7
  10
 647.500
  20
 208.250
  30
0.0
  40
 1.50000
  50
 90.0000
  51
 180.000
   0
LINE
   8
LEVEL001
   6
CONTINUOUS
  62
7
  10
 647.500
  20
 209.750
  30
0.0
  11
 650.000
  21
 209.750
  31
0.0
   0
ARC
   8
LEVEL001
   6
CONTINUOUS
  62
7
  10
 647.500
  20
 176.750
  30
0.0
  40
 1.50000
  50
 180.000
  51
 270.000
   0
LINE
   8
LEVEL001
   6
CONTINUOUS
  62
7
  10
 646.000
  20
 208.250
  30
0.0
  11
 646.000
  21
 176.750
  31
0.0
   0
LINE
   8
LEVEL001
   6
CONTINUOUS
  62
7
  10
 647.500
  20
 175.250
  30
0.0
  11
 650.000
  21
 175.250
  31
0.0
   0
ARC
   8
LEVEL001
   6
CONTINUOUS
  62
7
  10
 784.500
  20
 208.250
  30
0.0
  40
 1.50000
  50
 0.108563E-11
  51
 89.9983
   0
LINE
   8
LEVEL001
   6
CONTINUOUS
  62
7
  10
 770.000
  20
 209.750
  30
0.0
  11
 784.500
  21
 209.750
  31
0.0
   0
ARC
   8
LEVEL001
   6
CONTINUOUS
  62
7
  10
 784.500
  20
 176.750
  30
0.0
  40
 1.50000
  50
 270.002
  51
 0.253462E-7
   0
LINE
   8
LEVEL001
   6
CONTINUOUS
  62
7
  10
 786.000
  20
 208.250
  30
0.0
  11
 786.000
  21
 176.750
  31
0.0
   0
LINE
   8
LEVEL001
   6
CONTINUOUS
  62
7
  10
 770.000
  20
 175.250
  30
0.0
  11
 784.500
  21
 175.250
  31
0.0
   0
CIRCLE
   8
LEVEL003
   6
CONTINUOUS
  62
7
  10
 710.000
  20
 223.000
  30
0.0
  40
 15.0000
   0
CIRCLE
   8
LEVEL003
   6
CONTINUOUS
  62
7
  10
 707.000
  20
 239.700
  30
0.0
  40
 1.00000
   0
ARC
   8
LEVEL003
   6
CONTINUOUS
  62
7
  10
 706.000
  20
 241.100
  30
0.0
  40
 1.00000
  50
 90.0009
  51
 180.000
   0
ARC
   8
LEVEL003
   6
CONTINUOUS
  62
7
  10
 708.500
  20
 241.600
  30
0.0
  40
 0.500000
  50
 0.875942E-3
  51
 90.0017
   0
LINE
   8
LEVEL003
   6
CONTINUOUS
  62
7
  10
 708.500
  20
 242.100
  30
0.0
  11
 706.000
  21
 242.100
  31
0.0
   0
LINE
   8
LEVEL003
   6
CONTINUOUS
  62
7
  10
 709.000
  20
 241.600
  30
0.0
  11
 709.000
  21
 237.967
  31
0.0
   0
ARC
   8
LEVEL003
   6
CONTINUOUS
  62
7
  10
 704.000
  20
 238.655
  30
0.0
  40
 1.00000
  50
 289.757
  51
 0.179349E-3
   0
LINE
   8
LEVEL003
   6
CONTINUOUS
  62
7
  10
 705.000
  20
 241.100
  30
0.0
  11
 705.000
  21
 238.655
  31
0.0
   0
ARC
   8
LEVEL003
   6
CONTINUOUS
  62
7
  10
 710.000
  20
 221.950
  30
0.0
  40
 16.7500
  50
 109.757
  51
 270.000
   0
CIRCLE
   8
LEVEL003
   6
CONTINUOUS
  62
7
  10
 713.000
  20
 239.700
  30
0.0
  40
 1.00000
   0
ARC
   8
LEVEL003
   6
CONTINUOUS
  62
7
  10
 714.000
  20
 241.100
  30
0.0
  40
 1.00000
  50
0.0
  51
 89.9991
   0
ARC
   8
LEVEL003
   6
CONTINUOUS
  62
7
  10
 711.500
  20
 241.600
  30
0.0
  40
 0.500000
  50
 89.9983
  51
 179.999
   0
LINE
   8
LEVEL003
   6
CONTINUOUS
  62
7
  10
 711.500
  20
 242.100
  30
0.0
  11
 714.000
  21
 242.100
  31
0.0
   0
LINE
   8
LEVEL003
   6
CONTINUOUS
  62
7
  10
 711.000
  20
 241.600
  30
0.0
  11
 711.000
  21
 237.967
  31
0.0
   0
ARC
   8
LEVEL003
   6
CONTINUOUS
  62
7
  10
 716.000
  20
 238.655
  30
0.0
  40
 1.00000
  50
 180.000
  51
 250.243
   0
LINE
   8
LEVEL003
   6
CONTINUOUS
  62
7
  10
 715.000
  20
 241.100
  30
0.0
  11
 715.000
  21
 238.655
  31
0.0
   0
ARC
   8
LEVEL003
   6
CONTINUOUS
  62
7
  10
 710.000
  20
 221.950
  30
0.0
  40
 16.7500
  50
 270.000
  51
 70.2434
   0
ARC
   8
LEVEL001
   6
CONTINUOUS
  62
7
  10
 200.000
  20
 119.500
  30
0.0
  40
 3.00000
  50
 180.000
  51
 270.000
   0
LINE
   8
LEVEL001
   6
CONTINUOUS
  62
7
  10
 280.000
  20
 116.500
  30
0.0
  11
 200.000
  21
 116.500
  31
0.0
   0
LINE
   8
LEVEL001
   6
CONTINUOUS
  62
7
  10
 197.000
  20
 119.500
  30
0.0
  11
 197.000
  21
 130.500
  31
0.0
   0
ARC
   8
LEVEL001
   6
CONTINUOUS
  62
7
  10
 360.000
  20
 119.500
  30
0.0
  40
 3.00000
  50
 270.000
  51
0.0
   0
LINE
   8
LEVEL001
   6
CONTINUOUS
  62
7
  10
 280.000
  20
 116.500
  30
0.0
  11
 360.000
  21
 116.500
  31
0.0
   0
LINE
   8
LEVEL001
   6
CONTINUOUS
  62
7
  10
 363.000
  20
 119.500
  30
0.0
  11
 363.000
  21
 130.500
  31
0.0
   0
LINE
   8
LEVEL003
   6
CONTINUOUS
  62
3
  10
 197.000
  20
 116.500
  30
0.0
  11
 197.000
  21
 82.0000
  31
0.0
   0
LINE
   8
LEVEL003
   6
CONTINUOUS
  62
3
  10
 363.000
  20
 118.436
  30
0.0
  11
 363.000
  21
 82.0000
  31
0.0
   0
LINE
   8
LEVEL003
   6
CONTINUOUS
  62
3
  10
 197.000
  20
 88.0000
  30
0.0
  11
 363.000
  21
 88.0000
  31
0.0
   0
LINE
   8
LEVEL003
   6
CONTINUOUS
  62
3
  10
 206.000
  20
 86.5000
  30
0.0
  11
 197.000
  21
 88.0000
  31
0.0
   0
LINE
   8
LEVEL003
   6
CONTINUOUS
  62
3
  10
 197.000
  20
 88.0000
  30
0.0
  11
 206.000
  21
 89.5000
  31
0.0
   0
LINE
   8
LEVEL003
   6
CONTINUOUS
  62
3
  10
 197.000
  20
 88.0000
  30
0.0
  11
 206.000
  21
 88.0000
  31
0.0
   0
LINE
   8
LEVEL003
   6
CONTINUOUS
  62
3
  10
 354.000
  20
 89.5000
  30
0.0
  11
 363.000
  21
 88.0000
  31
0.0
   0
LINE
   8
LEVEL003
   6
CONTINUOUS
  62
3
  10
 363.000
  20
 88.0000
  30
0.0
  11
 354.000
  21
 86.5000
  31
0.0
   0
LINE
   8
LEVEL003
   6
CONTINUOUS
  62
3
  10
 363.000
  20
 88.0000
  30
0.0
  11
 354.000
  21
 88.0000
  31
0.0
   0
TEXT
   8
LEVEL003
  62
3
  10
 265.000
  20
 82.4000
  30
0.0
  40
 12.0000
   1
%%c166
   7
STANDARD
  72
1
  11
 280.000
  21
 90.4000
  31
0.0
  73
2
   0
LINE
   8
LEVEL001
   6
DASHDOT
  62
1
  10
 220.000
  20
 121.064
  30
0.0
  11
 220.000
  21
 113.782
  31
0.0
   0
LINE
   8
LEVEL001
   6
DASHDOT
  62
1
  10
 240.000
  20
 121.064
  30
0.0
  11
 240.000
  21
 113.782
  31
0.0
   0
LINE
   8
LEVEL001
   6
DASHDOT
  62
1
  10
 300.000
  20
 121.064
  30
0.0
  11
 300.000
  21
 113.782
  31
0.0
   0
LINE
   8
LEVEL001
   6
DASHDOT
  62
1
  10
 320.000
  20
 121.064
  30
0.0
  11
 320.000
  21
 113.782
  31
0.0
   0
LINE
   8
LEVEL001
   6
DASHDOT
  62
1
  10
 340.000
  20
 121.064
  30
0.0
  11
 340.000
  21
 113.782
  31
0.0
   0
LINE
   8
LEVEL001
   6
DASHDOT
  62
1
  10
 260.000
  20
 120.564
  30
0.0
  11
 260.000
  21
 113.782
  31
0.0
   0
LINE
   8
LEVEL001
   6
DASHDOT
  62
1
  10
 270.000
  20
 223.000
  30
0.0
  11
 471.500
  21
 223.000
  31
0.0
   0
LINE
   8
LEVEL001
   6
DASHDOT
  62
1
  10
 280.000
  20
 111.064
  30
0.0
  11
 280.000
  21
 566.064
  31
0.0
   0
LINE
   8
LEVEL001
   6
CONTINUOUS
  62
7
  10
 188.500
  20
 145.500
  30
0.0
  11
 188.500
  21
 130.500
  31
0.0
   0
LINE
   8
LEVEL001
   6
CONTINUOUS
  62
7
  10
 195.500
  20
 161.500
  30
0.0
  11
 195.500
  21
 145.500
  31
0.0
   0
LINE
   8
LEVEL001
   6
CONTINUOUS
  62
7
  10
 364.500
  20
 161.500
  30
0.0
  11
 364.500
  21
 145.500
  31
0.0
   0
LINE
   8
LEVEL001
   6
CONTINUOUS
  62
7
  10
 371.500
  20
 145.500
  30
0.0
  11
 371.500
  21
 130.500
  31
0.0
   0
LINE
   8
LEVEL001
   6
DASHDOT
  62
1
  10
 350.000
  20
 138.000
  30
0.0
  11
 372.000
  21
 138.000
  31
0.0
   0
LINE
   8
LEVEL001
   6
CONTINUOUS
  62
7
  10
 406.000
  20
 193.857
  30
0.0
  11
 368.000
  21
 166.500
  31
0.0
   0
ARC
   8
LEVEL001
   6
CONTINUOUS
  62
7
  10
 388.000
  20
 167.822
  30
0.0
  40
 25.0000
  50
 93.1108
  51
 180.000
   0
LINE
   8
LEVEL001
   6
CONTINUOUS
  62
7
  10
 363.000
  20
 167.822
  30
0.0
  11
 363.000
  21
 161.500
  31
0.0
   0
LINE
   8
LEVEL001
   6
CONTINUOUS
  62
7
  10
 409.000
  20
 196.000
  30
0.0
  11
 407.003
  21
 193.891
  31
0.0
   0
LINE
   8
LEVEL001
   6
CONTINUOUS
  62
7
  10
 386.643
  20
 192.785
  30
0.0
  11
 407.003
  21
 193.891
  31
0.0
   0
LINE
   8
LEVEL001
   6
CONTINUOUS
  62
7
  10
 363.000
  20
 166.500
  30
0.0
  11
 368.000
  21
 166.500
  31
0.0
   0
LINE
   8
LEVEL001
   6
CONTINUOUS
  62
7
  10
 407.003
  20
 252.109
  30
0.0
  11
 409.000
  21
 250.000
  31
0.0
   0
ARC
   8
LEVEL001
   6
CONTINUOUS
  62
7
  10
 374.606
  20
 265.887
  30
0.0
  40
 12.0000
  50
 189.220
  51
 266.889
   0
LINE
   8
LEVEL001
   6
CONTINUOUS
  62
7
  10
 373.955
  20
 253.905
  30
0.0
  11
 407.003
  21
 252.109
  31
0.0
   0
ARC
   8
LEVEL001
   6
CONTINUOUS
  62
7
  10
 344.500
  20
 261.000
  30
0.0
  40
 18.5000
  50
 9.22010
  51
 49.5887
   0
ARC
   8
LEVEL001
   6
CONTINUOUS
  62
7
  10
 338.000
  20
 541.500
  30
0.0
  40
 2.00000
  50
0.0
  51
 89.9998
   0
LINE
   8
LEVEL001
   6
CONTINUOUS
  62
7
  10
 340.000
  20
 541.500
  30
0.0
  11
 342.000
  21
 541.500
  31
0.0
   0
LINE
   8
LEVEL001
   6
CONTINUOUS
  62
7
  10
 342.000
  20
 537.000
  30
0.0
  11
 342.000
  21
 524.000
  31
0.0
   0
LINE
   8
LEVEL001
   6
CONTINUOUS
  62
7
  10
 342.000
  20
 524.000
  30
0.0
  11
 349.600
  21
 524.000
  31
0.0
   0
LINE
   8
LEVEL001
   6
CONTINUOUS
  62
7
  10
 349.600
  20
 524.000
  30
0.0
  11
 350.000
  21
 524.693
  31
0.0
   0
LINE
   8
LEVEL001
   6
CONTINUOUS
  62
7
  10
 350.000
  20
 524.693
  30
0.0
  11
 350.000
  21
 536.307
  31
0.0
   0
LINE
   8
LEVEL001
   6
CONTINUOUS
  62
7
  10
 350.000
  20
 536.307
  30
0.0
  11
 349.600
  21
 537.000
  31
0.0
   0
LINE
   8
LEVEL001
   6
CONTINUOUS
  62
7
  10
 349.600
  20
 537.000
  30
0.0
  11
 342.000
  21
 537.000
  31
0.0
   0
LINE
   8
LEVEL001
   6
CONTINUOUS
  62
7
  10
 349.600
  20
 537.000
  30
0.0
  11
 349.600
  21
 524.000
  31
0.0
   0
ARC
   8
LEVEL001
   6
CONTINUOUS
  62
7
  10
 222.000
  20
 541.500
  30
0.0
  40
 2.00000
  50
 90.0002
  51
 180.000
   0
LINE
   8
LEVEL001
   6
CONTINUOUS
  62
7
  10
 220.000
  20
 541.500
  30
0.0
  11
 220.000
  21
 518.500
  31
0.0
   0
LINE
   8
LEVEL001
   6
CONTINUOUS
  62
7
  10
 220.000
  20
 518.500
  30
0.0
  11
 197.231
  21
 214.193
  31
0.0
   0
ARC
   8
LEVEL001
   6
CONTINUOUS
  62
7
  10
 175.443
  20
 262.697
  30
0.0
  40
 35.0000
  50
 332.385
  51
 357.013
   0
ARC
   8
LEVEL001
   6
CONTINUOUS
  62
7
  10
 219.800
  20
 514.672
  30
0.0
  40
 3.83429
  50
 357.013
  51
 87.0128
   0
LINE
   8
LEVEL001
   6
CONTINUOUS
  62
7
  10
 223.629
  20
 514.472
  30
0.0
  11
 210.395
  21
 260.873
  31
0.0
   0
LINE
   8
LEVEL001
   6
CONTINUOUS
  62
7
  10
 342.000
  20
 498.000
  30
0.0
  11
 342.000
  21
 485.000
  31
0.0
   0
LINE
   8
LEVEL001
   6
CONTINUOUS
  62
7
  10
 342.000
  20
 485.000
  30
0.0
  11
 349.600
  21
 485.000
  31
0.0
   0
LINE
   8
LEVEL001
   6
CONTINUOUS
  62
7
  10
 349.600
  20
 485.000
  30
0.0
  11
 350.000
  21
 485.693
  31
0.0
   0
LINE
   8
LEVEL001
   6
CONTINUOUS
  62
7
  10
 350.000
  20
 485.693
  30
0.0
  11
 350.000
  21
 497.307
  31
0.0
   0
LINE
   8
LEVEL001
   6
CONTINUOUS
  62
7
  10
 350.000
  20
 497.307
  30
0.0
  11
 349.600
  21
 498.000
  31
0.0
   0
LINE
   8
LEVEL001
   6
CONTINUOUS
  62
7
  10
 349.600
  20
 498.000
  30
0.0
  11
 342.000
  21
 498.000
  31
0.0
   0
LINE
   8
LEVEL001
   6
CONTINUOUS
  62
7
  10
 349.600
  20
 498.000
  30
0.0
  11
 349.600
  21
 485.000
  31
0.0
   0
ARC
   8
LEVEL001
   6
CONTINUOUS
  62
7
  10
 340.000
  20
 475.213
  30
0.0
  40
 2.00000
  50
 289.505
  51
 0.205184E-9
   0
LINE
   8
LEVEL001
   6
CONTINUOUS
  62
7
  10
 342.000
  20
 541.500
  30
0.0
  11
 342.000
  21
 475.213
  31
0.0
   0
ARC
   8
LEVEL001
   6
CONTINUOUS
  62
7
  10
 341.669
  20
 470.500
  30
0.0
  40
 3.00000
  50
 109.505
  51
 182.987
   0
ARC
   8
LEVEL001
   6
CONTINUOUS
  62
7
  10
 395.563
  20
 304.377
  30
0.0
  40
 40.0000
  50
 184.652
  51
 240.000
   0
LINE
   8
LEVEL001
   6
CONTINUOUS
  62
7
  10
 341.625
  20
 474.047
  30
0.0
  11
 355.695
  21
 301.133
  31
0.0
   0
LINE
   8
LEVEL001
   6
CONTINUOUS
  62
7
  10
 406.000
  20
 252.163
  30
0.0
  11
 375.563
  21
 269.736
  31
0.0
   0
ARC
   8
LEVEL001
   6
CONTINUOUS
  62
7
  10
 368.035
  20
 291.471
  30
0.0
  40
 20.0000
  50
 182.987
  51
 231.817
   0
ARC
   8
LEVEL001
   6
CONTINUOUS
  62
7
  10
 260.163
  20
 154.308
  30
0.0
  40
 154.500
  50
 51.4247
  51
 51.8164
   0
LINE
   8
LEVEL001
   6
DASHDOT
  62
1
  10
 350.000
  20
 530.500
  30
0.0
  11
 319.500
  21
 530.500
  31
0.0
   0
LINE
   8
LEVEL001
   6
DASHDOT
  62
1
  10
 350.000
  20
 491.500
  30
0.0
  11
 319.500
  21
 491.500
  31
0.0
   0
ARC
   8
LEVEL001
   6
CONTINUOUS
  62
7
  10
 230.500
  20
 558.500
  30
0.0
  40
 3.00000
  50
 90.0000
  51
 180.000
   0
LINE
   8
LEVEL001
   6
CONTINUOUS
  62
7
  10
 230.500
  20
 561.500
  30
0.0
  11
 280.000
  21
 561.500
  31
0.0
   0
LINE
   8
LEVEL001
   6
CONTINUOUS
  62
7
  10
 227.500
  20
 543.500
  30
0.0
  11
 227.500
  21
 558.500
  31
0.0
   0
LINE
   8
LEVEL001
   6
CONTINUOUS
  62
7
  10
 329.500
  20
 561.500
  30
0.0
  11
 280.000
  21
 561.500
  31
0.0
   0
ARC
   8
LEVEL001
   6
CONTINUOUS
  62
7
  10
 329.500
  20
 558.500
  30
0.0
  40
 3.00000
  50
0.0
  51
 90.0000
   0
LINE
   8
LEVEL001
   6
CONTINUOUS
  62
7
  10
 332.500
  20
 543.500
  30
0.0
  11
 332.500
  21
 558.500
  31
0.0
   0
LINE
   8
LEVEL003
   6
CONTINUOUS
  62
3
  10
 227.500
  20
 561.500
  30
0.0
  11
 227.500
  21
 602.064
  31
0.0
   0
LINE
   8
LEVEL003
   6
CONTINUOUS
  62
3
  10
 332.500
  20
 561.500
  30
0.0
  11
 332.500
  21
 602.064
  31
0.0
   0
LINE
   8
LEVEL003
   6
CONTINUOUS
  62
3
  10
 227.500
  20
 596.064
  30
0.0
  11
 332.500
  21
 596.064
  31
0.0
   0
LINE
   8
LEVEL003
   6
CONTINUOUS
  62
3
  10
 236.500
  20
 594.564
  30
0.0
  11
 227.500
  21
 596.064
  31
0.0
   0
LINE
   8
LEVEL003
   6
CONTINUOUS
  62
3
  10
 227.500
  20
 596.064
  30
0.0
  11
 236.500
  21
 597.564
  31
0.0
   0
LINE
   8
LEVEL003
   6
CONTINUOUS
  62
3
  10
 227.500
  20
 596.064
  30
0.0
  11
 236.500
  21
 596.064
  31
0.0
   0
LINE
   8
LEVEL003
   6
CONTINUOUS
  62
3
  10
 323.500
  20
 597.564
  30
0.0
  11
 332.500
  21
 596.064
  31
0.0
   0
LINE
   8
LEVEL003
   6
CONTINUOUS
  62
3
  10
 332.500
  20
 596.064
  30
0.0
  11
 323.500
  21
 594.564
  31
0.0
   0
LINE
   8
LEVEL003
   6
CONTINUOUS
  62
3
  10
 332.500
  20
 596.064
  30
0.0
  11
 323.500
  21
 596.064
  31
0.0
   0
TEXT
   8
LEVEL003
  62
3
  10
 265.000
  20
 590.464
  30
0.0
  40
 12.0000
   1
%%c105
   7
STANDARD
  72
1
  11
 280.000
  21
 598.464
  31
0.0
  73
2
   0
LINE
   8
LEVEL001
   6
DASHDOT
  62
1
  10
 245.000
  20
 556.282
  30
0.0
  11
 245.000
  21
 566.064
  31
0.0
   0
LINE
   8
LEVEL001
   6
DASHDOT
  62
1
  10
 262.500
  20
 556.282
  30
0.0
  11
 262.500
  21
 566.064
  31
0.0
   0
LINE
   8
LEVEL001
   6
DASHDOT
  62
1
  10
 297.500
  20
 556.282
  30
0.0
  11
 297.500
  21
 566.064
  31
0.0
   0
LINE
   8
LEVEL001
   6
DASHDOT
  62
1
  10
 315.000
  20
 556.282
  30
0.0
  11
 315.000
  21
 566.064
  31
0.0
   0
ARC
   8
LEVEL001
   6
CONTINUOUS
  62
7
  10
 660.500
  20
 558.500
  30
0.0
  40
 3.00000
  50
 90.0000
  51
 180.000
   0
LINE
   8
LEVEL001
   6
CONTINUOUS
  62
7
  10
 660.500
  20
 561.500
  30
0.0
  11
 710.000
  21
 561.500
  31
0.0
   0
LINE
   8
LEVEL001
   6
CONTINUOUS
  62
7
  10
 657.500
  20
 543.500
  30
0.0
  11
 657.500
  21
 558.500
  31
0.0
   0
ARC
   8
LEVEL001
   6
CONTINUOUS
  62
7
  10
 652.000
  20
 541.500
  30
0.0
  40
 2.00000
  50
 90.0009
  51
 180.000
   0
ARC
   8
LEVEL001
   6
CONTINUOUS
  62
7
  10
 605.443
  20
 262.697
  30
0.0
  40
 35.0000
  50
 332.385
  51
 357.013
   0
ARC
   8
LEVEL001
   6
CONTINUOUS
  62
7
  10
 710.000
  20
 208.000
  30
0.0
  40
 83.0000
  50
 152.385
  51
 180.000
   0
ARC
   8
LEVEL001
   6
CONTINUOUS
  62
7
  10
 630.000
  20
 119.500
  30
0.0
  40
 3.00000
  50
 180.000
  51
 270.000
   0
LINE
   8
LEVEL001
   6
CONTINUOUS
  62
7
  10
 627.000
  20
 119.500
  30
0.0
  11
 627.000
  21
 130.500
  31
0.0
   0
LINE
   8
LEVEL001
   6
CONTINUOUS
  62
7
  10
 618.500
  20
 145.500
  30
0.0
  11
 618.500
  21
 130.500
  31
0.0
   0
LINE
   8
LEVEL001
   6
CONTINUOUS
  62
7
  10
 625.500
  20
 161.500
  30
0.0
  11
 625.500
  21
 145.500
  31
0.0
   0
LINE
   8
LEVEL001
   6
CONTINUOUS
  62
7
  10
 710.000
  20
 116.500
  30
0.0
  11
 630.000
  21
 116.500
  31
0.0
   0
LINE
   8
LEVEL001
   6
CONTINUOUS
  62
7
  10
 652.000
  20
 543.500
  30
0.0
  11
 710.000
  21
 543.500
  31
0.0
   0
LINE
   8
LEVEL001
   6
CONTINUOUS
  62
7
  10
 668.955
  20
 161.500
  30
0.0
  11
 625.500
  21
 161.500
  31
0.0
   0
LINE
   8
LEVEL001
   6
CONTINUOUS
  62
7
  10
 618.500
  20
 130.500
  30
0.0
  11
 682.500
  21
 130.500
  31
0.0
   0
LINE
   8
LEVEL001
   6
CONTINUOUS
  62
7
  10
 631.005
  20
 147.500
  30
0.0
  11
 631.005
  21
 130.500
  31
0.0
   0
LINE
   8
LEVEL001
   6
CONTINUOUS
  62
7
  10
 631.005
  20
 145.500
  30
0.0
  11
 618.500
  21
 145.500
  31
0.0
   0
LINE
   8
LEVEL001
   6
CONTINUOUS
  62
7
  10
 680.000
  20
 130.500
  30
0.0
  11
 680.000
  21
 145.500
  31
0.0
   0
LINE
   8
LEVEL001
   6
CONTINUOUS
  62
7
  10
 673.036
  20
 147.500
  30
0.0
  11
 631.005
  21
 147.500
  31
0.0
   0
LINE
   8
LEVEL001
   6
CONTINUOUS
  62
7
  10
 793.000
  20
 208.000
  30
0.0
  11
 793.000
  21
 161.500
  31
0.0
   0
ARC
   8
LEVEL001
   6
CONTINUOUS
  62
7
  10
 790.000
  20
 119.500
  30
0.0
  40
 3.00000
  50
 270.000
  51
 0.254851E-9
   0
LINE
   8
LEVEL001
   6
CONTINUOUS
  62
7
  10
 793.000
  20
 119.500
  30
0.0
  11
 793.000
  21
 130.500
  31
0.0
   0
LINE
   8
LEVEL001
   6
CONTINUOUS
  62
7
  10
 801.500
  20
 145.500
  30
0.0
  11
 801.500
  21
 130.500
  31
0.0
   0
LINE
   8
LEVEL001
   6
CONTINUOUS
  62
7
  10
 794.500
  20
 161.500
  30
0.0
  11
 794.500
  21
 145.500
  31
0.0
   0
LINE
   8
LEVEL001
   6
CONTINUOUS
  62
7
  10
 710.000
  20
 116.500
  30
0.0
  11
 790.000
  21
 116.500
  31
0.0
   0
LINE
   8
LEVEL001
   6
CONTINUOUS
  62
7
  10
 801.500
  20
 130.500
  30
0.0
  11
 737.500
  21
 130.500
  31
0.0
   0
LINE
   8
LEVEL001
   6
CONTINUOUS
  62
7
  10
 788.995
  20
 147.500
  30
0.0
  11
 788.995
  21
 130.500
  31
0.0
   0
LINE
   8
LEVEL001
   6
CONTINUOUS
  62
7
  10
 788.995
  20
 145.500
  30
0.0
  11
 801.500
  21
 145.500
  31
0.0
   0
LINE
   8
LEVEL001
   6
CONTINUOUS
  62
7
  10
 770.000
  20
 518.500
  30
0.0
  11
 792.769
  21
 214.193
  31
0.0
   0
LINE
   8
LEVEL001
   6
CONTINUOUS
  62
7
  10
 766.371
  20
 514.472
  30
0.0
  11
 779.605
  21
 260.873
  31
0.0
   0
ARC
   8
LEVEL001
   6
CONTINUOUS
  62
7
  10
 814.557
  20
 262.697
  30
0.0
  40
 35.0000
  50
 182.987
  51
 207.615
   0
ARC
   8
LEVEL001
   6
CONTINUOUS
  62
7
  10
 710.000
  20
 208.000
  30
0.0
  40
 83.0000
  50
 0.558843E-4
  51
 27.6155
   0
ARC
   8
LEVEL001
   6
CONTINUOUS
  62
7
  10
 759.500
  20
 558.500
  30
0.0
  40
 3.00000
  50
0.0
  51
 90.0000
   0
LINE
   8
LEVEL001
   6
CONTINUOUS
  62
7
  10
 759.500
  20
 561.500
  30
0.0
  11
 710.000
  21
 561.500
  31
0.0
   0
LINE
   8
LEVEL001
   6
CONTINUOUS
  62
7
  10
 762.500
  20
 543.500
  30
0.0
  11
 762.500
  21
 558.500
  31
0.0
   0
ARC
   8
LEVEL001
   6
CONTINUOUS
  62
7
  10
 768.000
  20
 541.500
  30
0.0
  40
 2.00000
  50
0.0
  51
 89.9991
   0
LINE
   8
LEVEL001
   6
CONTINUOUS
  62
7
  10
 768.000
  20
 543.500
  30
0.0
  11
 710.000
  21
 543.500
  31
0.0
   0
ARC
   8
LEVEL001
   6
CONTINUOUS
  62
7
  10
 652.000
  20
 520.076
  30
0.0
  40
 2.00000
  50
 180.000
  51
 247.850
   0
LINE
   8
LEVEL001
   6
CONTINUOUS
  62
7
  10
 650.000
  20
 541.500
  30
0.0
  11
 650.000
  21
 520.076
  31
0.0
   0
ARC
   8
LEVEL001
   6
CONTINUOUS
  62
7
  10
 649.800
  20
 514.672
  30
0.0
  40
 3.83429
  50
 357.013
  51
 67.8487
   0
ARC
   8
LEVEL001
   6
CONTINUOUS
  62
7
  10
 768.000
  20
 520.076
  30
0.0
  40
 2.00000
  50
 292.150
  51
0.0
   0
LINE
   8
LEVEL001
   6
CONTINUOUS
  62
7
  10
 770.000
  20
 541.500
  30
0.0
  11
 770.000
  21
 520.076
  31
0.0
   0
ARC
   8
LEVEL001
   6
CONTINUOUS
  62
7
  10
 770.200
  20
 514.672
  30
0.0
  40
 3.83429
  50
 112.151
  51
 182.987
   0
ARC
   8
LEVEL001
   6
CONTINUOUS
  62
7
  10
 698.000
  20
 476.500
  30
0.0
  40
 3.00000
  50
 180.000
  51
 270.000
   0
ARC
   8
LEVEL001
   6
CONTINUOUS
  62
7
  10
 722.000
  20
 476.500
  30
0.0
  40
 3.00000
  50
 270.000
  51
0.0
   0
LINE
   8
LEVEL001
   6
CONTINUOUS
  62
7
  10
 695.000
  20
 541.500
  30
0.0
  11
 725.000
  21
 541.500
  31
0.0
   0
ARC
   8
LEVEL001
   6
CONTINUOUS
  62
7
  10
 692.000
  20
 515.500
  30
0.0
  40
 3.00000
  50
0.0
  51
 90.0000
   0
LINE
   8
LEVEL001
   6
CONTINUOUS
  62
7
  10
 652.000
  20
 518.500
  30
0.0
  11
 692.000
  21
 518.500
  31
0.0
   0
ARC
   8
LEVEL001
   6
CONTINUOUS
  62
7
  10
 728.000
  20
 515.500
  30
0.0
  40
 3.00000
  50
 90.0000
  51
 180.000
   0
LINE
   8
LEVEL001
   6
CONTINUOUS
  62
7
  10
 768.000
  20
 518.500
  30
0.0
  11
 728.000
  21
 518.500
  31
0.0
   0
LINE
   8
LEVEL001
   6
CONTINUOUS
  62
7
  10
 725.000
  20
 541.500
  30
0.0
  11
 725.000
  21
 476.500
  31
0.0
   0
LINE
   8
LEVEL001
   6
CONTINUOUS
  62
7
  10
 695.000
  20
 541.500
  30
0.0
  11
 695.000
  21
 476.500
  31
0.0
   0
LINE
   8
LEVEL001
   6
CONTINUOUS
  62
7
  10
 710.000
  20
 533.964
  30
0.0
  11
 713.000
  21
 532.232
  31
0.0
   0
LINE
   8
LEVEL001
   6
CONTINUOUS
  62
7
  10
 713.000
  20
 532.232
  30
0.0
  11
 713.000
  21
 528.768
  31
0.0
   0
LINE
   8
LEVEL001
   6
CONTINUOUS
  62
7
  10
 713.000
  20
 528.768
  30
0.0
  11
 710.000
  21
 527.036
  31
0.0
   0
LINE
   8
LEVEL001
   6
CONTINUOUS
  62
7
  10
 710.000
  20
 527.036
  30
0.0
  11
 707.000
  21
 528.768
  31
0.0
   0
LINE
   8
LEVEL001
   6
CONTINUOUS
  62
7
  10
 707.000
  20
 528.768
  30
0.0
  11
 707.000
  21
 532.232
  31
0.0
   0
LINE
   8
LEVEL001
   6
CONTINUOUS
  62
7
  10
 707.000
  20
 532.232
  30
0.0
  11
 710.000
  21
 533.964
  31
0.0
   0
CIRCLE
   8
LEVEL001
   6
CONTINUOUS
  62
7
  10
 710.000
  20
 530.500
  30
0.0
  40
 6.50000
   0
CIRCLE
   8
LEVEL001
   6
CONTINUOUS
  62
7
  10
 710.000
  20
 530.500
  30
0.0
  40
 5.80718
   0
LINE
   8
LEVEL001
   6
DASHDOT
  62
1
  10
 719.500
  20
 530.500
  30
0.0
  11
 700.500
  21
 530.500
  31
0.0
   0
LINE
   8
LEVEL001
   6
CONTINUOUS
  62
7
  10
 710.000
  20
 494.964
  30
0.0
  11
 713.000
  21
 493.232
  31
0.0
   0
LINE
   8
LEVEL001
   6
CONTINUOUS
  62
7
  10
 713.000
  20
 493.232
  30
0.0
  11
 713.000
  21
 489.768
  31
0.0
   0
LINE
   8
LEVEL001
   6
CONTINUOUS
  62
7
  10
 713.000
  20
 489.768
  30
0.0
  11
 710.000
  21
 488.036
  31
0.0
   0
LINE
   8
LEVEL001
   6
CONTINUOUS
  62
7
  10
 710.000
  20
 488.036
  30
0.0
  11
 707.000
  21
 489.768
  31
0.0
   0
LINE
   8
LEVEL001
   6
CONTINUOUS
  62
7
  10
 707.000
  20
 489.768
  30
0.0
  11
 707.000
  21
 493.232
  31
0.0
   0
LINE
   8
LEVEL001
   6
CONTINUOUS
  62
7
  10
 707.000
  20
 493.232
  30
0.0
  11
 710.000
  21
 494.964
  31
0.0
   0
CIRCLE
   8
LEVEL001
   6
CONTINUOUS
  62
7
  10
 710.000
  20
 491.500
  30
0.0
  40
 6.50000
   0
CIRCLE
   8
LEVEL001
   6
CONTINUOUS
  62
7
  10
 710.000
  20
 491.500
  30
0.0
  40
 5.80718
   0
LINE
   8
LEVEL001
   6
DASHDOT
  62
1
  10
 719.500
  20
 491.500
  30
0.0
  11
 700.500
  21
 491.500
  31
0.0
   0
ARC
   8
LEVEL001
   6
CONTINUOUS
  62
7
  10
 715.500
  20
 470.500
  30
0.0
  40
 3.00000
  50
 90.0000
  51
 180.000
   0
ARC
   8
LEVEL001
   6
CONTINUOUS
  62
7
  10
 704.500
  20
 470.500
  30
0.0
  40
 3.00000
  50
 0.108563E-11
  51
 90.0000
   0
LINE
   8
LEVEL001
   6
CONTINUOUS
  62
7
  10
 698.000
  20
 473.500
  30
0.0
  11
 722.000
  21
 473.500
  31
0.0
   0
LINE
   8
LEVEL001
   6
CONTINUOUS
  62
7
  10
 740.000
  20
 130.500
  30
0.0
  11
 740.000
  21
 142.034
  31
0.0
   0
LINE
   8
LEVEL001
   6
CONTINUOUS
  62
7
  10
 743.118
  20
 147.500
  30
0.0
  11
 788.995
  21
 147.500
  31
0.0
   0
LINE
   8
LEVEL001
   6
CONTINUOUS
  62
7
  10
 756.952
  20
 161.500
  30
0.0
  11
 794.500
  21
 161.500
  31
0.0
   0
ARC
   8
LEVEL001
   6
CONTINUOUS
  62
7
  10
 763.217
  20
 228.500
  30
0.0
  40
 3.00000
  50
 270.000
  51
 5.90078
   0
LINE
   8
LEVEL001
   6
CONTINUOUS
  62
7
  10
 744.278
  20
 225.500
  30
0.0
  11
 763.217
  21
 225.500
  31
0.0
   0
ARC
   8
LEVEL001
   6
CONTINUOUS
  62
7
  10
 656.783
  20
 228.500
  30
0.0
  40
 3.00000
  50
 174.099
  51
 270.000
   0
LINE
   8
LEVEL001
   6
CONTINUOUS
  62
7
  10
 656.783
  20
 225.500
  30
0.0
  11
 675.722
  21
 225.500
  31
0.0
   0
ARC
   8
LEVEL001
   6
CONTINUOUS
  62
7
  10
 715.500
  20
 282.245
  30
0.0
  40
 3.00000
  50
 180.000
  51
 264.696
   0
ARC
   8
LEVEL001
   6
CONTINUOUS
  62
7
  10
 704.500
  20
 282.245
  30
0.0
  40
 3.00000
  50
 275.304
  51
 0.827183E-4
   0
ARC
   8
LEVEL001
   6
CONTINUOUS
  62
7
  10
 710.000
  20
 223.000
  30
0.0
  40
 56.5000
  50
 356.182
  51
 84.6962
   0
ARC
   8
LEVEL001
   6
CONTINUOUS
  62
7
  10
 710.000
  20
 223.000
  30
0.0
  40
 56.5000
  50
 95.3038
  51
 183.818
   0
LINE
   8
LEVEL001
   6
CONTINUOUS
  62
7
  10
 707.500
  20
 470.500
  30
0.0
  11
 707.500
  21
 256.808
  31
0.0
   0
LINE
   8
LEVEL001
   6
CONTINUOUS
  62
7
  10
 712.500
  20
 470.500
  30
0.0
  11
 712.500
  21
 256.808
  31
0.0
   0
ARC
   8
LEVEL001
   6
CONTINUOUS
  62
7
  10
 732.508
  20
 227.529
  30
0.0
  40
 137.000
  50
 150.016
  51
 188.973
   0
ARC
   8
LEVEL001
   6
CONTINUOUS
  62
7
  10
 732.572
  20
 227.239
  30
0.0
  40
 140.000
  50
 150.261
  51
 188.727
   0
ARC
   8
LEVEL001
   6
CONTINUOUS
  62
7
  10
 732.572
  20
 227.239
  30
0.0
  40
 146.000
  50
 150.261
  51
 188.727
   0
ARC
   8
LEVEL001
   6
CONTINUOUS
  62
7
  10
 732.572
  20
 227.239
  30
0.0
  40
 156.000
  50
 150.261
  51
 188.727
   0
ARC
   8
LEVEL001
   6
CONTINUOUS
  62
7
  10
 610.502
  20
 208.500
  30
0.0
  40
 16.5000
  50
 188.727
  51
 4.39950
   0
ARC
   8
LEVEL001
   6
CONTINUOUS
  62
7
  10
 612.002
  20
 208.500
  30
0.0
  40
 15.0000
  50
 188.972
  51
 4.76496
   0
ARC
   8
LEVEL001
   6
CONTINUOUS
  62
7
  10
 626.837
  20
 288.500
  30
0.0
  40
 15.0000
  50
 349.092
  51
 150.016
   0
ARC
   8
LEVEL001
   6
CONTINUOUS
  62
7
  10
 625.337
  20
 288.500
  30
0.0
  40
 16.5000
  50
 349.907
  51
 150.261
   0
ARC
   8
LEVEL001
   6
CONTINUOUS
  62
7
  10
 630.556
  20
 325.635
  30
0.0
  40
 5.00000
  50
 262.000
  51
 355.721
   0
LINE
   8
LEVEL001
   6
CONTINUOUS
  62
7
  10
 650.000
  20
 518.500
  30
0.0
  11
 635.542
  21
 325.262
  31
0.0
   0
ARC
   8
LEVEL001
   6
CONTINUOUS
  62
7
  10
 625.337
  20
 288.500
  30
0.0
  40
 32.5000
  50
 82.0004
  51
 150.261
   0
ARC
   8
LEVEL001
   6
CONTINUOUS
  62
7
  10
 638.101
  20
 312.858
  30
0.0
  40
 5.00000
  50
 242.345
  51
 357.013
   0
ARC
   8
LEVEL001
   6
CONTINUOUS
  62
7
  10
 625.337
  20
 288.500
  30
0.0
  40
 22.5000
  50
 62.3444
  51
 150.261
   0
LINE
   8
LEVEL001
   6
CONTINUOUS
  62
7
  10
 653.629
  20
 514.472
  30
0.0
  11
 640.395
  21
 260.873
  31
0.0
   0
ARC
   8
LEVEL001
   6
CONTINUOUS
  62
7
  10
 617.000
  20
 166.500
  30
0.0
  40
 10.0000
  50
 0.523062E-5
  51
 98.7953
   0
ARC
   8
LEVEL001
   6
CONTINUOUS
  62
7
  10
 610.502
  20
 208.500
  30
0.0
  40
 32.5000
  50
 188.727
  51
 278.795
   0
ARC
   8
LEVEL001
   6
CONTINUOUS
  62
7
  10
 617.000
  20
 176.656
  30
0.0
  40
 10.0000
  50
0.0
  51
 101.534
   0
ARC
   8
LEVEL001
   6
CONTINUOUS
  62
7
  10
 610.502
  20
 208.500
  30
0.0
  40
 22.5000
  50
 188.727
  51
 281.534
   0
LINE
   8
LEVEL001
   6
CONTINUOUS
  62
7
  10
 627.000
  20
 209.746
  30
0.0
  11
 627.000
  21
 161.500
  31
0.0
   0
LINE
   8
LEVEL001
   6
DASHDOT
  62
1
  10
 710.000
  20
 105.000
  30
0.0
  11
 710.000
  21
 570.000
  31
0.0
   0
TEXT
   8
LEVEL020
  62
6
  10
 420.000
  20
 720.000
  30
0.0
  40
 15.0000
   1
ストローク
   7
STANDARD
   0
TEXT
   8
LEVEL020
  62
6
  10
 420.000
  20
 741.000
  30
0.0
  40
 15.0000
   1
揚　　　力
   7
STANDARD
   0
TEXT
   8
LEVEL020
  62
6
  10
 675.000
  20
 720.000
  30
0.0
  40
 15.0000
   1
ｍｍ
  41
 0.700000
   7
STANDARD
   0
LINE
   8
LEVEL020
   6
CONTINUOUS
  62
6
  10
 420.000
  20
 759.000
  30
0.0
  11
 720.000
  21
 759.000
  31
0.0
   0
LINE
   8
LEVEL020
   6
CONTINUOUS
  62
6
  10
 420.000
  20
 738.000
  30
0.0
  11
 720.000
  21
 738.000
  31
0.0
   0
LINE
   8
LEVEL020
   6
CONTINUOUS
  62
6
  10
 420.000
  20
 717.000
  30
0.0
  11
 720.000
  21
 717.000
  31
0.0
   0
TEXT
   8
LEVEL020
  62
6
  10
 420.000
  20
 762.000
  30
0.0
  40
 15.0000
   1
形　　　式
   7
STANDARD
   0
TEXT
   8
LEVEL020
  62
6
  10
 420.000
  20
 783.000
  30
0.0
  40
 15.0000
   1
仕　　　様
   7
STANDARD
   0
LINE
   8
LEVEL020
   6
CONTINUOUS
  62
6
  10
 420.000
  20
 780.000
  30
0.0
  11
 495.000
  21
 780.000
  31
0.0
   0
TEXT
   8
LEVEL020
  62
6
  10
 420.000
  20
 699.000
  30
0.0
  40
 15.0000
   1
最低高さ
   7
STANDARD
   0
TEXT
   8
LEVEL020
  62
6
  10
 675.000
  20
 699.000
  30
0.0
  40
 15.0000
   1
ｍｍ
  41
 0.700000
   7
STANDARD
   0
LINE
   8
LEVEL020
   6
CONTINUOUS
  62
6
  10
 420.000
  20
 696.000
  30
0.0
  11
 720.000
  21
 696.000
  31
0.0
   0
LINE
   8
LEVEL020
   6
CONTINUOUS
  62
6
  10
 420.000
  20
 675.000
  30
0.0
  11
 720.000
  21
 675.000
  31
0.0
   0
LINE
   8
LEVEL020
   6
CONTINUOUS
  62
6
  10
 420.000
  20
 654.000
  30
0.0
  11
 720.000
  21
 654.000
  31
0.0
   0
TEXT
   8
LEVEL020
  62
6
  10
 420.000
  20
 657.000
  30
0.0
  40
 15.0000
   1
付　属　品
   7
STANDARD
   0
TEXT
   8
LEVEL020
  62
6
  10
 591.000
  20
 657.000
  30
0.0
  40
 15.0000
   1
　　　　　　１
  41
 0.700000
   7
STANDARD
   0
TEXT
   8
LEVEL020
  62
6
  10
 675.000
  20
 657.000
  30
0.0
  40
 15.0000
   1
本
  41
 0.500000
   7
STANDARD
   0
TEXT
   8
LEVEL020
  62
6
  10
 675.000
  20
 678.000
  30
0.0
  40
 15.0000
   1
ｋｇ
  41
 0.700000
   7
STANDARD
   0
TEXT
   8
LEVEL020
  62
6
  10
 505.500
  20
 657.000
  30
0.0
  40
 15.0000
   1
ハンドル棒（%%c３２×８００Ｌ）
  41
 0.600000
   7
STANDARD
   0
TEXT
   8
LEVEL020
  62
6
  10
 591.000
  20
 762.000
  30
0.0
  40
 15.0000
   1
　　　ＪＪ－５０２５
  41
 0.700000
   7
STANDARD
   0
TEXT
   8
LEVEL020
  62
6
  10
 591.000
  20
 720.000
  30
0.0
  40
 15.0000
   1
　　　　２５０
  41
 0.700000
   7
STANDARD
   0
TEXT
   8
LEVEL020
  62
6
  10
 591.000
  20
 699.000
  30
0.0
  40
 15.0000
   1
　　　　４４５
  41
 0.700000
   7
STANDARD
   0
TEXT
   8
LEVEL020
  62
6
  10
 591.000
  20
 678.000
  30
0.0
  40
 15.0000
   1
　　　約　４２
  41
 0.700000
   7
STANDARD
   0
LINE
   8
LEVEL003
   6
CONTINUOUS
  62
3
  10
 197.000
  20
 116.500
  30
0.0
  11
 129.000
  21
 116.500
  31
0.0
   0
LINE
   8
LEVEL003
   6
CONTINUOUS
  62
3
  10
 227.500
  20
 561.500
  30
0.0
  11
 129.000
  21
 561.500
  31
0.0
   0
LINE
   8
LEVEL003
   6
CONTINUOUS
  62
3
  10
 135.000
  20
 116.500
  30
0.0
  11
 135.000
  21
 561.500
  31
0.0
   0
LINE
   8
LEVEL003
   6
CONTINUOUS
  62
3
  10
 136.500
  20
 125.500
  30
0.0
  11
 135.000
  21
 116.500
  31
0.0
   0
LINE
   8
LEVEL003
   6
CONTINUOUS
  62
3
  10
 135.000
  20
 116.500
  30
0.0
  11
 133.500
  21
 125.500
  31
0.0
   0
LINE
   8
LEVEL003
   6
CONTINUOUS
  62
3
  10
 135.000
  20
 116.500
  30
0.0
  11
 135.000
  21
 125.500
  31
0.0
   0
LINE
   8
LEVEL003
   6
CONTINUOUS
  62
3
  10
 133.500
  20
 552.500
  30
0.0
  11
 135.000
  21
 561.500
  31
0.0
   0
LINE
   8
LEVEL003
   6
CONTINUOUS
  62
3
  10
 135.000
  20
 561.500
  30
0.0
  11
 136.500
  21
 552.500
  31
0.0
   0
LINE
   8
LEVEL003
   6
CONTINUOUS
  62
3
  10
 135.000
  20
 561.500
  30
0.0
  11
 135.000
  21
 552.500
  31
0.0
   0
TEXT
   8
LEVEL003
  62
3
  10
 140.600
  20
 330.000
  30
0.0
  40
 12.0000
   1
445
  50
 90.0000
  41
 0.500000
   7
STANDARD
  72
1
  11
 132.600
  21
 339.000
  31
0.0
  73
2
   0
LINE
   8
LEVEL001
   6
CONTINUOUS
  62
3
  10
 227.500
  20
 561.500
  30
0.0
  11
 159.000
  21
 561.500
  31
0.0
   0
LINE
   8
LEVEL001
   6
CONTINUOUS
  62
3
  10
 219.000
  20
 543.500
  30
0.0
  11
 159.000
  21
 543.500
  31
0.0
   0
LINE
   8
LEVEL001
   6
CONTINUOUS
  62
3
  10
 165.000
  20
 561.500
  30
0.0
  11
 165.000
  21
 543.500
  31
0.0
   0
LINE
   8
LEVEL001
   6
CONTINUOUS
  62
3
  10
 163.500
  20
 552.500
  30
0.0
  11
 165.000
  21
 561.500
  31
0.0
   0
LINE
   8
LEVEL001
   6
CONTINUOUS
  62
3
  10
 165.000
  20
 561.500
  30
0.0
  11
 166.500
  21
 552.500
  31
0.0
   0
LINE
   8
LEVEL001
   6
CONTINUOUS
  62
3
  10
 165.000
  20
 561.500
  30
0.0
  11
 165.000
  21
 552.500
  31
0.0
   0
LINE
   8
LEVEL001
   6
CONTINUOUS
  62
3
  10
 166.500
  20
 552.500
  30
0.0
  11
 165.000
  21
 543.500
  31
0.0
   0
LINE
   8
LEVEL001
   6
CONTINUOUS
  62
3
  10
 165.000
  20
 543.500
  30
0.0
  11
 163.500
  21
 552.500
  31
0.0
   0
LINE
   8
LEVEL001
   6
CONTINUOUS
  62
3
  10
 165.000
  20
 543.500
  30
0.0
  11
 165.000
  21
 552.500
  31
0.0
   0
TEXT
   8
LEVEL001
  62
3
  10
 170.146
  20
 545.076
  30
0.0
  40
 12.0000
   1
18
  50
 90.0000
  41
 0.500000
   7
STANDARD
  72
1
  11
 162.146
  21
 551.076
  31
0.0
  73
2
   0
LINE
   8
LEVEL001
   6
DASHDOT
  62
1
  10
 675.000
  20
 556.282
  30
0.0
  11
 675.000
  21
 566.064
  31
0.0
   0
LINE
   8
LEVEL001
   6
DASHDOT
  62
1
  10
 692.500
  20
 556.282
  30
0.0
  11
 692.500
  21
 566.064
  31
0.0
   0
LINE
   8
LEVEL001
   6
DASHDOT
  62
1
  10
 727.500
  20
 556.282
  30
0.0
  11
 727.500
  21
 566.064
  31
0.0
   0
LINE
   8
LEVEL001
   6
DASHDOT
  62
1
  10
 745.000
  20
 556.282
  30
0.0
  11
 745.000
  21
 566.064
  31
0.0
   0
LINE
   8
LEVEL001
   6
DASHDOT
  62
1
  10
 650.000
  20
 121.064
  30
0.0
  11
 650.000
  21
 113.782
  31
0.0
   0
LINE
   8
LEVEL001
   6
DASHDOT
  62
1
  10
 670.000
  20
 121.064
  30
0.0
  11
 670.000
  21
 113.782
  31
0.0
   0
LINE
   8
LEVEL001
   6
DASHDOT
  62
1
  10
 690.000
  20
 120.564
  30
0.0
  11
 690.000
  21
 113.782
  31
0.0
   0
LINE
   8
LEVEL001
   6
DASHDOT
  62
1
  10
 730.000
  20
 121.064
  30
0.0
  11
 730.000
  21
 113.782
  31
0.0
   0
LINE
   8
LEVEL001
   6
DASHDOT
  62
1
  10
 750.000
  20
 121.064
  30
0.0
  11
 750.000
  21
 113.782
  31
0.0
   0
LINE
   8
LEVEL001
   6
DASHDOT
  62
1
  10
 770.000
  20
 121.064
  30
0.0
  11
 770.000
  21
 113.782
  31
0.0
   0
TEXT
   8
LEVEL020
  62
6
  10
 591.000
  20
 741.000
  30
0.0
  40
 15.0000
   1
　　　　５００
  41
 0.700000
   7
STANDARD
   0
TEXT
   8
LEVEL020
  62
6
  10
 675.000
  20
 741.000
  30
0.0
  40
 15.0000
   1
ｋＮ
  41
 0.700000
   7
STANDARD
   0
TEXT
   8
LEVEL020
  62
6
  10
 420.000
  20
 678.000
  30
0.0
  40
 15.0000
   1
質　　　量
   7
STANDARD
   0
ARC
   8
LEVEL001
   6
CONTINUOUS
  62
7
  10
 197.023
  20
 209.951
  30
0.0
  40
 2.00000
  50
 132.572
  51
 239.620
   0
ARC
   8
LEVEL001
   6
CONTINUOUS
  62
7
  10
 192.287
  20
 215.106
  30
0.0
  40
 5.00000
  50
 312.572
  51
 355.368
   0
ARC
   8
LEVEL001
   6
CONTINUOUS
  62
7
  10
 195.000
  20
 206.500
  30
0.0
  40
 2.00000
  50
 0.170987E-10
  51
 59.6202
   0
ARC
   8
LEVEL001
   6
CONTINUOUS
  62
7
  10
 195.000
  20
 172.500
  30
0.0
  40
 2.00000
  50
 300.000
  51
0.0
   0
ARC
   8
LEVEL001
   6
CONTINUOUS
  62
7
  10
 192.000
  20
 164.137
  30
0.0
  40
 5.00000
  50
 0.260551E-11
  51
 44.4153
   0
ARC
   8
LEVEL001
   6
CONTINUOUS
  62
7
  10
 197.000
  20
 169.036
  30
0.0
  40
 2.00000
  50
 120.000
  51
 224.415
   0
LINE
   8
LEVEL001
   6
CONTINUOUS
  62
7
  10
 197.000
  20
 164.137
  30
0.0
  11
 197.000
  21
 161.500
  31
0.0
   0
ARC
   8
LEVEL001
   6
CONTINUOUS
  62
7
  10
 280.000
  20
 208.000
  30
0.0
  40
 83.0000
  50
 152.385
  51
 175.692
   0
LINE
   8
LEVEL001
   6
CONTINUOUS
  62
7
  10
 197.000
  20
 206.500
  30
0.0
  11
 197.000
  21
 172.500
  31
0.0
   0
ARC
   8
LEVEL001
   6
CONTINUOUS
  62
7
  10
 766.302
  20
 403.500
  30
0.0
  40
 2.00000
  50
 2.11330
  51
 90.0000
   0
LINE
   8
LEVEL001
   6
CONTINUOUS
  62
7
  10
 768.301
  20
 403.574
  30
0.0
  11
 770.921
  21
 332.574
  31
0.0
   0
ARC
   8
LEVEL001
   6
CONTINUOUS
  62
7
  10
 768.922
  20
 332.500
  30
0.0
  40
 2.00000
  50
 270.000
  51
 2.11330
   0
ARC
   8
LEVEL001
   6
CONTINUOUS
  62
7
  10
 742.573
  20
 332.500
  30
0.0
  40
 2.00000
  50
 183.152
  51
 270.000
   0
LINE
   8
LEVEL001
   6
CONTINUOUS
  62
7
  10
 736.666
  20
 403.390
  30
0.0
  11
 740.576
  21
 332.390
  31
0.0
   0
ARC
   8
LEVEL001
   6
CONTINUOUS
  62
7
  10
 738.663
  20
 403.500
  30
0.0
  40
 2.00000
  50
 90.0000
  51
 183.152
   0
ARC
   8
LEVEL001
   6
CONTINUOUS
  62
7
  10
 738.200
  20
 408.500
  30
0.0
  40
 3.00000
  50
 182.957
  51
 270.000
   0
LINE
   8
LEVEL001
   6
CONTINUOUS
  62
7
  10
 738.200
  20
 405.500
  30
0.0
  11
 766.302
  21
 405.500
  31
0.0
   0
LINE
   8
LEVEL001
   6
CONTINUOUS
  62
7
  10
 742.383
  20
 330.500
  30
0.0
  11
 768.922
  21
 330.500
  31
0.0
   0
ARC
   8
LEVEL001
   6
CONTINUOUS
  62
7
  10
 742.383
  20
 327.500
  30
0.0
  40
 3.00000
  50
 90.0000
  51
 182.957
   0
LINE
   8
LEVEL001
   6
CONTINUOUS
  62
7
  10
 735.463
  20
 403.328
  30
0.0
  11
 739.131
  21
 332.315
  31
0.0
   0
ARC
   8
LEVEL001
   6
CONTINUOUS
  62
7
  10
 766.302
  20
 408.500
  30
0.0
  40
 3.00000
  50
 182.957
  51
 270.000
   0
ARC
   8
LEVEL001
   6
CONTINUOUS
  62
7
  10
 768.922
  20
 327.500
  30
0.0
  40
 3.00000
  50
 90.0000
  51
 182.957
   0
LINE
   8
LEVEL003
   6
CONTINUOUS
  62
7
  10
 679.693
  20
 192.500
  30
0.0
  11
 677.693
  21
 194.500
  31
0.0
   0
LINE
   8
LEVEL003
   6
CONTINUOUS
  62
7
  10
 677.693
  20
 194.500
  30
0.0
  11
 677.693
  21
 193.500
  31
0.0
   0
LINE
   8
LEVEL003
   6
CONTINUOUS
  62
7
  10
 677.693
  20
 193.500
  30
0.0
  11
 670.693
  21
 193.500
  31
0.0
   0
LINE
   8
LEVEL003
   6
CONTINUOUS
  62
7
  10
 670.693
  20
 193.500
  30
0.0
  11
 670.693
  21
 191.500
  31
0.0
   0
LINE
   8
LEVEL003
   6
CONTINUOUS
  62
7
  10
 670.693
  20
 191.500
  30
0.0
  11
 677.693
  21
 191.500
  31
0.0
   0
LINE
   8
LEVEL003
   6
CONTINUOUS
  62
7
  10
 677.693
  20
 191.500
  30
0.0
  11
 677.693
  21
 190.500
  31
0.0
   0
LINE
   8
LEVEL003
   6
CONTINUOUS
  62
7
  10
 677.693
  20
 190.500
  30
0.0
  11
 679.693
  21
 192.500
  31
0.0
   0
LINE
   8
LEVEL003
   6
CONTINUOUS
  62
7
  10
 728.420
  20
 192.500
  30
0.0
  11
 730.420
  21
 194.500
  31
0.0
   0
LINE
   8
LEVEL003
   6
CONTINUOUS
  62
7
  10
 730.420
  20
 194.500
  30
0.0
  11
 730.420
  21
 193.500
  31
0.0
   0
LINE
   8
LEVEL003
   6
CONTINUOUS
  62
7
  10
 730.420
  20
 193.500
  30
0.0
  11
 737.420
  21
 193.500
  31
0.0
   0
LINE
   8
LEVEL003
   6
CONTINUOUS
  62
7
  10
 737.420
  20
 193.500
  30
0.0
  11
 737.420
  21
 191.500
  31
0.0
   0
LINE
   8
LEVEL003
   6
CONTINUOUS
  62
7
  10
 737.420
  20
 191.500
  30
0.0
  11
 730.420
  21
 191.500
  31
0.0
   0
LINE
   8
LEVEL003
   6
CONTINUOUS
  62
7
  10
 730.420
  20
 191.500
  30
0.0
  11
 730.420
  21
 190.500
  31
0.0
   0
LINE
   8
LEVEL003
   6
CONTINUOUS
  62
7
  10
 730.420
  20
 190.500
  30
0.0
  11
 728.420
  21
 192.500
  31
0.0
   0
TEXT
   8
LEVEL003
  62
7
  10
 768.788
  20
 196.702
  30
0.0
  40
 8.10000
   1
ＤＯＷＮ
  50
 180.000
  41
 0.851852
   7
STANDARD
   0
TEXT
   8
LEVEL003
  62
7
  10
 667.036
  20
 196.702
  30
0.0
  40
 8.10000
   1
ＵＰ
  50
 180.000
  41
 0.851852
   7
STANDARD
   0
ARC
   8
LEVEL003
   6
CONTINUOUS
  62
7
  10
 699.000
  20
 172.000
  30
0.0
  40
 3.00000
  50
 180.000
  51
 270.000
   0
ARC
   8
LEVEL003
   6
CONTINUOUS
  62
7
  10
 694.000
  20
 182.200
  30
0.0
  40
 2.00000
  50
 0.814222E-11
  51
 90.0000
   0
LINE
   8
LEVEL003
   6
CONTINUOUS
  62
7
  10
 699.000
  20
 169.000
  30
0.0
  11
 721.000
  21
 169.000
  31
0.0
   0
ARC
   8
LEVEL003
   6
CONTINUOUS
  62
7
  10
 721.000
  20
 172.000
  30
0.0
  40
 3.00000
  50
 270.000
  51
 0.206270E-10
   0
ARC
   8
LEVEL003
   6
CONTINUOUS
  62
7
  10
 726.000
  20
 182.200
  30
0.0
  40
 2.00000
  50
 90.0000
  51
 180.000
   0
LINE
   8
LEVEL003
   6
CONTINUOUS
  62
7
  10
 724.000
  20
 172.000
  30
0.0
  11
 724.000
  21
 182.200
  31
0.0
   0
LINE
   8
LEVEL003
   6
CONTINUOUS
  62
7
  10
 696.000
  20
 172.000
  30
0.0
  11
 696.000
  21
 182.200
  31
0.0
   0
CIRCLE
   8
0
   6
CONTINUOUS
  62
7
  10
 712.523
  20
 175.040
  30
0.0
  40
 3.33333
   0
LINE
   8
0
   6
CONTINUOUS
  62
7
  10
 705.980
  20
 171.706
  30
0.0
  11
 710.214
  21
 179.040
  31
0.0
   0
LINE
   8
0
   6
CONTINUOUS
  62
7
  10
 710.214
  20
 179.040
  30
0.0
  11
 718.682
  21
 179.040
  31
0.0
   0
LINE
   8
0
   6
CONTINUOUS
  62
7
  10
 718.682
  20
 179.040
  30
0.0
  11
 719.644
  21
 180.706
  31
0.0
   0
LINE
   8
0
   6
CONTINUOUS
  62
7
  10
 719.644
  20
 180.706
  30
0.0
  11
 704.510
  21
 180.706
  31
0.0
   0
LINE
   8
0
   6
CONTINUOUS
  62
7
  10
 704.510
  20
 180.706
  30
0.0
  11
 699.313
  21
 171.706
  31
0.0
   0
LINE
   8
0
   6
CONTINUOUS
  62
7
  10
 699.313
  20
 171.706
  30
0.0
  11
 705.980
  21
 171.706
  31
0.0
   0
ARC
   8
LEVEL001
   6
CONTINUOUS
  62
7
  10
 682.000
  20
 184.966
  30
0.0
  40
 3.00000
  50
0.0
  51
 90.0000
   0
ARC
   8
LEVEL001
   6
CONTINUOUS
  62
7
  10
 738.000
  20
 184.966
  30
0.0
  40
 3.00000
  50
 90.0000
  51
 180.000
   0
LINE
   8
LEVEL001
   6
CONTINUOUS
  62
7
  10
 685.000
  20
 184.966
  30
0.0
  11
 685.000
  21
 137.880
  31
0.0
   0
LINE
   8
LEVEL001
   6
CONTINUOUS
  62
7
  10
 735.000
  20
 184.966
  30
0.0
  11
 735.000
  21
 137.880
  31
0.0
   0
TEXT
   8
LEVEL050
  62
3
  10
 1023.75
  20
 159.000
  30
0.0
  40
 9.45000
   1
ファイル名．Ｏ４ＪＪ５０２５Ｇ
   7
STANDARD
   0
TEXT
   8
LEVEL050
  62
2
  10
 977.250
  20
 40.5000
  30
0.0
  40
 15.0000
   1
　　　Ｏ　　　　４－３８１１Ｇ
  41
 0.700000
   7
STANDARD
   0
TEXT
   8
LEVEL050
  62
2
  10
 214.950
  20
 858.300
  30
0.0
  40
 15.0000
   1
　　　Ｏ　　４－３８１１Ｇ
  50
 180.000
  41
 0.700000
   7
STANDARD
   0
LINE
   8
LEVEL001
   6
CONTINUOUS
  62
7
  10
 222.000
  20
 543.500
  30
0.0
  11
 338.000
  21
 543.500
  31
0.0
   0
LINE
   8
LEVEL001
   6
CONTINUOUS
  62
7
  10
 409.000
  20
 196.000
  30
0.0
  11
 409.000
  21
 250.000
  31
0.0
   0
LINE
   8
LEVEL001
   6
CONTINUOUS
  62
7
  10
 188.500
  20
 130.500
  30
0.0
  11
 371.500
  21
 130.500
  31
0.0
   0
LINE
   8
LEVEL001
   6
CONTINUOUS
  62
7
  10
 407.003
  20
 225.500
  30
0.0
  11
 363.000
  21
 225.500
  31
0.0
   0
ARC
   8
LEVEL001
   6
CONTINUOUS
  62
7
  10
 363.000
  20
 228.500
  30
0.0
  40
 3.00000
  50
 180.000
  51
 270.000
   0
LINE
   8
LEVEL001
   6
CONTINUOUS
  62
7
  10
 407.003
  20
 220.500
  30
0.0
  11
 363.000
  21
 220.500
  31
0.0
   0
ARC
   8
LEVEL001
   6
CONTINUOUS
  62
7
  10
 363.000
  20
 217.500
  30
0.0
  40
 3.00000
  50
 90.0000
  51
 180.000
   0
LINE
   8
LEVEL001
   6
DASHDOT
  62
1
  10
 404.626
  20
 192.500
  30
0.0
  11
 474.626
  21
 192.500
  31
0.0
   0
ARC
   8
LEVEL001
   6
CONTINUOUS
  62
7
  10
 459.500
  20
 198.500
  30
0.0
  40
 1.00000
  50
 90.0009
  51
 180.002
   0
ARC
   8
LEVEL001
   6
CONTINUOUS
  62
7
  10
 459.500
  20
 125.000
  30
0.0
  40
 2.00000
  50
 270.000
  51
0.0
   0
ARC
   8
LEVEL001
   6
CONTINUOUS
  62
7
  10
 460.500
  20
 132.000
  30
0.0
  40
 1.00000
  50
 359.998
  51
 89.9991
   0
ARC
   8
LEVEL001
   6
CONTINUOUS
  62
7
  10
 460.000
  20
 134.000
  30
0.0
  40
 1.00000
  50
 180.001
  51
 269.999
   0
LINE
   8
LEVEL001
   6
CONTINUOUS
  62
7
  10
 460.000
  20
 133.000
  30
0.0
  11
 460.500
  21
 133.000
  31
0.0
   0
LINE
   8
LEVEL001
   6
DASHDOT
  62
1
  10
 447.126
  20
 143.000
  30
0.0
  11
 492.126
  21
 143.000
  31
0.0
   0
ARC
   8
LEVEL001
   6
CONTINUOUS
  62
7
  10
 449.000
  20
 189.377
  30
0.0
  40
 10.0000
  50
0.0
  51
 18.1960
   0
LINE
   8
LEVEL001
   6
CONTINUOUS
  62
7
  10
 409.500
  20
 197.500
  30
0.0
  11
 409.500
  21
 192.500
  31
0.0
   0
ARC
   8
LEVEL001
   6
CONTINUOUS
  62
7
  10
 419.000
  20
 189.377
  30
0.0
  40
 10.0000
  50
 161.804
  51
 180.000
   0
ARC
   8
LEVEL001
   6
CONTINUOUS
  62
7
  10
 465.500
  20
 237.000
  30
0.0
  40
 1.00000
  50
 359.998
  51
 89.9991
   0
LINE
   8
LEVEL001
   6
CONTINUOUS
  62
7
  10
 466.500
  20
 237.000
  30
0.0
  11
 466.500
  21
 223.000
  31
0.0
   0
LINE
   8
LEVEL001
   6
CONTINUOUS
  62
7
  10
 464.150
  20
 238.000
  30
0.0
  11
 465.500
  21
 238.000
  31
0.0
   0
LINE
   8
LEVEL001
   6
CONTINUOUS
  62
7
  10
 462.500
  20
 245.500
  30
0.0
  11
 460.500
  21
 245.500
  31
0.0
   0
LINE
   8
LEVEL001
   6
CONTINUOUS
  62
7
  10
 462.500
  20
 200.500
  30
0.0
  11
 462.500
  21
 245.500
  31
0.0
   0
ARC
   8
LEVEL001
   6
CONTINUOUS
  62
7
  10
 459.500
  20
 247.500
  30
0.0
  40
 1.00000
  50
 180.001
  51
 269.999
   0
LINE
   8
LEVEL001
   6
CONTINUOUS
  62
7
  10
 410.250
  20
 256.900
  30
0.0
  11
 457.750
  21
 256.900
  31
0.0
   0
LINE
   8
LEVEL001
   6
CONTINUOUS
  62
7
  10
 464.150
  20
 223.000
  30
0.0
  11
 464.150
  21
 242.100
  31
0.0
   0
LINE
   8
LEVEL003
   6
CONTINUOUS
  62
7
  10
 462.500
  20
 242.100
  30
0.0
  11
 464.150
  21
 242.100
  31
0.0
   0
ARC
   8
LEVEL001
   6
CONTINUOUS
  62
7
  10
 465.500
  20
 209.000
  30
0.0
  40
 1.00000
  50
 270.001
  51
 359.997
   0
LINE
   8
LEVEL001
   6
CONTINUOUS
  62
7
  10
 466.500
  20
 209.000
  30
0.0
  11
 466.500
  21
 223.000
  31
0.0
   0
LINE
   8
LEVEL001
   6
CONTINUOUS
  62
7
  10
 464.150
  20
 208.000
  30
0.0
  11
 465.500
  21
 208.000
  31
0.0
   0
LINE
   8
LEVEL001
   6
CONTINUOUS
  62
7
  10
 462.500
  20
 223.000
  30
0.0
  11
 462.500
  21
 200.500
  31
0.0
   0
LINE
   8
LEVEL001
   6
CONTINUOUS
  62
7
  10
 462.500
  20
 200.500
  30
0.0
  11
 460.500
  21
 200.500
  31
0.0
   0
LINE
   8
LEVEL001
   6
CONTINUOUS
  62
7
  10
 464.150
  20
 223.000
  30
0.0
  11
 464.150
  21
 205.200
  31
0.0
   0
LINE
   8
LEVEL003
   6
CONTINUOUS
  62
7
  10
 462.500
  20
 205.200
  30
0.0
  11
 464.150
  21
 205.200
  31
0.0
   0
LINE
   8
LEVEL001
   6
DASHDOT
  62
1
  10
 434.000
  20
 255.000
  30
0.0
  11
 434.000
  21
 120.000
  31
0.0
   0
LINE
   8
LEVEL001
   6
CONTINUOUS
  62
7
  10
 409.000
  20
 241.000
  30
0.0
  11
 409.500
  21
 241.000
  31
0.0
   0
LINE
   8
LEVEL001
   6
CONTINUOUS
  62
7
  10
 409.000
  20
 205.000
  30
0.0
  11
 409.500
  21
 205.000
  31
0.0
   0
LINE
   8
LEVEL001
   6
CONTINUOUS
  62
7
  10
 409.500
  20
 197.500
  30
0.0
  11
 409.500
  21
 255.500
  31
0.0
   0
LINE
   8
LEVEL001
   6
CONTINUOUS
  62
7
  10
 459.500
  20
 246.500
  30
0.0
  11
 459.500
  21
 199.500
  31
0.0
   0
LINE
   8
LEVEL001
   6
CONTINUOUS
  62
7
  10
 460.500
  20
 245.500
  30
0.0
  11
 460.500
  21
 200.500
  31
0.0
   0
LINE
   8
LEVEL001
   6
CONTINUOUS
  62
7
  10
 459.500
  20
 208.000
  30
0.0
  11
 460.500
  21
 208.000
  31
0.0
   0
LINE
   8
LEVEL001
   6
CONTINUOUS
  62
7
  10
 459.500
  20
 238.000
  30
0.0
  11
 460.500
  21
 238.000
  31
0.0
   0
ARC
   8
LEVEL001
   6
DOT
  62
3
  10
 448.000
  20
 168.750
  30
0.0
  40
 2.50000
  50
0.0
  51
 89.9996
   0
LINE
   8
LEVEL001
   6
DOT
  62
3
  10
 448.000
  20
 171.250
  30
0.0
  11
 434.000
  21
 171.250
  31
0.0
   0
ARC
   8
LEVEL001
   6
DOT
  62
3
  10
 453.000
  20
 125.500
  30
0.0
  40
 2.50000
  50
 179.999
  51
 270.000
   0
LINE
   8
LEVEL001
   6
DOT
  62
3
  10
 450.500
  20
 125.500
  30
0.0
  11
 450.500
  21
 168.750
  31
0.0
   0
ARC
   8
LEVEL001
   6
DOT
  62
3
  10
 420.000
  20
 168.750
  30
0.0
  40
 2.50000
  50
 90.0004
  51
 180.001
   0
LINE
   8
LEVEL001
   6
DOT
  62
3
  10
 420.000
  20
 171.250
  30
0.0
  11
 434.000
  21
 171.250
  31
0.0
   0
ARC
   8
LEVEL001
   6
DOT
  62
3
  10
 415.000
  20
 125.500
  30
0.0
  40
 2.50000
  50
 270.000
  51
 0.696680E-3
   0
LINE
   8
LEVEL001
   6
DOT
  62
3
  10
 417.500
  20
 125.500
  30
0.0
  11
 417.500
  21
 168.750
  31
0.0
   0
LINE
   8
LEVEL001
   6
CONTINUOUS
  62
7
  10
 458.500
  20
 192.500
  30
0.0
  11
 458.500
  21
 255.500
  31
0.0
   0
LINE
   8
LEVEL001
   6
CONTINUOUS
  62
7
  10
 409.500
  20
 255.500
  30
0.0
  11
 410.250
  21
 255.500
  31
0.0
   0
LINE
   8
LEVEL001
   6
CONTINUOUS
  62
7
  10
 457.750
  20
 255.500
  30
0.0
  11
 458.500
  21
 255.500
  31
0.0
   0
ARC
   8
LEVEL001
   6
CONTINUOUS
  62
7
  10
 435.117
  20
 219.482
  30
0.0
  40
 3.40000
  50
 5.75579
  51
 56.0536
   0
ARC
   8
LEVEL001
   6
CONTINUOUS
  62
7
  10
 434.000
  20
 217.823
  30
0.0
  40
 5.40000
  50
 56.0539
  51
 90.0013
   0
ARC
   8
LEVEL001
   6
CONTINUOUS
  62
7
  10
 432.883
  20
 219.482
  30
0.0
  40
 3.40000
  50
 123.947
  51
 174.246
   0
ARC
   8
LEVEL001
   6
CONTINUOUS
  62
7
  10
 434.000
  20
 217.823
  30
0.0
  40
 5.40000
  50
 90.0000
  51
 123.947
   0
LINE
   8
LEVEL001
   6
CONTINUOUS
  62
7
  10
 429.500
  20
 219.823
  30
0.0
  11
 438.500
  21
 219.823
  31
0.0
   0
LINE
   8
LEVEL001
   6
CONTINUOUS
  62
7
  10
 457.750
  20
 256.900
  30
0.0
  11
 457.750
  21
 217.649
  31
0.0
   0
LINE
   8
LEVEL001
   6
CONTINUOUS
  62
7
  10
 410.250
  20
 256.900
  30
0.0
  11
 410.250
  21
 217.649
  31
0.0
   0
LINE
   8
LEVEL001
   6
CONTINUOUS
  62
7
  10
 410.250
  20
 217.649
  30
0.0
  11
 457.750
  21
 217.649
  31
0.0
   0
LINE
   8
LEVEL001
   6
CONTINUOUS
  62
7
  10
 457.750
  20
 219.043
  30
0.0
  11
 410.250
  21
 219.043
  31
0.0
   0
CIRCLE
   8
LEVEL001
   6
CONTINUOUS
  62
7
  10
 434.000
  20
 192.500
  30
0.0
  40
 17.2500
   0
ARC
   8
LEVEL001
   6
CONTINUOUS
  62
7
  10
 434.000
  20
 192.500
  30
0.0
  40
 24.5000
  50
 180.000
  51
0.0
   0
LINE
   8
LEVEL001
   6
CONTINUOUS
  62
7
  10
 417.500
  20
 123.000
  30
0.0
  11
 408.500
  21
 123.000
  31
0.0
   0
LINE
   8
LEVEL001
   6
CONTINUOUS
  62
7
  10
 450.500
  20
 123.000
  30
0.0
  11
 459.500
  21
 123.000
  31
0.0
   0
ARC
   8
LEVEL001
   6
CONTINUOUS
  62
7
  10
 434.000
  20
 27.3408
  30
0.0
  40
 97.0718
  50
 80.2134
  51
 99.7866
   0
ARC
   8
LEVEL001
   6
CONTINUOUS
  62
7
  10
 434.000
  20
-28.1553
  30
0.0
  40
 155.011
  50
 80.5471
  51
 99.4529
   0
ARC
   8
LEVEL001
   6
CONTINUOUS
  62
7
  10
 434.000
  20
-19.7810
  30
0.0
  40
 155.011
  50
 80.5471
  51
 99.4529
   0
ARC
   8
LEVEL001
   6
CONTINUOUS
  62
7
  10
 470.502
  20
 152.165
  30
0.0
  40
 5.00000
  50
 240.154
  51
 265.781
   0
LINE
   8
LEVEL001
   6
CONTINUOUS
  62
7
  10
 470.134
  20
 147.179
  30
0.0
  11
 486.221
  21
 145.992
  31
0.0
   0
ARC
   8
LEVEL001
   6
CONTINUOUS
  62
7
  10
 470.502
  20
 133.835
  30
0.0
  40
 5.00000
  50
 94.2191
  51
 119.846
   0
LINE
   8
LEVEL001
   6
CONTINUOUS
  62
7
  10
 470.134
  20
 138.821
  30
0.0
  11
 486.221
  21
 140.008
  31
0.0
   0
LINE
   8
LEVEL001
   6
CONTINUOUS
  62
7
  10
 459.000
  20
 189.377
  30
0.0
  11
 459.000
  21
 155.896
  31
0.0
   0
ARC
   8
LEVEL001
   6
CONTINUOUS
  62
7
  10
 464.000
  20
 155.896
  30
0.0
  40
 5.00000
  50
 180.000
  51
 240.154
   0
LINE
   8
LEVEL001
   6
CONTINUOUS
  62
7
  10
 461.512
  20
 151.559
  30
0.0
  11
 468.014
  21
 147.828
  31
0.0
   0
LINE
   8
LEVEL001
   6
CONTINUOUS
  62
7
  10
 461.500
  20
 131.539
  30
0.0
  11
 461.500
  21
 125.000
  31
0.0
   0
ARC
   8
LEVEL001
   6
CONTINUOUS
  62
7
  10
 466.500
  20
 131.539
  30
0.0
  40
 5.00000
  50
 119.846
  51
 180.000
   0
LINE
   8
LEVEL001
   6
CONTINUOUS
  62
7
  10
 464.012
  20
 135.875
  30
0.0
  11
 468.014
  21
 138.172
  31
0.0
   0
LINE
   8
LEVEL001
   6
CONTINUOUS
  62
7
  10
 469.000
  20
 146.144
  30
0.0
  11
 469.000
  21
 139.797
  31
0.0
   0
ARC
   8
LEVEL001
   6
CONTINUOUS
  62
7
  10
 483.142
  20
 143.000
  30
0.0
  40
 26.1313
  50
 157.500
  51
 196.956
   0
ARC
   8
LEVEL001
   6
CONTINUOUS
  62
7
  10
 408.500
  20
 125.000
  30
0.0
  40
 2.00000
  50
 180.001
  51
 270.000
   0
ARC
   8
LEVEL001
   6
CONTINUOUS
  62
7
  10
 407.500
  20
 132.000
  30
0.0
  40
 1.00000
  50
 90.0009
  51
 180.002
   0
LINE
   8
LEVEL001
   6
CONTINUOUS
  62
7
  10
 406.500
  20
 132.000
  30
0.0
  11
 406.500
  21
 125.000
  31
0.0
   0
ARC
   8
LEVEL001
   6
CONTINUOUS
  62
7
  10
 408.000
  20
 134.000
  30
0.0
  40
 1.00000
  50
 270.001
  51
 0.296377E-9
   0
LINE
   8
LEVEL001
   6
CONTINUOUS
  62
7
  10
 408.000
  20
 133.000
  30
0.0
  11
 407.500
  21
 133.000
  31
0.0
   0
LINE
   8
LEVEL001
   6
CONTINUOUS
  62
7
  10
 409.000
  20
 189.377
  30
0.0
  11
 409.000
  21
 134.000
  31
0.0
   0
ARC
   8
LEVEL001
   6
CONTINUOUS
  62
7
  10
 486.000
  20
 143.000
  30
0.0
  40
 3.00000
  50
 274.224
  51
 85.7766
   0
LINE
   8
LEVEL001
   6
CONTINUOUS
  62
7
  10
 407.003
  20
 252.109
  30
0.0
  11
 407.003
  21
 193.891
  31
0.0
   0
POLYLINE
   8
LEVEL001
   6
CONTINUOUS
  62
7
  66
1
  10
0.0
  20
0.0
  30
0.0
  70
0
   0
VERTEX
   8
LEVEL001
   6
CONTINUOUS
  62
7
  10
 195.993
  20
 170.891
  30
0.0
   0
VERTEX
   8
LEVEL001
   6
CONTINUOUS
  62
7
  10
 197.072
  20
 171.300
  30
0.0
   0
VERTEX
   8
LEVEL001
   6
CONTINUOUS
  62
7
  10
 198.118
  20
 171.994
  30
0.0
   0
VERTEX
   8
LEVEL001
   6
CONTINUOUS
  62
7
  10
 199.116
  20
 172.961
  30
0.0
   0
VERTEX
   8
LEVEL001
   6
CONTINUOUS
  62
7
  10
 200.049
  20
 174.186
  30
0.0
   0
VERTEX
   8
LEVEL001
   6
CONTINUOUS
  62
7
  10
 200.904
  20
 175.650
  30
0.0
   0
VERTEX
   8
LEVEL001
   6
CONTINUOUS
  62
7
  10
 201.666
  20
 177.330
  30
0.0
   0
VERTEX
   8
LEVEL001
   6
CONTINUOUS
  62
7
  10
 202.325
  20
 179.200
  30
0.0
   0
VERTEX
   8
LEVEL001
   6
CONTINUOUS
  62
7
  10
 202.869
  20
 181.231
  30
0.0
   0
VERTEX
   8
LEVEL001
   6
CONTINUOUS
  62
7
  10
 203.290
  20
 183.390
  30
0.0
   0
VERTEX
   8
LEVEL001
   6
CONTINUOUS
  62
7
  10
 203.582
  20
 185.646
  30
0.0
   0
VERTEX
   8
LEVEL001
   6
CONTINUOUS
  62
7
  10
 203.740
  20
 187.961
  30
0.0
   0
VERTEX
   8
LEVEL001
   6
CONTINUOUS
  62
7
  10
 203.762
  20
 190.300
  30
0.0
   0
VERTEX
   8
LEVEL001
   6
CONTINUOUS
  62
7
  10
 203.647
  20
 192.627
  30
0.0
   0
VERTEX
   8
LEVEL001
   6
CONTINUOUS
  62
7
  10
 203.397
  20
 194.905
  30
0.0
   0
VERTEX
   8
LEVEL001
   6
CONTINUOUS
  62
7
  10
 203.016
  20
 197.098
  30
0.0
   0
VERTEX
   8
LEVEL001
   6
CONTINUOUS
  62
7
  10
 202.510
  20
 199.174
  30
0.0
   0
VERTEX
   8
LEVEL001
   6
CONTINUOUS
  62
7
  10
 201.886
  20
 201.098
  30
0.0
   0
VERTEX
   8
LEVEL001
   6
CONTINUOUS
  62
7
  10
 201.156
  20
 202.841
  30
0.0
   0
VERTEX
   8
LEVEL001
   6
CONTINUOUS
  62
7
  10
 200.329
  20
 204.376
  30
0.0
   0
VERTEX
   8
LEVEL001
   6
CONTINUOUS
  62
7
  10
 199.419
  20
 205.679
  30
0.0
   0
VERTEX
   8
LEVEL001
   6
CONTINUOUS
  62
7
  10
 198.440
  20
 206.729
  30
0.0
   0
VERTEX
   8
LEVEL001
   6
CONTINUOUS
  62
7
  10
 197.407
  20
 207.511
  30
0.0
   0
VERTEX
   8
LEVEL001
   6
CONTINUOUS
  62
7
  10
 196.337
  20
 208.011
  30
0.0
   0
VERTEX
   8
LEVEL001
   6
CONTINUOUS
  62
7
  10
 196.294
  20
 208.025
  30
0.0
   0
SEQEND
   0
POLYLINE
   8
LEVEL001
   6
CONTINUOUS
  62
7
  66
1
  10
0.0
  20
0.0
  30
0.0
  70
0
   0
VERTEX
   8
LEVEL001
   6
CONTINUOUS
  62
7
  10
 198.552
  20
 167.589
  30
0.0
   0
VERTEX
   8
LEVEL001
   6
CONTINUOUS
  62
7
  10
 200.055
  20
 168.550
  30
0.0
   0
VERTEX
   8
LEVEL001
   6
CONTINUOUS
  62
7
  10
 201.479
  20
 169.838
  30
0.0
   0
VERTEX
   8
LEVEL001
   6
CONTINUOUS
  62
7
  10
 202.801
  20
 171.433
  30
0.0
   0
VERTEX
   8
LEVEL001
   6
CONTINUOUS
  62
7
  10
 204.003
  20
 173.310
  30
0.0
   0
VERTEX
   8
LEVEL001
   6
CONTINUOUS
  62
7
  10
 205.063
  20
 175.440
  30
0.0
   0
VERTEX
   8
LEVEL001
   6
CONTINUOUS
  62
7
  10
 205.967
  20
 177.789
  30
0.0
   0
VERTEX
   8
LEVEL001
   6
CONTINUOUS
  62
7
  10
 206.699
  20
 180.320
  30
0.0
   0
VERTEX
   8
LEVEL001
   6
CONTINUOUS
  62
7
  10
 207.249
  20
 182.995
  30
0.0
   0
VERTEX
   8
LEVEL001
   6
CONTINUOUS
  62
7
  10
 207.608
  20
 185.772
  30
0.0
   0
VERTEX
   8
LEVEL001
   6
CONTINUOUS
  62
7
  10
 207.770
  20
 188.606
  30
0.0
   0
VERTEX
   8
LEVEL001
   6
CONTINUOUS
  62
7
  10
 207.733
  20
 191.455
  30
0.0
   0
VERTEX
   8
LEVEL001
   6
CONTINUOUS
  62
7
  10
 207.497
  20
 194.273
  30
0.0
   0
VERTEX
   8
LEVEL001
   6
CONTINUOUS
  62
7
  10
 207.066
  20
 197.017
  30
0.0
   0
VERTEX
   8
LEVEL001
   6
CONTINUOUS
  62
7
  10
 206.447
  20
 199.643
  30
0.0
   0
VERTEX
   8
LEVEL001
   6
CONTINUOUS
  62
7
  10
 205.649
  20
 202.111
  30
0.0
   0
VERTEX
   8
LEVEL001
   6
CONTINUOUS
  62
7
  10
 204.685
  20
 204.382
  30
0.0
   0
VERTEX
   8
LEVEL001
   6
CONTINUOUS
  62
7
  10
 203.570
  20
 206.421
  30
0.0
   0
VERTEX
   8
LEVEL001
   6
CONTINUOUS
  62
7
  10
 202.321
  20
 208.196
  30
0.0
   0
VERTEX
   8
LEVEL001
   6
CONTINUOUS
  62
7
  10
 200.958
  20
 209.680
  30
0.0
   0
VERTEX
   8
LEVEL001
   6
CONTINUOUS
  62
7
  10
 199.502
  20
 210.848
  30
0.0
   0
VERTEX
   8
LEVEL001
   6
CONTINUOUS
  62
7
  10
 198.575
  20
 211.399
  30
0.0
   0
SEQEND
   0
LINE
   8
LEVEL001
   6
CONTINUOUS
  62
7
  10
 280.000
  20
 161.500
  30
0.0
  11
 195.500
  21
 161.500
  31
0.0
   0
LINE
   8
LEVEL001
   6
CONTINUOUS
  62
7
  10
 280.000
  20
 161.500
  30
0.0
  11
 364.500
  21
 161.500
  31
0.0
   0
LINE
   8
LEVEL001
   6
CONTINUOUS
  62
7
  10
 201.005
  20
 147.500
  30
0.0
  11
 201.005
  21
 130.500
  31
0.0
   0
LINE
   8
LEVEL001
   6
CONTINUOUS
  62
7
  10
 358.995
  20
 147.500
  30
0.0
  11
 358.995
  21
 130.500
  31
0.0
   0
LINE
   8
LEVEL001
   6
CONTINUOUS
  62
7
  10
 250.000
  20
 147.500
  30
0.0
  11
 201.005
  21
 147.500
  31
0.0
   0
LINE
   8
LEVEL001
   6
CONTINUOUS
  62
7
  10
 250.000
  20
 130.500
  30
0.0
  11
 250.000
  21
 147.500
  31
0.0
   0
LINE
   8
LEVEL001
   6
CONTINUOUS
  62
7
  10
 310.000
  20
 130.500
  30
0.0
  11
 310.000
  21
 147.500
  31
0.0
   0
LINE
   8
LEVEL001
   6
CONTINUOUS
  62
7
  10
 310.000
  20
 147.500
  30
0.0
  11
 358.995
  21
 147.500
  31
0.0
   0
LINE
   8
LEVEL001
   6
CONTINUOUS
  62
7
  10
 358.995
  20
 145.500
  30
0.0
  11
 371.500
  21
 145.500
  31
0.0
   0
LINE
   8
LEVEL001
   6
CONTINUOUS
  62
7
  10
 310.000
  20
 145.500
  30
0.0
  11
 250.000
  21
 145.500
  31
0.0
   0
LINE
   8
LEVEL001
   6
CONTINUOUS
  62
7
  10
 201.005
  20
 145.500
  30
0.0
  11
 188.500
  21
 145.500
  31
0.0
   0
LINE
   8
LEVEL001
   6
CONTINUOUS
  62
7
  10
 223.629
  20
 518.500
  30
0.0
  11
 336.544
  21
 518.500
  31
0.0
   0
LINE
   8
LEVEL001
   6
CONTINUOUS
  62
7
  10
 336.544
  20
 521.259
  30
0.0
  11
 336.544
  21
 541.500
  31
0.0
   0
LINE
   8
LEVEL001
   6
CONTINUOUS
  62
7
  10
 336.303
  20
 515.767
  30
0.0
  11
 348.062
  21
 290.429
  31
0.0
   0
ARC
   8
LEVEL001
   6
CONTINUOUS
  62
7
  10
 285.500
  20
 515.500
  30
0.0
  40
 3.00000
  50
 90.0000
  51
 180.000
   0
ARC
   8
LEVEL001
   6
CONTINUOUS
  62
7
  10
 274.500
  20
 515.500
  30
0.0
  40
 3.00000
  50
0.0
  51
 90.0000
   0
ARC
   8
LEVEL001
   6
CONTINUOUS
  62
7
  10
 272.000
  20
 308.000
  30
0.0
  40
 3.00000
  50
 95.9865
  51
 180.000
   0
ARC
   8
LEVEL001
   6
CONTINUOUS
  62
7
  10
 288.000
  20
 308.000
  30
0.0
  40
 3.00000
  50
0.0
  51
 84.0135
   0
LINE
   8
LEVEL001
   6
CONTINUOUS
  62
7
  10
 277.500
  20
 515.500
  30
0.0
  11
 277.500
  21
 319.658
  31
0.0
   0
LINE
   8
LEVEL001
   6
CONTINUOUS
  62
7
  10
 282.500
  20
 515.500
  30
0.0
  11
 282.500
  21
 319.658
  31
0.0
   0
ARC
   8
LEVEL001
   6
CONTINUOUS
  62
7
  10
 271.061
  20
 316.951
  30
0.0
  40
 6.00000
  50
 275.987
  51
 351.799
   0
ARC
   8
LEVEL001
   6
CONTINUOUS
  62
7
  10
 288.939
  20
 316.951
  30
0.0
  40
 6.00000
  50
 188.201
  51
 264.013
   0
ARC
   8
LEVEL001
   6
CONTINUOUS
  62
7
  10
 280.000
  20
 318.000
  30
0.0
  40
 3.00000
  50
0.0
  51
 180.000
   0
ARC
   8
LEVEL001
   6
CONTINUOUS
  62
7
  10
 264.000
  20
 307.598
  30
0.0
  40
 5.00000
  50
0.0
  51
 90.0000
   0
ARC
   8
LEVEL001
   6
CONTINUOUS
  62
7
  10
 296.000
  20
 307.598
  30
0.0
  40
 5.00000
  50
 90.0000
  51
 180.000
   0
ARC
   8
LEVEL001
   6
CONTINUOUS
  62
7
  10
 272.000
  20
 189.000
  30
0.0
  40
 3.00000
  50
 180.000
  51
 264.013
   0
ARC
   8
LEVEL001
   6
CONTINUOUS
  62
7
  10
 271.061
  20
 180.049
  30
0.0
  40
 6.00000
  50
 8.20056
  51
 84.0135
   0
ARC
   8
LEVEL001
   6
CONTINUOUS
  62
7
  10
 280.000
  20
 179.000
  30
0.0
  40
 3.00000
  50
 180.000
  51
0.0
   0
ARC
   8
LEVEL001
   6
CONTINUOUS
  62
7
  10
 288.000
  20
 189.000
  30
0.0
  40
 3.00000
  50
 275.987
  51
 0.303976E-10
   0
ARC
   8
LEVEL001
   6
CONTINUOUS
  62
7
  10
 288.939
  20
 180.049
  30
0.0
  40
 6.00000
  50
 95.9865
  51
 171.799
   0
ARC
   8
LEVEL001
   6
CONTINUOUS
  62
7
  10
 264.000
  20
 181.656
  30
0.0
  40
 5.00000
  50
 270.000
  51
 0.143303E-10
   0
ARC
   8
LEVEL001
   6
CONTINUOUS
  62
7
  10
 296.000
  20
 181.656
  30
0.0
  40
 5.00000
  50
 180.000
  51
 270.000
   0
LINE
   8
LEVEL001
   6
CONTINUOUS
  62
7
  10
 291.000
  20
 306.938
  30
0.0
  11
 291.000
  21
 181.656
  31
0.0
   0
LINE
   8
LEVEL001
   6
CONTINUOUS
  62
7
  10
 269.000
  20
 307.598
  30
0.0
  11
 269.000
  21
 181.656
  31
0.0
   0
ARC
   8
LEVEL001
   6
CONTINUOUS
  62
7
  10
 274.000
  20
 169.500
  30
0.0
  40
 3.00000
  50
 270.000
  51
0.0
   0
ARC
   8
LEVEL001
   6
CONTINUOUS
  62
7
  10
 286.000
  20
 169.500
  30
0.0
  40
 3.00000
  50
 180.000
  51
 270.000
   0
LINE
   8
LEVEL001
   6
CONTINUOUS
  62
7
  10
 283.000
  20
 318.000
  30
0.0
  11
 283.000
  21
 169.500
  31
0.0
   0
LINE
   8
LEVEL001
   6
CONTINUOUS
  62
7
  10
 277.000
  20
 318.000
  30
0.0
  11
 277.000
  21
 169.500
  31
0.0
   0
TEXT
   8
LEVEL050
  62
3
  10
 903.750
  20
 34.5000
  30
0.0
  40
 9.60000
   1
’０４　　４　１４
  41
 0.703125
   7
STANDARD
   0
LINE
   8
LEVEL110
   6
CONTINUOUS
  62
7
  10
 933.750
  20
 192.000
  30
0.0
  11
 933.750
  21
 171.000
  31
0.0
   0
LINE
   8
LEVEL110
   6
CONTINUOUS
  62
7
  10
 1023.75
  20
 192.000
  30
0.0
  11
 1023.75
  21
 123.000
  31
0.0
   0
LINE
   8
LEVEL110
   6
CONTINUOUS
  62
7
  10
 1083.75
  20
 192.000
  30
0.0
  11
 1083.75
  21
 171.000
  31
0.0
   0
LINE
   8
LEVEL110
   6
CONTINUOUS
  62
7
  10
 1107.75
  20
 192.000
  30
0.0
  11
 1107.75
  21
 171.000
  31
0.0
   0
LINE
   8
LEVEL110
   6
CONTINUOUS
  62
7
  10
 1142.25
  20
 192.000
  30
0.0
  11
 1142.25
  21
 171.000
  31
0.0
   0
LINE
   8
LEVEL110
   6
CONTINUOUS
  62
7
  10
 995.250
  20
 171.000
  30
0.0
  11
 995.250
  21
 123.000
  31
0.0
   0
LINE
   8
LEVEL110
   6
CONTINUOUS
  62
7
  10
 945.750
  20
 79.5000
  30
0.0
  11
 960.750
  21
 94.5000
  31
0.0
   0
CIRCLE
   8
LEVEL110
   6
CONTINUOUS
  62
7
  10
 924.750
  20
 34.5000
  30
0.0
  40
 1.20000
   0
CIRCLE
   8
LEVEL110
   6
CONTINUOUS
  62
7
  10
 945.750
  20
 34.5000
  30
0.0
  40
 1.20000
   0
CIRCLE
   8
LEVEL110
   6
CONTINUOUS
  62
7
  10
 924.750
  20
 34.5000
  30
0.0
  40
 0.750000
   0
CIRCLE
   8
LEVEL110
   6
CONTINUOUS
  62
7
  10
 945.750
  20
 34.5000
  30
0.0
  40
 0.750000
   0
LINE
   8
LEVEL110
   6
CONTINUOUS
  62
7
  10
 1038.00
  20
 46.5000
  30
0.0
  11
 1038.00
  21
 49.5000
  31
0.0
   0
LINE
   8
LEVEL110
   6
CONTINUOUS
  62
7
  10
 1038.00
  20
 49.5000
  30
0.0
  11
 1047.00
  21
 49.5000
  31
0.0
   0
LINE
   8
LEVEL110
   6
CONTINUOUS
  62
7
  10
 1047.00
  20
 49.5000
  30
0.0
  11
 1047.00
  21
 46.5000
  31
0.0
   0
LINE
   8
LEVEL110
   6
CONTINUOUS
  62
7
  10
 1047.00
  20
 46.5000
  30
0.0
  11
 1038.00
  21
 46.5000
  31
0.0
   0
LINE
   8
LEVEL110
   6
CONTINUOUS
  62
7
  10
 966.750
  20
 171.000
  30
0.0
  11
 966.750
  21
 30.0000
  31
0.0
   0
LINE
   8
LEVEL110
   6
CONTINUOUS
  62
7
  10
 903.750
  20
 99.0000
  30
0.0
  11
 966.750
  21
 99.0000
  31
0.0
   0
LINE
   8
LEVEL110
   6
CONTINUOUS
  62
7
  10
 903.750
  20
 159.000
  30
0.0
  11
 1224.45
  21
 159.000
  31
0.0
   0
LINE
   8
LEVEL110
   6
CONTINUOUS
  62
7
  10
 903.750
  20
 123.000
  30
0.0
  11
 1224.45
  21
 123.000
  31
0.0
   0
LINE
   8
LEVEL110
   6
CONTINUOUS
  62
7
  10
 903.750
  20
 75.0000
  30
0.0
  11
 1224.45
  21
 75.0000
  31
0.0
   0
LINE
   8
LEVEL110
   6
CONTINUOUS
  62
7
  10
 1140.45
  20
 75.0000
  30
0.0
  11
 1140.45
  21
 30.0000
  31
0.0
   0
LINE
   8
LEVEL110
   6
CONTINUOUS
  62
7
  10
 1152.45
  20
 30.0000
  30
0.0
  11
 1203.45
  21
 60.0000
  31
0.0
   0
LINE
   8
LEVEL110
   6
CONTINUOUS
  62
7
  10
 171.450
  20
 852.300
  30
0.0
  11
 162.450
  21
 852.300
  31
0.0
   0
LINE
   8
LEVEL110
   6
CONTINUOUS
  62
7
  10
 162.450
  20
 852.300
  30
0.0
  11
 162.450
  21
 849.300
  31
0.0
   0
LINE
   8
LEVEL110
   6
CONTINUOUS
  62
7
  10
 162.450
  20
 849.300
  30
0.0
  11
 171.450
  21
 849.300
  31
0.0
   0
LINE
   8
LEVEL110
   6
CONTINUOUS
  62
7
  10
 171.450
  20
 849.300
  30
0.0
  11
 171.450
  21
 852.300
  31
0.0
   0
LINE
   8
LEVEL110
   6
CONTINUOUS
  62
7
  10
 54.0000
  20
 837.600
  30
0.0
  11
 225.450
  21
 837.600
  31
0.0
   0
LINE
   8
LEVEL110
   6
CONTINUOUS
  62
7
  10
 225.450
  20
 837.600
  30
0.0
  11
 225.450
  21
 864.000
  31
0.0
   0
TEXT
   8
LEVEL110
  62
3
  10
 911.625
  20
 61.2000
  30
0.0
  40
 9.45000
   1
製図年月日
   7
STANDARD
  72
1
  11
 935.250
  21
 67.5000
  31
0.0
  73
2
   0
TEXT
   8
LEVEL110
  62
3
  10
 974.475
  20
 61.2000
  30
0.0
  40
 9.45000
   1
図面番号
   7
STANDARD
  72
1
  11
 993.375
  21
 67.5000
  31
0.0
  73
2
   0
TEXT
   8
LEVEL110
  62
3
  10
 907.466
  20
 84.1754
  30
0.0
  40
 9.45000
   1
尺 度
   7
STANDARD
  72
1
  11
 919.278
  21
 90.4754
  31
0.0
  73
2
   0
TEXT
   8
LEVEL110
  62
3
  10
 1044.30
  20
 173.500
  30
0.0
  40
 12.0000
   1
材料
  41
 0.787500
   7
STANDARD
  72
1
  11
 1053.75
  21
 181.500
  31
0.0
  73
2
   0
TEXT
   8
LEVEL110
  62
3
  10
 1086.30
  20
 173.500
  30
0.0
  40
 12.0000
   1
数量
  41
 0.787500
   7
STANDARD
  72
1
  11
 1095.75
  21
 181.500
  31
0.0
  73
2
   0
TEXT
   8
LEVEL110
  62
3
  10
 1110.83
  20
 173.500
  30
0.0
  40
 12.0000
   1
単重量
  41
 0.787500
   7
STANDARD
  72
1
  11
 1125.00
  21
 181.500
  31
0.0
  73
2
   0
TEXT
   8
LEVEL110
  62
3
  10
 1173.90
  20
 173.500
  30
0.0
  40
 12.0000
   1
記事
  41
 0.787500
   7
STANDARD
  72
1
  11
 1183.35
  21
 181.500
  31
0.0
  73
2
   0
TEXT
   8
LEVEL110
  62
3
  10
 971.550
  20
 158.700
  30
0.0
  40
 9.45000
   1
担当
   7
STANDARD
  72
1
  11
 981.000
  21
 165.000
  31
0.0
  73
2
   0
TEXT
   8
LEVEL110
  62
3
  10
 1000.05
  20
 158.700
  30
0.0
  40
 9.45000
   1
製図
   7
STANDARD
  72
1
  11
 1009.50
  21
 165.000
  31
0.0
  73
2
   0
TEXT
   8
LEVEL110
  62
2
  10
 1035.00
  20
 10.5000
  30
0.0
  40
 18.0000
   1
大阪ジャッキ製作所
   7
STANDARD
   0
LINE
   8
LEVEL110
   6
CONTINUOUS
  62
2
  10
 903.750
  20
 30.0000
  30
0.0
  11
 903.750
  21
 192.000
  31
0.0
   0
LINE
   8
LEVEL110
   6
CONTINUOUS
  62
2
  10
 903.750
  20
 192.000
  30
0.0
  11
 1224.45
  21
 192.000
  31
0.0
   0
TEXT
   8
LEVEL110
  62
2
  10
 917.250
  20
 103.000
  30
0.0
  40
 12.0000
   1
三角法
   7
STANDARD
  72
1
  11
 935.250
  21
 111.000
  31
0.0
  73
2
   0
LINE
   8
LEVEL110
   6
CONTINUOUS
  62
2
  10
 903.750
  20
 171.000
  30
0.0
  11
 1224.45
  21
 171.000
  31
0.0
   0
CIRCLE
   8
LEVEL110
   6
CONTINUOUS
  62
3
  10
 1005.00
  20
 15.0000
  30
0.0
  40
 3.00000
   0
TEXT
   8
LEVEL110
  62
3
  10
 1002.88
  20
 12.8787
  30
0.0
  40
 4.24264
   1
Ｒ
   7
STANDARD
   0
TEXT
   8
LEVEL110
  62
7
  10
 1012.22
  20
 19.2469
  30
0.0
  40
 8.25000
   1
株式
   7
STANDARD
   0
TEXT
   8
LEVEL110
  62
7
  10
 1012.22
  20
 11.2469
  30
0.0
  40
 8.25000
   1
会社
   7
STANDARD
   0
CIRCLE
   8
LEVEL110
   6
CONTINUOUS
  62
7
  10
 981.817
  20
 22.2000
  30
0.0
  40
 6.00000
   0
LINE
   8
LEVEL110
   6
CONTINUOUS
  62
7
  10
 993.595
  20
 28.2000
  30
0.0
  11
 985.974
  21
 15.0000
  31
0.0
   0
LINE
   8
LEVEL110
   6
CONTINUOUS
  62
7
  10
 985.974
  20
 15.0000
  30
0.0
  11
 970.732
  21
 15.0000
  31
0.0
   0
LINE
   8
LEVEL110
   6
CONTINUOUS
  62
7
  10
 970.732
  20
 15.0000
  30
0.0
  11
 969.000
  21
 12.0000
  31
0.0
   0
LINE
   8
LEVEL110
   6
CONTINUOUS
  62
7
  10
 969.000
  20
 12.0000
  30
0.0
  11
 996.242
  21
 12.0000
  31
0.0
   0
LINE
   8
LEVEL110
   6
CONTINUOUS
  62
7
  10
 996.242
  20
 12.0000
  30
0.0
  11
 1005.60
  21
 28.2000
  31
0.0
   0
LINE
   8
LEVEL110
   6
CONTINUOUS
  62
7
  10
 1005.60
  20
 28.2000
  30
0.0
  11
 993.595
  21
 28.2000
  31
0.0
   0
TEXT
   8
LEVEL110
  62
3
  10
 908.250
  20
 183.167
  30
0.0
  40
 8.25000
   1
部品
   7
STANDARD
   0
TEXT
   8
LEVEL110
  62
3
  10
 908.250
  20
 171.583
  30
0.0
  40
 8.25000
   1
番号
   7
STANDARD
   0
TEXT
   8
LEVEL110
  62
3
  10
 959.850
  20
 173.500
  30
0.0
  40
 12.0000
   1
部品名称
  41
 0.787500
   7
STANDARD
  72
1
  11
 978.750
  21
 181.500
  31
0.0
  73
2
   0
TEXT
   8
LEVEL110
  62
3
  10
 925.800
  20
 158.700
  30
0.0
  40
 9.45000
   1
認可
   7
STANDARD
  72
1
  11
 935.250
  21
 165.000
  31
0.0
  73
2
   0
TEXT
   8
LEVEL110
  62
3
  10
 1163.55
  20
 61.2000
  30
0.0
  40
 9.45000
   1
整理番号
   7
STANDARD
  72
1
  11
 1182.45
  21
 67.5000
  31
0.0
  73
2
   0
LINE
   8
LEVEL110
   6
CONTINUOUS
  62
7
  10
 1038.00
  20
 46.5000
  30
0.0
  11
 1038.00
  21
 49.5000
  31
0.0
   0
LINE
   8
LEVEL110
   6
CONTINUOUS
  62
7
  10
 1038.00
  20
 49.5000
  30
0.0
  11
 1047.00
  21
 49.5000
  31
0.0
   0
LINE
   8
LEVEL110
   6
CONTINUOUS
  62
7
  10
 1047.00
  20
 49.5000
  30
0.0
  11
 1047.00
  21
 46.5000
  31
0.0
   0
LINE
   8
LEVEL110
   6
CONTINUOUS
  62
7
  10
 1047.00
  20
 46.5000
  30
0.0
  11
 1038.00
  21
 46.5000
  31
0.0
   0
LINE
   8
LEVEL110
   6
CONTINUOUS
  62
7
  10
 171.450
  20
 852.300
  30
0.0
  11
 162.450
  21
 852.300
  31
0.0
   0
LINE
   8
LEVEL110
   6
CONTINUOUS
  62
7
  10
 162.450
  20
 852.300
  30
0.0
  11
 162.450
  21
 849.300
  31
0.0
   0
LINE
   8
LEVEL110
   6
CONTINUOUS
  62
7
  10
 162.450
  20
 849.300
  30
0.0
  11
 171.450
  21
 849.300
  31
0.0
   0
LINE
   8
LEVEL110
   6
CONTINUOUS
  62
7
  10
 171.450
  20
 849.300
  30
0.0
  11
 171.450
  21
 852.300
  31
0.0
   0
TEXT
   8
LEVEL110
  62
2
  10
 977.250
  20
 40.5000
  30
0.0
  40
 15.0000
   1
ＯＪ．
  41
 0.800000
   7
STANDARD
   0
TEXT
   8
LEVEL110
  62
2
  10
 222.450
  20
 858.300
  30
0.0
  40
 15.0000
   1
ＯＪ．
  50
 180.000
  41
 0.900000
   7
STANDARD
   0
CIRCLE
   8
LEVEL110
   6
CONTINUOUS
  62
7
  10
 981.817
  20
 22.2000
  30
0.0
  40
 6.00000
   0
LINE
   8
LEVEL110
   6
CONTINUOUS
  62
7
  10
 993.595
  20
 28.2000
  30
0.0
  11
 985.974
  21
 15.0000
  31
0.0
   0
LINE
   8
LEVEL110
   6
CONTINUOUS
  62
7
  10
 985.974
  20
 15.0000
  30
0.0
  11
 970.732
  21
 15.0000
  31
0.0
   0
LINE
   8
LEVEL110
   6
CONTINUOUS
  62
7
  10
 970.732
  20
 15.0000
  30
0.0
  11
 969.000
  21
 12.0000
  31
0.0
   0
LINE
   8
LEVEL110
   6
CONTINUOUS
  62
7
  10
 969.000
  20
 12.0000
  30
0.0
  11
 996.242
  21
 12.0000
  31
0.0
   0
LINE
   8
LEVEL110
   6
CONTINUOUS
  62
7
  10
 996.242
  20
 12.0000
  30
0.0
  11
 1005.60
  21
 28.2000
  31
0.0
   0
LINE
   8
LEVEL110
   6
CONTINUOUS
  62
7
  10
 1005.60
  20
 28.2000
  30
0.0
  11
 993.595
  21
 28.2000
  31
0.0
   0
LINE
   8
LEVEL110
   6
CONTINUOUS
  62
3
  10
 981.450
  20
 789.000
  30
0.0
  11
 981.450
  21
 864.000
  31
0.0
   0
LINE
   8
LEVEL110
   6
CONTINUOUS
  62
3
  10
 981.450
  20
 849.000
  30
0.0
  11
 1224.45
  21
 849.000
  31
0.0
   0
LINE
   8
LEVEL110
   6
CONTINUOUS
  62
3
  10
 981.450
  20
 834.000
  30
0.0
  11
 1224.45
  21
 834.000
  31
0.0
   0
LINE
   8
LEVEL110
   6
CONTINUOUS
  62
3
  10
 1008.45
  20
 849.000
  30
0.0
  11
 1008.45
  21
 834.000
  31
0.0
   0
LINE
   8
LEVEL110
   6
CONTINUOUS
  62
3
  10
 1164.45
  20
 849.000
  30
0.0
  11
 1164.45
  21
 834.000
  31
0.0
   0
LINE
   8
LEVEL110
   6
CONTINUOUS
  62
3
  10
 1200.45
  20
 849.000
  30
0.0
  11
 1200.45
  21
 834.000
  31
0.0
   0
TEXT
   8
LEVEL110
  62
3
  10
 1084.05
  20
 850.200
  30
0.0
  40
 9.45000
   1
図面来歴
   7
STANDARD
  72
1
  11
 1102.95
  21
 856.500
  31
0.0
  73
2
   0
TEXT
   8
LEVEL110
  62
3
  10
 985.500
  20
 835.200
  30
0.0
  40
 9.45000
   1
記号
   7
STANDARD
  72
1
  11
 994.950
  21
 841.500
  31
0.0
  73
2
   0
TEXT
   8
LEVEL110
  62
3
  10
 1077.00
  20
 835.200
  30
0.0
  40
 9.45000
   1
記事
   7
STANDARD
  72
1
  11
 1086.45
  21
 841.500
  31
0.0
  73
2
   0
TEXT
   8
LEVEL110
  62
3
  10
 1168.28
  20
 835.200
  30
0.0
  40
 9.45000
   1
年月日
   7
STANDARD
  72
1
  11
 1182.45
  21
 841.500
  31
0.0
  73
2
   0
TEXT
   8
LEVEL110
  62
3
  10
 1203.00
  20
 835.200
  30
0.0
  40
 9.45000
   1
担当
   7
STANDARD
  72
1
  11
 1212.45
  21
 841.500
  31
0.0
  73
2
   0
LINE
   8
LEVEL110
   6
CONTINUOUS
  62
2
  10
 54.0000
  20
 30.0000
  30
0.0
  11
 54.0000
  21
 864.000
  31
0.0
   0
LINE
   8
LEVEL110
   6
CONTINUOUS
  62
2
  10
 54.0000
  20
 864.000
  30
0.0
  11
 1224.45
  21
 864.000
  31
0.0
   0
LINE
   8
LEVEL110
   6
CONTINUOUS
  62
2
  10
 1224.45
  20
 864.000
  30
0.0
  11
 1224.45
  21
 30.0000
  31
0.0
   0
LINE
   8
LEVEL110
   6
CONTINUOUS
  62
2
  10
 1224.45
  20
 30.0000
  30
0.0
  11
 54.0000
  21
 30.0000
  31
0.0
   0
LINE
   8
LEVEL110
   6
CONTINUOUS
  62
3
  10
 981.450
  20
 819.000
  30
0.0
  11
 987.450
  21
 819.000
  31
0.0
   0
LINE
   8
LEVEL110
   6
CONTINUOUS
  62
3
  10
 1218.45
  20
 819.000
  30
0.0
  11
 1224.45
  21
 819.000
  31
0.0
   0
LINE
   8
LEVEL110
   6
CONTINUOUS
  62
3
  10
 981.450
  20
 804.000
  30
0.0
  11
 987.450
  21
 804.000
  31
0.0
   0
LINE
   8
LEVEL110
   6
CONTINUOUS
  62
3
  10
 1218.45
  20
 804.000
  30
0.0
  11
 1224.45
  21
 804.000
  31
0.0
   0
LINE
   8
LEVEL110
   6
CONTINUOUS
  62
3
  10
 981.450
  20
 789.000
  30
0.0
  11
 987.450
  21
 789.000
  31
0.0
   0
LINE
   8
LEVEL110
   6
CONTINUOUS
  62
3
  10
 1218.45
  20
 789.000
  30
0.0
  11
 1224.45
  21
 789.000
  31
0.0
   0
CIRCLE
   8
LEVEL003
   6
CONTINUOUS
  62
7
  10
 930.421
  20
 93.4159
  30
0.0
  40
 8.06216
   0
LINE
   8
LEVEL003
   6
CONTINUOUS
  62
7
  10
 946.245
  20
 101.478
  30
0.0
  11
 936.005
  21
 83.7413
  31
0.0
   0
LINE
   8
LEVEL003
   6
CONTINUOUS
  62
7
  10
 936.005
  20
 83.7413
  30
0.0
  11
 915.525
  21
 83.7413
  31
0.0
   0
LINE
   8
LEVEL003
   6
CONTINUOUS
  62
7
  10
 913.198
  20
 79.7102
  30
0.0
  11
 949.803
  21
 79.7102
  31
0.0
   0
LINE
   8
LEVEL003
   6
CONTINUOUS
  62
7
  10
 949.803
  20
 79.7102
  30
0.0
  11
 962.369
  21
 101.478
  31
0.0
   0
LINE
   8
LEVEL003
   6
CONTINUOUS
  62
7
  10
 962.369
  20
 101.478
  30
0.0
  11
 946.245
  21
 101.478
  31
0.0
   0
LINE
   8
LEVEL003
   6
CONTINUOUS
  62
7
  10
 915.525
  20
 83.7413
  30
0.0
  11
 913.198
  21
 79.7102
  31
0.0
   0
TEXT
   8
LEVEL003
  62
7
  10
 972.651
  20
 75.1788
  30
0.0
  40
 20.1554
   1
ＯＳＡＫＡ ＪＡＣＫ
   7
STANDARD
   0
TEXT
   8
LEVEL003
  62
7
  10
 973.017
  20
 115.120
  30
0.0
  40
 13.4369
   1
Model : ＪＪ－５０２５
   7
STANDARD
   0
ENDSEC
   0
EOF
