   0
SECTION
   2
HEADER
   9
$LIMMIN
  10
0.0
  20
0.0
   9
$LIMMAX
  10
 1260.00
  20
 891.000
   9
$EXTMIN
  10
0.0
  20
0.0
   9
$EXTMAX
  10
 1260.00
  20
 891.000
   9
$LTSCALE
  40
 25.2000
   0
ENDSEC
   0
SECTION
   2
TABLES
  0
TABLE
  2
LTYPE
 70
    25
  0
LTYPE
  2
CONTINUOUS
 70
    64
  3
Solid line
 72
    65
 73
     0
 40
0.0
  0
LTYPE
  2
BORDER
 70
    64
  3
__ __ . __ __ . __ __ . __ __ . __ __ . __ __ .
 72
    65
 73
     6
 40
1.75
 49
0.5
 49
-0.25
 49
0.5
 49
-0.25
 49
0.0
 49
-0.25
  0
LTYPE
  2
BORDER2
 70
    64
  3
__.__.__.__.__.__.__.__.__.__.__.__.__.__.__.__
 72
    65
 73
     6
 40
0.875
 49
0.25
 49
-0.125
 49
0.25
 49
-0.125
 49
0.0
 49
-0.125
  0
LTYPE
  2
BORDERX2
 70
    64
  3
____  ____  .  ____  ____  .  ____  ____  .  __
 72
    65
 73
     6
 40
3.5
 49
1.0
 49
-0.5
 49
1.0
 49
-0.5
 49
0.0
 49
-0.5
  0
LTYPE
  2
CENTER
 70
    64
  3
____ _ ____ _ ____ _ ____ _ ____ _ ____ _ ____ 
 72
    65
 73
     4
 40
2.0
 49
1.25
 49
-0.25
 49
0.25
 49
-0.25
  0
LTYPE
  2
CENTER2
 70
    64
  3
___ _ ___ _ ___ _ ___ _ ___ _ ___ _ ___ _ ___ _
 72
    65
 73
     4
 40
1.125
 49
0.75
 49
-0.125
 49
0.125
 49
-0.125
  0
LTYPE
  2
CENTERX2
 70
    64
  3
________  __  ________  __  ________  __  _____
 72
    65
 73
     4
 40
4.0
 49
2.5
 49
-0.5
 49
0.5
 49
-0.5
  0
LTYPE
  2
DASHDOT
 70
    64
  3
__ . __ . __ . __ . __ . __ . __ . __ . __ . __
 72
    65
 73
     4
 40
1.0
 49
0.5
 49
-0.25
 49
0.0
 49
-0.25
  0
LTYPE
  2
DASHDOT2
 70
    64
  3
_._._._._._._._._._._._._._._._._._._._._._._._
 72
    65
 73
     4
 40
0.5
 49
0.25
 49
-0.125
 49
0.0
 49
-0.125
  0
LTYPE
  2
DASHDOTX2
 70
    64
  3
____  .  ____  .  ____  .  ____  .  ____  .  __
 72
    65
 73
     4
 40
2.0
 49
1.0
 49
-0.5
 49
0.0
 49
-0.5
  0
LTYPE
  2
DASHED
 70
    64
  3
__ __ __ __ __ __ __ __ __ __ __ __ __ __ __ __
 72
    65
 73
     2
 40
0.75
 49
0.5
 49
-0.25
  0
LTYPE
  2
DASHED2
 70
    64
  3
_ _ _ _ _ _ _ _ _ _ _ _ _ _ _ _ _ _ _ _ _ _ _ _
 72
    65
 73
     2
 40
0.375
 49
0.25
 49
-0.125
  0
LTYPE
  2
DASHEDX2
 70
    64
  3
____  ____  ____  ____  ____  ____  ____  ____ 
 72
    65
 73
     2
 40
1.5
 49
1.0
 49
-0.5
  0
LTYPE
  2
DIVIDE
 70
    64
  3
____ . . ____ . . ____ . . ____ . . ____ . . __
 72
    65
 73
     6
 40
1.25
 49
0.5
 49
-0.25
 49
0.0
 49
-0.25
 49
0.0
 49
-0.25
  0
LTYPE
  2
DIVIDE2
 70
    64
  3
__..__..__..__..__..__..__..__..__..__..__..__.
 72
    65
 73
     6
 40
0.625
 49
0.25
 49
-0.125
 49
0.0
 49
-0.125
 49
0.0
 49
-0.125
  0
LTYPE
  2
DIVIDEX2
 70
    64
  3
________  .  .  ________  .  .  ________  .  . 
 72
    65
 73
     6
 40
2.5
 49
1.0
 49
-0.5
 49
0.0
 49
-0.5
 49
0.0
 49
-0.5
  0
LTYPE
  2
DOT
 70
    64
  3
. . . . . . . . . . . . . . . . . . . . . . . .
 72
    65
 73
     2
 40
0.25
 49
0.0
 49
-0.25
  0
LTYPE
  2
DOT2
 70
    64
  3
...............................................
 72
    65
 73
     2
 40
0.125
 49
0.0
 49
-0.125
  0
LTYPE
  2
DOTX2
 70
    64
  3
.  .  .  .  .  .  .  .  .  .  .  .  .  .  .  . 
 72
    65
 73
     2
 40
0.5
 49
0.0
 49
-0.5
  0
LTYPE
  2
HIDDEN
 70
    64
  3
__ __ __ __ __ __ __ __ __ __ __ __ __ __ __ __
 72
    65
 73
     2
 40
0.375
 49
0.25
 49
-0.125
  0
LTYPE
  2
HIDDEN2
 70
    64
  3
_ _ _ _ _ _ _ _ _ _ _ _ _ _ _ _ _ _ _ _ _ _ _ _
 72
    65
 73
     2
 40
0.1875
 49
0.125
 49
-0.0625
  0
LTYPE
  2
HIDDENX2
 70
    64
  3
____ ____ ____ ____ ____ ____ ____ ____ ____ __
 72
    65
 73
     2
 40
0.75
 49
0.5
 49
-0.25
  0
LTYPE
  2
PHANTOM
 70
    64
  3
______  __  __  ______  __  __  ______  __  __ 
 72
    65
 73
     6
 40
2.5
 49
1.25
 49
-0.25
 49
0.25
 49
-0.25
 49
0.25
 49
-0.25
  0
LTYPE
  2
PHANTOM2
 70
    64
  3
___ _ _ ___ _ _ ___ _ _ ___ _ _ ___ _ _ ___ _ _
 72
    65
 73
     6
 40
1.25
 49
0.625
 49
-0.125
 49
0.125
 49
-0.125
 49
0.125
 49
-0.125
  0
LTYPE
  2
PHANTOMX2
 70
    64
  3
____________    ____    ____    ____________   
 72
    65
 73
     6
 40
5.0
 49
2.5
 49
-0.5
 49
0.5
 49
-0.5
 49
0.5
 49
-0.5
  0
ENDTAB
  0
TABLE
  2
STYLE
 70
     2
  0
STYLE
  2
STANDARD
 70
0
 40
0.0
 41
1.0
 50
0.0
 71
0
 42
0.2
  3
TXT
  4
BIGFONT
  0
STYLE
  2
STANDARD1
 70
     4
 40
0.0
 41
1.0
 50
0.0
 71
     0
 42
0.2
  3
TXT
  4
BIGFONT
  0
ENDTAB
   0
TABLE
   2
LAYER
  70
7
   0
LAYER
   2
0
  70
0
  62
7
   6
CONTINUOUS
   0
LAYER
   2
LEVEL001
  70
0
  62
7
   6
CONTINUOUS
   0
LAYER
   2
LEVEL003
  70
0
  62
7
   6
CONTINUOUS
   0
LAYER
   2
LEVEL020
  70
0
  62
7
   6
CONTINUOUS
   0
LAYER
   2
LEVEL050
  70
0
  62
-7
   6
CONTINUOUS
   0
LAYER
   2
LEVEL100
  70
0
  62
-7
   6
CONTINUOUS
   0
LAYER
   2
LEVEL110
  70
0
  62
-7
   6
CONTINUOUS
   0
ENDTAB
   0
ENDSEC
   0
SECTION
   2
ENTITIES
   0
LINE
   8
LEVEL100
   6
CONTINUOUS
  62
7
  10
 933.750
  20
 192.000
  30
0.0
  11
 933.750
  21
 171.000
  31
0.0
   0
LINE
   8
LEVEL100
   6
CONTINUOUS
  62
7
  10
 1023.75
  20
 192.000
  30
0.0
  11
 1023.75
  21
 123.000
  31
0.0
   0
LINE
   8
LEVEL100
   6
CONTINUOUS
  62
7
  10
 1083.75
  20
 192.000
  30
0.0
  11
 1083.75
  21
 171.000
  31
0.0
   0
LINE
   8
LEVEL100
   6
CONTINUOUS
  62
7
  10
 1107.75
  20
 192.000
  30
0.0
  11
 1107.75
  21
 171.000
  31
0.0
   0
LINE
   8
LEVEL100
   6
CONTINUOUS
  62
7
  10
 1142.25
  20
 192.000
  30
0.0
  11
 1142.25
  21
 171.000
  31
0.0
   0
LINE
   8
LEVEL100
   6
CONTINUOUS
  62
7
  10
 995.250
  20
 171.000
  30
0.0
  11
 995.250
  21
 123.000
  31
0.0
   0
LINE
   8
LEVEL100
   6
CONTINUOUS
  62
7
  10
 945.750
  20
 79.5000
  30
0.0
  11
 960.750
  21
 94.5000
  31
0.0
   0
CIRCLE
   8
LEVEL100
   6
CONTINUOUS
  62
7
  10
 924.750
  20
 34.5000
  30
0.0
  40
 1.20000
   0
CIRCLE
   8
LEVEL100
   6
CONTINUOUS
  62
7
  10
 945.750
  20
 34.5000
  30
0.0
  40
 1.20000
   0
CIRCLE
   8
LEVEL100
   6
CONTINUOUS
  62
7
  10
 924.750
  20
 34.5000
  30
0.0
  40
 0.750000
   0
CIRCLE
   8
LEVEL100
   6
CONTINUOUS
  62
7
  10
 945.750
  20
 34.5000
  30
0.0
  40
 0.750000
   0
LINE
   8
LEVEL100
   6
CONTINUOUS
  62
7
  10
 1038.00
  20
 46.5000
  30
0.0
  11
 1038.00
  21
 49.5000
  31
0.0
   0
LINE
   8
LEVEL100
   6
CONTINUOUS
  62
7
  10
 1038.00
  20
 49.5000
  30
0.0
  11
 1047.00
  21
 49.5000
  31
0.0
   0
LINE
   8
LEVEL100
   6
CONTINUOUS
  62
7
  10
 1047.00
  20
 49.5000
  30
0.0
  11
 1047.00
  21
 46.5000
  31
0.0
   0
LINE
   8
LEVEL100
   6
CONTINUOUS
  62
7
  10
 1047.00
  20
 46.5000
  30
0.0
  11
 1038.00
  21
 46.5000
  31
0.0
   0
LINE
   8
LEVEL100
   6
CONTINUOUS
  62
7
  10
 903.750
  20
 30.0000
  30
0.0
  11
 903.750
  21
 192.000
  31
0.0
   0
LINE
   8
LEVEL100
   6
CONTINUOUS
  62
7
  10
 966.750
  20
 171.000
  30
0.0
  11
 966.750
  21
 30.0000
  31
0.0
   0
LINE
   8
LEVEL100
   6
CONTINUOUS
  62
7
  10
 903.750
  20
 99.0000
  30
0.0
  11
 966.750
  21
 99.0000
  31
0.0
   0
TEXT
   8
LEVEL100
  62
7
  10
 977.250
  20
 40.5000
  30
0.0
  40
 15.0000
   1
ＯＪ
  41
 0.700000
   7
STANDARD
   0
LINE
   8
LEVEL100
   6
CONTINUOUS
  62
7
  10
 903.750
  20
 171.000
  30
0.0
  11
 1224.45
  21
 171.000
  31
0.0
   0
LINE
   8
LEVEL100
   6
CONTINUOUS
  62
7
  10
 903.750
  20
 159.000
  30
0.0
  11
 1224.45
  21
 159.000
  31
0.0
   0
LINE
   8
LEVEL100
   6
CONTINUOUS
  62
7
  10
 903.750
  20
 192.000
  30
0.0
  11
 1224.45
  21
 192.000
  31
0.0
   0
LINE
   8
LEVEL100
   6
CONTINUOUS
  62
7
  10
 981.450
  20
 789.000
  30
0.0
  11
 981.450
  21
 864.000
  31
0.0
   0
LINE
   8
LEVEL100
   6
CONTINUOUS
  62
7
  10
 981.450
  20
 849.000
  30
0.0
  11
 1224.45
  21
 849.000
  31
0.0
   0
LINE
   8
LEVEL100
   6
CONTINUOUS
  62
7
  10
 981.450
  20
 834.000
  30
0.0
  11
 1224.45
  21
 834.000
  31
0.0
   0
LINE
   8
LEVEL100
   6
CONTINUOUS
  62
7
  10
 1008.45
  20
 849.000
  30
0.0
  11
 1008.45
  21
 834.000
  31
0.0
   0
LINE
   8
LEVEL100
   6
CONTINUOUS
  62
7
  10
 1164.45
  20
 849.000
  30
0.0
  11
 1164.45
  21
 834.000
  31
0.0
   0
LINE
   8
LEVEL100
   6
CONTINUOUS
  62
7
  10
 1200.45
  20
 849.000
  30
0.0
  11
 1200.45
  21
 834.000
  31
0.0
   0
LINE
   8
LEVEL100
   6
CONTINUOUS
  62
7
  10
 903.750
  20
 123.000
  30
0.0
  11
 1224.45
  21
 123.000
  31
0.0
   0
LINE
   8
LEVEL100
   6
CONTINUOUS
  62
7
  10
 903.750
  20
 75.0000
  30
0.0
  11
 1224.45
  21
 75.0000
  31
0.0
   0
LINE
   8
LEVEL100
   6
CONTINUOUS
  62
7
  10
 1140.45
  20
 75.0000
  30
0.0
  11
 1140.45
  21
 30.0000
  31
0.0
   0
LINE
   8
LEVEL100
   6
CONTINUOUS
  62
7
  10
 1152.45
  20
 30.0000
  30
0.0
  11
 1203.45
  21
 60.0000
  31
0.0
   0
LINE
   8
LEVEL100
   6
CONTINUOUS
  62
7
  10
 75.0000
  20
 864.000
  30
0.0
  11
 1224.45
  21
 864.000
  31
0.0
   0
LINE
   8
LEVEL100
   6
CONTINUOUS
  62
7
  10
 1224.45
  20
 864.000
  30
0.0
  11
 1224.45
  21
 30.0000
  31
0.0
   0
LINE
   8
LEVEL100
   6
CONTINUOUS
  62
7
  10
 1224.45
  20
 30.0000
  30
0.0
  11
 75.0000
  21
 30.0000
  31
0.0
   0
LINE
   8
LEVEL100
   6
CONTINUOUS
  62
7
  10
 75.0000
  20
 837.600
  30
0.0
  11
 225.450
  21
 837.600
  31
0.0
   0
LINE
   8
LEVEL100
   6
CONTINUOUS
  62
7
  10
 225.450
  20
 837.600
  30
0.0
  11
 225.450
  21
 864.000
  31
0.0
   0
TEXT
   8
LEVEL100
  62
7
  10
 222.450
  20
 858.300
  30
0.0
  40
 15.0000
   1
ＯＪ．
  50
 180.000
  41
 0.900000
   7
STANDARD
   0
LINE
   8
LEVEL100
   6
CONTINUOUS
  62
7
  10
 171.450
  20
 852.300
  30
0.0
  11
 162.450
  21
 852.300
  31
0.0
   0
LINE
   8
LEVEL100
   6
CONTINUOUS
  62
7
  10
 162.450
  20
 852.300
  30
0.0
  11
 162.450
  21
 849.300
  31
0.0
   0
LINE
   8
LEVEL100
   6
CONTINUOUS
  62
7
  10
 162.450
  20
 849.300
  30
0.0
  11
 171.450
  21
 849.300
  31
0.0
   0
LINE
   8
LEVEL100
   6
CONTINUOUS
  62
7
  10
 171.450
  20
 849.300
  30
0.0
  11
 171.450
  21
 852.300
  31
0.0
   0
TEXT
   8
LEVEL100
  62
7
  10
 936.750
  20
 174.000
  30
0.0
  40
 12.0000
   1
Ｓ．ＩＭＡＮＩＳＨＩ
  41
 0.625000
   7
STANDARD
   0
LINE
   8
LEVEL001
   6
DASHDOT
  62
1
  10
 635.000
  20
 208.000
  30
0.0
  11
 750.000
  21
 208.000
  31
0.0
   0
CIRCLE
   8
LEVEL001
   6
CONTINUOUS
  62
7
  10
 695.000
  20
 208.000
  30
0.0
  40
 22.5000
   0
CIRCLE
   8
LEVEL001
   6
CONTINUOUS
  62
7
  10
 695.000
  20
 208.000
  30
0.0
  40
 23.5000
   0
ARC
   8
LEVEL001
   6
CONTINUOUS
  62
7
  10
 636.000
  20
 201.588
  30
0.0
  40
 1.00000
  50
 95.2380
  51
 180.001
   0
ARC
   8
LEVEL001
   6
CONTINUOUS
  62
7
  10
 636.000
  20
 153.500
  30
0.0
  40
 1.00000
  50
 180.000
  51
 269.999
   0
LINE
   8
LEVEL001
   6
CONTINUOUS
  62
7
  10
 635.000
  20
 201.587
  30
0.0
  11
 635.000
  21
 153.500
  31
0.0
   0
ARC
   8
LEVEL001
   6
CONTINUOUS
  62
7
  10
 754.000
  20
 201.587
  30
0.0
  40
 1.00000
  50
 0.159671E-2
  51
 84.7620
   0
ARC
   8
LEVEL001
   6
CONTINUOUS
  62
7
  10
 754.000
  20
 153.500
  30
0.0
  40
 1.00000
  50
 270.001
  51
 0.435432E-3
   0
LINE
   8
LEVEL001
   6
CONTINUOUS
  62
7
  10
 755.000
  20
 201.588
  30
0.0
  11
 755.000
  21
 153.500
  31
0.0
   0
ARC
   8
LEVEL001
   6
CONTINUOUS
  62
7
  10
 652.953
  20
 214.188
  30
0.0
  40
 10.0000
  50
 275.238
  51
 351.629
   0
LINE
   8
LEVEL001
   6
CONTINUOUS
  62
7
  10
 635.909
  20
 202.583
  30
0.0
  11
 653.866
  21
 204.229
  31
0.0
   0
ARC
   8
LEVEL001
   6
CONTINUOUS
  62
7
  10
 652.953
  20
 214.188
  30
0.0
  40
 8.60000
  50
 275.238
  51
 351.628
   0
ARC
   8
LEVEL001
   6
CONTINUOUS
  62
7
  10
 737.047
  20
 214.188
  30
0.0
  40
 8.60000
  50
 188.371
  51
 264.763
   0
ARC
   8
LEVEL001
   6
CONTINUOUS
  62
7
  10
 695.000
  20
 208.000
  30
0.0
  40
 33.9000
  50
 8.37164
  51
 171.628
   0
ARC
   8
LEVEL001
   6
CONTINUOUS
  62
7
  10
 737.047
  20
 214.188
  30
0.0
  40
 10.0000
  50
 188.371
  51
 264.762
   0
LINE
   8
LEVEL001
   6
CONTINUOUS
  62
7
  10
 736.134
  20
 204.229
  30
0.0
  11
 754.091
  21
 202.583
  31
0.0
   0
ARC
   8
LEVEL001
   6
CONTINUOUS
  62
7
  10
 695.000
  20
 208.000
  30
0.0
  40
 32.5000
  50
 8.37126
  51
 171.629
   0
LINE
   8
LEVEL001
   6
CONTINUOUS
  62
7
  10
 636.628
  20
 202.649
  30
0.0
  11
 636.500
  21
 204.043
  31
0.0
   0
LINE
   8
LEVEL001
   6
CONTINUOUS
  62
7
  10
 753.372
  20
 202.649
  30
0.0
  11
 753.500
  21
 204.043
  31
0.0
   0
LINE
   8
LEVEL001
   6
CONTINUOUS
  62
7
  10
 736.262
  20
 205.624
  30
0.0
  11
 753.500
  21
 204.043
  31
0.0
   0
LINE
   8
LEVEL001
   6
CONTINUOUS
  62
7
  10
 636.500
  20
 204.043
  30
0.0
  11
 653.738
  21
 205.624
  31
0.0
   0
ARC
   8
LEVEL001
   6
CONTINUOUS
  62
7
  10
 645.183
  20
 202.831
  30
0.0
  40
 5.40000
  50
 95.2376
  51
 129.185
   0
ARC
   8
LEVEL001
   6
CONTINUOUS
  62
7
  10
 643.919
  20
 204.381
  30
0.0
  40
 3.40000
  50
 129.185
  51
 179.483
   0
ARC
   8
LEVEL001
   6
CONTINUOUS
  62
7
  10
 645.183
  20
 202.831
  30
0.0
  40
 5.40000
  50
 61.2915
  51
 95.2389
   0
ARC
   8
LEVEL001
   6
CONTINUOUS
  62
7
  10
 646.143
  20
 204.585
  30
0.0
  40
 3.40000
  50
 10.9934
  51
 61.2913
   0
ARC
   8
LEVEL001
   6
CONTINUOUS
  62
7
  10
 744.817
  20
 202.831
  30
0.0
  40
 5.40000
  50
 50.8154
  51
 84.7624
   0
ARC
   8
LEVEL001
   6
CONTINUOUS
  62
7
  10
 746.081
  20
 204.381
  30
0.0
  40
 3.40000
  50
 0.517102
  51
 50.8152
   0
ARC
   8
LEVEL001
   6
CONTINUOUS
  62
7
  10
 744.817
  20
 202.831
  30
0.0
  40
 5.40000
  50
 84.7611
  51
 118.708
   0
ARC
   8
LEVEL001
   6
CONTINUOUS
  62
7
  10
 743.857
  20
 204.585
  30
0.0
  40
 3.40000
  50
 118.709
  51
 169.007
   0
LINE
   8
LEVEL001
   6
DASHDOT
  62
1
  10
 644.530
  20
 209.957
  30
0.0
  11
 645.893
  21
 195.082
  31
0.0
   0
LINE
   8
LEVEL001
   6
DASHDOT
  62
1
  10
 745.470
  20
 209.957
  30
0.0
  11
 744.107
  21
 195.082
  31
0.0
   0
ARC
   8
LEVEL001
   6
CONTINUOUS
  62
7
  10
 669.500
  20
 113.376
  30
0.0
  40
 2.00000
  50
 180.000
  51
 254.918
   0
ARC
   8
LEVEL001
   6
CONTINUOUS
  62
7
  10
 720.500
  20
 113.376
  30
0.0
  40
 2.00000
  50
 285.081
  51
 0.124399E-3
   0
ARC
   8
LEVEL001
   6
CONTINUOUS
  62
7
  10
 695.000
  20
 208.000
  30
0.0
  40
 100.000
  50
 254.918
  51
 285.082
   0
LINE
   8
LEVEL001
   6
CONTINUOUS
  62
7
  10
 667.500
  20
 113.376
  30
0.0
  11
 667.500
  21
 120.944
  31
0.0
   0
LINE
   8
LEVEL001
   6
CONTINUOUS
  62
7
  10
 722.500
  20
 120.944
  30
0.0
  11
 722.500
  21
 113.376
  31
0.0
   0
ARC
   8
LEVEL001
   6
CONTINUOUS
  62
7
  10
 695.000
  20
 208.000
  30
0.0
  40
 90.0000
  50
 253.070
  51
 286.930
   0
ARC
   8
LEVEL001
   6
CONTINUOUS
  62
7
  10
 669.000
  20
 122.880
  30
0.0
  40
 1.00000
  50
 255.522
  51
0.0
   0
ARC
   8
LEVEL001
   6
CONTINUOUS
  62
7
  10
 668.500
  20
 120.944
  30
0.0
  40
 1.00000
  50
 75.5216
  51
 180.000
   0
ARC
   8
LEVEL001
   6
CONTINUOUS
  62
7
  10
 721.000
  20
 122.880
  30
0.0
  40
 1.00000
  50
 180.000
  51
 284.476
   0
ARC
   8
LEVEL001
   6
CONTINUOUS
  62
7
  10
 721.500
  20
 120.944
  30
0.0
  40
 1.00000
  50
 0.855054E-3
  51
 104.476
   0
ARC
   8
LEVEL001
   6
CONTINUOUS
  62
7
  10
 663.328
  20
 138.500
  30
0.0
  40
 8.00000
  50
 189.040
  51
 270.000
   0
ARC
   8
LEVEL001
   6
CONTINUOUS
  62
7
  10
 648.733
  20
 147.500
  30
0.0
  40
 5.00000
  50
 9.03949
  51
 89.9999
   0
LINE
   8
LEVEL001
   6
CONTINUOUS
  62
7
  10
 653.670
  20
 148.286
  30
0.0
  11
 655.427
  21
 137.243
  31
0.0
   0
ARC
   8
LEVEL001
   6
CONTINUOUS
  62
7
  10
 665.000
  20
 125.500
  30
0.0
  40
 5.00000
  50
 0.901583E-4
  51
 90.0002
   0
LINE
   8
LEVEL001
   6
CONTINUOUS
  62
7
  10
 663.328
  20
 130.500
  30
0.0
  11
 665.000
  21
 130.500
  31
0.0
   0
LINE
   8
LEVEL001
   6
CONTINUOUS
  62
7
  10
 668.084
  20
 129.436
  30
0.0
  11
 667.500
  21
 129.436
  31
0.0
   0
ARC
   8
LEVEL001
   6
CONTINUOUS
  62
7
  10
 769.904
  20
 105.043
  30
0.0
  40
 50.0000
  50
 108.171
  51
 161.457
   0
ARC
   8
LEVEL001
   6
CONTINUOUS
  62
7
  10
 723.000
  20
 149.500
  30
0.0
  40
 3.00000
  50
 90.0000
  51
 180.000
   0
LINE
   8
LEVEL001
   6
CONTINUOUS
  62
7
  10
 723.000
  20
 152.500
  30
0.0
  11
 754.000
  21
 152.500
  31
0.0
   0
ARC
   8
LEVEL001
   6
CONTINUOUS
  62
7
  10
 667.000
  20
 149.500
  30
0.0
  40
 3.00000
  50
 0.113991E-10
  51
 90.0000
   0
LINE
   8
LEVEL001
   6
CONTINUOUS
  62
7
  10
 636.000
  20
 152.500
  30
0.0
  11
 667.000
  21
 152.500
  31
0.0
   0
CIRCLE
   8
LEVEL001
   6
CONTINUOUS
  62
7
  10
 695.000
  20
 128.000
  30
0.0
  40
 5.00000
   0
LINE
   8
LEVEL001
   6
DASHDOT
  62
1
  10
 685.000
  20
 128.000
  30
0.0
  11
 705.000
  21
 128.000
  31
0.0
   0
LINE
   8
LEVEL001
   6
DASHDOT
  62
1
  10
 630.000
  20
 177.500
  30
0.0
  11
 775.500
  21
 177.500
  31
0.0
   0
ARC
   8
LEVEL001
   6
CONTINUOUS
  62
7
  10
 632.500
  20
 193.250
  30
0.0
  40
 1.50000
  50
 90.0000
  51
 180.000
   0
LINE
   8
LEVEL001
   6
CONTINUOUS
  62
7
  10
 632.500
  20
 194.750
  30
0.0
  11
 635.000
  21
 194.750
  31
0.0
   0
ARC
   8
LEVEL001
   6
CONTINUOUS
  62
7
  10
 632.500
  20
 161.750
  30
0.0
  40
 1.50000
  50
 180.000
  51
 270.000
   0
LINE
   8
LEVEL001
   6
CONTINUOUS
  62
7
  10
 631.000
  20
 193.250
  30
0.0
  11
 631.000
  21
 161.750
  31
0.0
   0
LINE
   8
LEVEL001
   6
CONTINUOUS
  62
7
  10
 632.500
  20
 160.250
  30
0.0
  11
 635.000
  21
 160.250
  31
0.0
   0
ARC
   8
LEVEL001
   6
CONTINUOUS
  62
7
  10
 769.500
  20
 193.250
  30
0.0
  40
 1.50000
  50
0.0
  51
 89.9983
   0
LINE
   8
LEVEL001
   6
CONTINUOUS
  62
7
  10
 755.000
  20
 194.750
  30
0.0
  11
 769.500
  21
 194.750
  31
0.0
   0
ARC
   8
LEVEL001
   6
CONTINUOUS
  62
7
  10
 769.500
  20
 161.750
  30
0.0
  40
 1.50000
  50
 270.002
  51
 0.268140E-7
   0
LINE
   8
LEVEL001
   6
CONTINUOUS
  62
7
  10
 771.000
  20
 193.250
  30
0.0
  11
 771.000
  21
 161.750
  31
0.0
   0
LINE
   8
LEVEL001
   6
CONTINUOUS
  62
7
  10
 755.000
  20
 160.250
  30
0.0
  11
 769.500
  21
 160.250
  31
0.0
   0
CIRCLE
   8
LEVEL003
   6
CONTINUOUS
  62
7
  10
 695.000
  20
 208.000
  30
0.0
  40
 15.0000
   0
CIRCLE
   8
LEVEL003
   6
CONTINUOUS
  62
7
  10
 692.000
  20
 224.700
  30
0.0
  40
 1.00000
   0
ARC
   8
LEVEL003
   6
CONTINUOUS
  62
7
  10
 691.000
  20
 226.100
  30
0.0
  40
 1.00000
  50
 90.0009
  51
 180.000
   0
ARC
   8
LEVEL003
   6
CONTINUOUS
  62
7
  10
 693.500
  20
 226.600
  30
0.0
  40
 0.500000
  50
 0.875941E-3
  51
 90.0017
   0
LINE
   8
LEVEL003
   6
CONTINUOUS
  62
7
  10
 693.500
  20
 227.100
  30
0.0
  11
 691.000
  21
 227.100
  31
0.0
   0
LINE
   8
LEVEL003
   6
CONTINUOUS
  62
7
  10
 694.000
  20
 226.600
  30
0.0
  11
 694.000
  21
 222.967
  31
0.0
   0
ARC
   8
LEVEL003
   6
CONTINUOUS
  62
7
  10
 689.000
  20
 223.655
  30
0.0
  40
 1.00000
  50
 289.757
  51
 0.179349E-3
   0
LINE
   8
LEVEL003
   6
CONTINUOUS
  62
7
  10
 690.000
  20
 226.100
  30
0.0
  11
 690.000
  21
 223.655
  31
0.0
   0
ARC
   8
LEVEL003
   6
CONTINUOUS
  62
7
  10
 695.000
  20
 206.950
  30
0.0
  40
 16.7500
  50
 109.757
  51
 270.000
   0
CIRCLE
   8
LEVEL003
   6
CONTINUOUS
  62
7
  10
 698.000
  20
 224.700
  30
0.0
  40
 1.00000
   0
ARC
   8
LEVEL003
   6
CONTINUOUS
  62
7
  10
 699.000
  20
 226.100
  30
0.0
  40
 1.00000
  50
0.0
  51
 89.9991
   0
ARC
   8
LEVEL003
   6
CONTINUOUS
  62
7
  10
 696.500
  20
 226.600
  30
0.0
  40
 0.500000
  50
 89.9983
  51
 179.999
   0
LINE
   8
LEVEL003
   6
CONTINUOUS
  62
7
  10
 696.500
  20
 227.100
  30
0.0
  11
 699.000
  21
 227.100
  31
0.0
   0
LINE
   8
LEVEL003
   6
CONTINUOUS
  62
7
  10
 696.000
  20
 226.600
  30
0.0
  11
 696.000
  21
 222.967
  31
0.0
   0
ARC
   8
LEVEL003
   6
CONTINUOUS
  62
7
  10
 701.000
  20
 223.655
  30
0.0
  40
 1.00000
  50
 180.000
  51
 250.243
   0
LINE
   8
LEVEL003
   6
CONTINUOUS
  62
7
  10
 700.000
  20
 226.100
  30
0.0
  11
 700.000
  21
 223.655
  31
0.0
   0
ARC
   8
LEVEL003
   6
CONTINUOUS
  62
7
  10
 695.000
  20
 206.950
  30
0.0
  40
 16.7500
  50
 270.000
  51
 70.2434
   0
ARC
   8
LEVEL001
   6
CONTINUOUS
  62
7
  10
 185.000
  20
 104.500
  30
0.0
  40
 3.00000
  50
 180.000
  51
 270.000
   0
LINE
   8
LEVEL001
   6
CONTINUOUS
  62
7
  10
 265.000
  20
 101.500
  30
0.0
  11
 185.000
  21
 101.500
  31
0.0
   0
LINE
   8
LEVEL001
   6
CONTINUOUS
  62
7
  10
 182.000
  20
 104.500
  30
0.0
  11
 182.000
  21
 115.500
  31
0.0
   0
ARC
   8
LEVEL001
   6
CONTINUOUS
  62
7
  10
 345.000
  20
 104.500
  30
0.0
  40
 3.00000
  50
 270.000
  51
 0.165558E-10
   0
LINE
   8
LEVEL001
   6
CONTINUOUS
  62
7
  10
 265.000
  20
 101.500
  30
0.0
  11
 345.000
  21
 101.500
  31
0.0
   0
LINE
   8
LEVEL001
   6
CONTINUOUS
  62
7
  10
 348.000
  20
 104.500
  30
0.0
  11
 348.000
  21
 115.500
  31
0.0
   0
LINE
   8
LEVEL003
   6
CONTINUOUS
  62
3
  10
 182.000
  20
 101.500
  30
0.0
  11
 182.000
  21
 67.0000
  31
0.0
   0
LINE
   8
LEVEL003
   6
CONTINUOUS
  62
3
  10
 348.000
  20
 103.436
  30
0.0
  11
 348.000
  21
 67.0000
  31
0.0
   0
LINE
   8
LEVEL003
   6
CONTINUOUS
  62
3
  10
 182.000
  20
 73.0000
  30
0.0
  11
 348.000
  21
 73.0000
  31
0.0
   0
LINE
   8
LEVEL003
   6
CONTINUOUS
  62
3
  10
 191.000
  20
 71.5000
  30
0.0
  11
 182.000
  21
 73.0000
  31
0.0
   0
LINE
   8
LEVEL003
   6
CONTINUOUS
  62
3
  10
 182.000
  20
 73.0000
  30
0.0
  11
 191.000
  21
 74.5000
  31
0.0
   0
LINE
   8
LEVEL003
   6
CONTINUOUS
  62
3
  10
 182.000
  20
 73.0000
  30
0.0
  11
 191.000
  21
 73.0000
  31
0.0
   0
LINE
   8
LEVEL003
   6
CONTINUOUS
  62
3
  10
 339.000
  20
 74.5000
  30
0.0
  11
 348.000
  21
 73.0000
  31
0.0
   0
LINE
   8
LEVEL003
   6
CONTINUOUS
  62
3
  10
 348.000
  20
 73.0000
  30
0.0
  11
 339.000
  21
 71.5000
  31
0.0
   0
LINE
   8
LEVEL003
   6
CONTINUOUS
  62
3
  10
 348.000
  20
 73.0000
  30
0.0
  11
 339.000
  21
 73.0000
  31
0.0
   0
TEXT
   8
LEVEL003
  62
3
  10
 250.000
  20
 67.4000
  30
0.0
  40
 12.0000
   1
%%c166
   7
STANDARD
  72
1
  11
 265.000
  21
 75.4000
  31
0.0
  73
2
   0
LINE
   8
LEVEL001
   6
DASHDOT
  62
1
  10
 205.000
  20
 106.064
  30
0.0
  11
 205.000
  21
 98.7821
  31
0.0
   0
LINE
   8
LEVEL001
   6
DASHDOT
  62
1
  10
 225.000
  20
 106.064
  30
0.0
  11
 225.000
  21
 98.7821
  31
0.0
   0
LINE
   8
LEVEL001
   6
DASHDOT
  62
1
  10
 285.000
  20
 106.064
  30
0.0
  11
 285.000
  21
 98.7821
  31
0.0
   0
LINE
   8
LEVEL001
   6
DASHDOT
  62
1
  10
 305.000
  20
 106.064
  30
0.0
  11
 305.000
  21
 98.7821
  31
0.0
   0
LINE
   8
LEVEL001
   6
DASHDOT
  62
1
  10
 325.000
  20
 106.064
  30
0.0
  11
 325.000
  21
 98.7821
  31
0.0
   0
LINE
   8
LEVEL001
   6
DASHDOT
  62
1
  10
 245.000
  20
 105.564
  30
0.0
  11
 245.000
  21
 98.7821
  31
0.0
   0
LINE
   8
LEVEL001
   6
DASHDOT
  62
1
  10
 255.000
  20
 208.000
  30
0.0
  11
 456.500
  21
 208.000
  31
0.0
   0
LINE
   8
LEVEL001
   6
CONTINUOUS
  62
7
  10
 173.500
  20
 130.500
  30
0.0
  11
 173.500
  21
 115.500
  31
0.0
   0
LINE
   8
LEVEL001
   6
CONTINUOUS
  62
7
  10
 180.500
  20
 146.500
  30
0.0
  11
 180.500
  21
 130.500
  31
0.0
   0
LINE
   8
LEVEL001
   6
CONTINUOUS
  62
7
  10
 349.500
  20
 146.500
  30
0.0
  11
 349.500
  21
 130.500
  31
0.0
   0
LINE
   8
LEVEL001
   6
CONTINUOUS
  62
7
  10
 356.500
  20
 130.500
  30
0.0
  11
 356.500
  21
 115.500
  31
0.0
   0
LINE
   8
LEVEL001
   6
DASHDOT
  62
1
  10
 335.000
  20
 123.000
  30
0.0
  11
 357.000
  21
 123.000
  31
0.0
   0
LINE
   8
LEVEL001
   6
CONTINUOUS
  62
7
  10
 391.000
  20
 178.857
  30
0.0
  11
 353.000
  21
 151.500
  31
0.0
   0
ARC
   8
LEVEL001
   6
CONTINUOUS
  62
7
  10
 373.000
  20
 152.822
  30
0.0
  40
 25.0000
  50
 93.1108
  51
 180.000
   0
LINE
   8
LEVEL001
   6
CONTINUOUS
  62
7
  10
 348.000
  20
 152.822
  30
0.0
  11
 348.000
  21
 146.500
  31
0.0
   0
LINE
   8
LEVEL001
   6
CONTINUOUS
  62
7
  10
 394.000
  20
 181.000
  30
0.0
  11
 392.003
  21
 178.891
  31
0.0
   0
LINE
   8
LEVEL001
   6
CONTINUOUS
  62
7
  10
 371.643
  20
 177.785
  30
0.0
  11
 392.003
  21
 178.891
  31
0.0
   0
LINE
   8
LEVEL001
   6
CONTINUOUS
  62
7
  10
 348.000
  20
 151.500
  30
0.0
  11
 353.000
  21
 151.500
  31
0.0
   0
LINE
   8
LEVEL001
   6
CONTINUOUS
  62
7
  10
 392.003
  20
 237.109
  30
0.0
  11
 394.000
  21
 235.000
  31
0.0
   0
ARC
   8
LEVEL001
   6
CONTINUOUS
  62
7
  10
 359.606
  20
 250.887
  30
0.0
  40
 12.0000
  50
 189.220
  51
 266.889
   0
LINE
   8
LEVEL001
   6
CONTINUOUS
  62
7
  10
 358.955
  20
 238.905
  30
0.0
  11
 392.003
  21
 237.109
  31
0.0
   0
ARC
   8
LEVEL001
   6
CONTINUOUS
  62
7
  10
 329.500
  20
 246.000
  30
0.0
  40
 18.5000
  50
 9.22010
  51
 49.5887
   0
ARC
   8
LEVEL001
   6
CONTINUOUS
  62
7
  10
 380.563
  20
 289.377
  30
0.0
  40
 40.0000
  50
 184.652
  51
 240.000
   0
LINE
   8
LEVEL001
   6
CONTINUOUS
  62
7
  10
 391.000
  20
 237.163
  30
0.0
  11
 360.563
  21
 254.736
  31
0.0
   0
ARC
   8
LEVEL001
   6
CONTINUOUS
  62
7
  10
 615.000
  20
 104.500
  30
0.0
  40
 3.00000
  50
 180.000
  51
 270.000
   0
LINE
   8
LEVEL001
   6
CONTINUOUS
  62
7
  10
 612.000
  20
 104.500
  30
0.0
  11
 612.000
  21
 115.500
  31
0.0
   0
LINE
   8
LEVEL001
   6
CONTINUOUS
  62
7
  10
 603.500
  20
 130.500
  30
0.0
  11
 603.500
  21
 115.500
  31
0.0
   0
LINE
   8
LEVEL001
   6
CONTINUOUS
  62
7
  10
 610.500
  20
 146.500
  30
0.0
  11
 610.500
  21
 130.500
  31
0.0
   0
LINE
   8
LEVEL001
   6
CONTINUOUS
  62
7
  10
 695.000
  20
 101.500
  30
0.0
  11
 615.000
  21
 101.500
  31
0.0
   0
LINE
   8
LEVEL001
   6
CONTINUOUS
  62
7
  10
 653.955
  20
 146.500
  30
0.0
  11
 610.500
  21
 146.500
  31
0.0
   0
LINE
   8
LEVEL001
   6
CONTINUOUS
  62
7
  10
 603.500
  20
 115.500
  30
0.0
  11
 667.500
  21
 115.500
  31
0.0
   0
LINE
   8
LEVEL001
   6
CONTINUOUS
  62
7
  10
 616.005
  20
 132.500
  30
0.0
  11
 616.005
  21
 115.500
  31
0.0
   0
LINE
   8
LEVEL001
   6
CONTINUOUS
  62
7
  10
 616.005
  20
 130.500
  30
0.0
  11
 603.500
  21
 130.500
  31
0.0
   0
LINE
   8
LEVEL001
   6
CONTINUOUS
  62
7
  10
 665.000
  20
 115.500
  30
0.0
  11
 665.000
  21
 130.500
  31
0.0
   0
LINE
   8
LEVEL001
   6
CONTINUOUS
  62
7
  10
 658.036
  20
 132.500
  30
0.0
  11
 616.005
  21
 132.500
  31
0.0
   0
LINE
   8
LEVEL001
   6
CONTINUOUS
  62
7
  10
 778.000
  20
 193.000
  30
0.0
  11
 778.000
  21
 146.500
  31
0.0
   0
ARC
   8
LEVEL001
   6
CONTINUOUS
  62
7
  10
 775.000
  20
 104.500
  30
0.0
  40
 3.00000
  50
 270.000
  51
 0.180214E-9
   0
LINE
   8
LEVEL001
   6
CONTINUOUS
  62
7
  10
 778.000
  20
 104.500
  30
0.0
  11
 778.000
  21
 115.500
  31
0.0
   0
LINE
   8
LEVEL001
   6
CONTINUOUS
  62
7
  10
 786.500
  20
 130.500
  30
0.0
  11
 786.500
  21
 115.500
  31
0.0
   0
LINE
   8
LEVEL001
   6
CONTINUOUS
  62
7
  10
 779.500
  20
 146.500
  30
0.0
  11
 779.500
  21
 130.500
  31
0.0
   0
LINE
   8
LEVEL001
   6
CONTINUOUS
  62
7
  10
 695.000
  20
 101.500
  30
0.0
  11
 775.000
  21
 101.500
  31
0.0
   0
LINE
   8
LEVEL001
   6
CONTINUOUS
  62
7
  10
 786.500
  20
 115.500
  30
0.0
  11
 722.500
  21
 115.500
  31
0.0
   0
LINE
   8
LEVEL001
   6
CONTINUOUS
  62
7
  10
 773.995
  20
 132.500
  30
0.0
  11
 773.995
  21
 115.500
  31
0.0
   0
LINE
   8
LEVEL001
   6
CONTINUOUS
  62
7
  10
 773.995
  20
 130.500
  30
0.0
  11
 786.500
  21
 130.500
  31
0.0
   0
LINE
   8
LEVEL001
   6
CONTINUOUS
  62
7
  10
 725.000
  20
 115.500
  30
0.0
  11
 725.000
  21
 127.034
  31
0.0
   0
LINE
   8
LEVEL001
   6
CONTINUOUS
  62
7
  10
 728.118
  20
 132.500
  30
0.0
  11
 773.995
  21
 132.500
  31
0.0
   0
LINE
   8
LEVEL001
   6
CONTINUOUS
  62
7
  10
 741.952
  20
 146.500
  30
0.0
  11
 779.500
  21
 146.500
  31
0.0
   0
ARC
   8
LEVEL001
   6
CONTINUOUS
  62
7
  10
 748.217
  20
 213.500
  30
0.0
  40
 3.00000
  50
 270.000
  51
 5.90078
   0
LINE
   8
LEVEL001
   6
CONTINUOUS
  62
7
  10
 729.278
  20
 210.500
  30
0.0
  11
 748.217
  21
 210.500
  31
0.0
   0
ARC
   8
LEVEL001
   6
CONTINUOUS
  62
7
  10
 641.783
  20
 213.500
  30
0.0
  40
 3.00000
  50
 174.099
  51
 270.000
   0
LINE
   8
LEVEL001
   6
CONTINUOUS
  62
7
  10
 641.783
  20
 210.500
  30
0.0
  11
 660.722
  21
 210.500
  31
0.0
   0
ARC
   8
LEVEL001
   6
CONTINUOUS
  62
7
  10
 700.500
  20
 267.245
  30
0.0
  40
 3.00000
  50
 180.000
  51
 264.696
   0
ARC
   8
LEVEL001
   6
CONTINUOUS
  62
7
  10
 689.500
  20
 267.245
  30
0.0
  40
 3.00000
  50
 275.304
  51
 0.827182E-4
   0
ARC
   8
LEVEL001
   6
CONTINUOUS
  62
7
  10
 695.000
  20
 208.000
  30
0.0
  40
 56.5000
  50
 356.182
  51
 84.6962
   0
ARC
   8
LEVEL001
   6
CONTINUOUS
  62
7
  10
 695.000
  20
 208.000
  30
0.0
  40
 56.5000
  50
 95.3038
  51
 183.818
   0
LINE
   8
LEVEL001
   6
CONTINUOUS
  62
7
  10
 612.000
  20
 194.746
  30
0.0
  11
 612.000
  21
 146.500
  31
0.0
   0
LINE
   8
LEVEL001
   6
DASHDOT
  62
1
  10
 265.000
  20
 96.0641
  30
0.0
  11
 265.000
  21
 661.064
  31
0.0
   0
ARC
   8
LEVEL001
   6
CONTINUOUS
  62
7
  10
 323.000
  20
 636.500
  30
0.0
  40
 2.00000
  50
0.0
  51
 89.9998
   0
LINE
   8
LEVEL001
   6
CONTINUOUS
  62
7
  10
 325.000
  20
 636.500
  30
0.0
  11
 327.000
  21
 636.500
  31
0.0
   0
LINE
   8
LEVEL001
   6
CONTINUOUS
  62
7
  10
 327.000
  20
 632.000
  30
0.0
  11
 327.000
  21
 619.000
  31
0.0
   0
LINE
   8
LEVEL001
   6
CONTINUOUS
  62
7
  10
 327.000
  20
 619.000
  30
0.0
  11
 334.600
  21
 619.000
  31
0.0
   0
LINE
   8
LEVEL001
   6
CONTINUOUS
  62
7
  10
 334.600
  20
 619.000
  30
0.0
  11
 335.000
  21
 619.693
  31
0.0
   0
LINE
   8
LEVEL001
   6
CONTINUOUS
  62
7
  10
 335.000
  20
 619.693
  30
0.0
  11
 335.000
  21
 631.307
  31
0.0
   0
LINE
   8
LEVEL001
   6
CONTINUOUS
  62
7
  10
 335.000
  20
 631.307
  30
0.0
  11
 334.600
  21
 632.000
  31
0.0
   0
LINE
   8
LEVEL001
   6
CONTINUOUS
  62
7
  10
 334.600
  20
 632.000
  30
0.0
  11
 327.000
  21
 632.000
  31
0.0
   0
LINE
   8
LEVEL001
   6
CONTINUOUS
  62
7
  10
 334.600
  20
 632.000
  30
0.0
  11
 334.600
  21
 619.000
  31
0.0
   0
LINE
   8
LEVEL001
   6
DASHDOT
  62
1
  10
 335.000
  20
 625.500
  30
0.0
  11
 304.500
  21
 625.500
  31
0.0
   0
ARC
   8
LEVEL001
   6
CONTINUOUS
  62
7
  10
 215.500
  20
 653.500
  30
0.0
  40
 3.00000
  50
 90.0000
  51
 180.000
   0
LINE
   8
LEVEL001
   6
CONTINUOUS
  62
7
  10
 215.500
  20
 656.500
  30
0.0
  11
 265.000
  21
 656.500
  31
0.0
   0
LINE
   8
LEVEL001
   6
CONTINUOUS
  62
7
  10
 212.500
  20
 638.500
  30
0.0
  11
 212.500
  21
 653.500
  31
0.0
   0
LINE
   8
LEVEL001
   6
CONTINUOUS
  62
7
  10
 314.500
  20
 656.500
  30
0.0
  11
 265.000
  21
 656.500
  31
0.0
   0
ARC
   8
LEVEL001
   6
CONTINUOUS
  62
7
  10
 314.500
  20
 653.500
  30
0.0
  40
 3.00000
  50
0.0
  51
 90.0000
   0
LINE
   8
LEVEL001
   6
CONTINUOUS
  62
7
  10
 317.500
  20
 638.500
  30
0.0
  11
 317.500
  21
 653.500
  31
0.0
   0
LINE
   8
LEVEL003
   6
CONTINUOUS
  62
3
  10
 212.500
  20
 656.500
  30
0.0
  11
 212.500
  21
 697.064
  31
0.0
   0
LINE
   8
LEVEL003
   6
CONTINUOUS
  62
3
  10
 317.500
  20
 656.500
  30
0.0
  11
 317.500
  21
 697.064
  31
0.0
   0
LINE
   8
LEVEL003
   6
CONTINUOUS
  62
3
  10
 212.500
  20
 691.064
  30
0.0
  11
 317.500
  21
 691.064
  31
0.0
   0
LINE
   8
LEVEL003
   6
CONTINUOUS
  62
3
  10
 221.500
  20
 689.564
  30
0.0
  11
 212.500
  21
 691.064
  31
0.0
   0
LINE
   8
LEVEL003
   6
CONTINUOUS
  62
3
  10
 212.500
  20
 691.064
  30
0.0
  11
 221.500
  21
 692.564
  31
0.0
   0
LINE
   8
LEVEL003
   6
CONTINUOUS
  62
3
  10
 212.500
  20
 691.064
  30
0.0
  11
 221.500
  21
 691.064
  31
0.0
   0
LINE
   8
LEVEL003
   6
CONTINUOUS
  62
3
  10
 308.500
  20
 692.564
  30
0.0
  11
 317.500
  21
 691.064
  31
0.0
   0
LINE
   8
LEVEL003
   6
CONTINUOUS
  62
3
  10
 317.500
  20
 691.064
  30
0.0
  11
 308.500
  21
 689.564
  31
0.0
   0
LINE
   8
LEVEL003
   6
CONTINUOUS
  62
3
  10
 317.500
  20
 691.064
  30
0.0
  11
 308.500
  21
 691.064
  31
0.0
   0
TEXT
   8
LEVEL003
  62
3
  10
 250.000
  20
 685.464
  30
0.0
  40
 12.0000
   1
%%c105
   7
STANDARD
  72
1
  11
 265.000
  21
 693.464
  31
0.0
  73
2
   0
LINE
   8
LEVEL001
   6
DASHDOT
  62
1
  10
 230.000
  20
 651.282
  30
0.0
  11
 230.000
  21
 661.064
  31
0.0
   0
LINE
   8
LEVEL001
   6
DASHDOT
  62
1
  10
 247.500
  20
 651.282
  30
0.0
  11
 247.500
  21
 661.064
  31
0.0
   0
LINE
   8
LEVEL001
   6
DASHDOT
  62
1
  10
 282.500
  20
 651.282
  30
0.0
  11
 282.500
  21
 661.064
  31
0.0
   0
LINE
   8
LEVEL001
   6
DASHDOT
  62
1
  10
 300.000
  20
 651.282
  30
0.0
  11
 300.000
  21
 661.064
  31
0.0
   0
ARC
   8
LEVEL001
   6
CONTINUOUS
  62
7
  10
 645.500
  20
 653.500
  30
0.0
  40
 3.00000
  50
 90.0000
  51
 180.000
   0
LINE
   8
LEVEL001
   6
CONTINUOUS
  62
7
  10
 645.500
  20
 656.500
  30
0.0
  11
 695.000
  21
 656.500
  31
0.0
   0
LINE
   8
LEVEL001
   6
CONTINUOUS
  62
7
  10
 642.500
  20
 638.500
  30
0.0
  11
 642.500
  21
 653.500
  31
0.0
   0
LINE
   8
LEVEL001
   6
CONTINUOUS
  62
7
  10
 637.000
  20
 638.500
  30
0.0
  11
 695.000
  21
 638.500
  31
0.0
   0
ARC
   8
LEVEL001
   6
CONTINUOUS
  62
7
  10
 744.500
  20
 653.500
  30
0.0
  40
 3.00000
  50
 0.868503E-10
  51
 90.0000
   0
LINE
   8
LEVEL001
   6
CONTINUOUS
  62
7
  10
 744.500
  20
 656.500
  30
0.0
  11
 695.000
  21
 656.500
  31
0.0
   0
LINE
   8
LEVEL001
   6
CONTINUOUS
  62
7
  10
 747.500
  20
 638.500
  30
0.0
  11
 747.500
  21
 653.500
  31
0.0
   0
LINE
   8
LEVEL001
   6
CONTINUOUS
  62
7
  10
 753.000
  20
 638.500
  30
0.0
  11
 695.000
  21
 638.500
  31
0.0
   0
ARC
   8
LEVEL001
   6
CONTINUOUS
  62
7
  10
 683.000
  20
 571.500
  30
0.0
  40
 3.00000
  50
 180.000
  51
 270.000
   0
ARC
   8
LEVEL001
   6
CONTINUOUS
  62
7
  10
 707.000
  20
 571.500
  30
0.0
  40
 3.00000
  50
 270.000
  51
 0.217126E-10
   0
LINE
   8
LEVEL001
   6
CONTINUOUS
  62
7
  10
 680.000
  20
 636.500
  30
0.0
  11
 710.000
  21
 636.500
  31
0.0
   0
ARC
   8
LEVEL001
   6
CONTINUOUS
  62
7
  10
 677.000
  20
 610.500
  30
0.0
  40
 3.00000
  50
0.0
  51
 90.0000
   0
ARC
   8
LEVEL001
   6
CONTINUOUS
  62
7
  10
 713.000
  20
 610.500
  30
0.0
  40
 3.00000
  50
 90.0000
  51
 180.000
   0
LINE
   8
LEVEL001
   6
CONTINUOUS
  62
7
  10
 710.000
  20
 636.500
  30
0.0
  11
 710.000
  21
 571.500
  31
0.0
   0
LINE
   8
LEVEL001
   6
CONTINUOUS
  62
7
  10
 680.000
  20
 636.500
  30
0.0
  11
 680.000
  21
 571.500
  31
0.0
   0
LINE
   8
LEVEL001
   6
CONTINUOUS
  62
7
  10
 695.000
  20
 628.964
  30
0.0
  11
 698.000
  21
 627.232
  31
0.0
   0
LINE
   8
LEVEL001
   6
CONTINUOUS
  62
7
  10
 698.000
  20
 627.232
  30
0.0
  11
 698.000
  21
 623.768
  31
0.0
   0
LINE
   8
LEVEL001
   6
CONTINUOUS
  62
7
  10
 698.000
  20
 623.768
  30
0.0
  11
 695.000
  21
 622.036
  31
0.0
   0
LINE
   8
LEVEL001
   6
CONTINUOUS
  62
7
  10
 695.000
  20
 622.036
  30
0.0
  11
 692.000
  21
 623.768
  31
0.0
   0
LINE
   8
LEVEL001
   6
CONTINUOUS
  62
7
  10
 692.000
  20
 623.768
  30
0.0
  11
 692.000
  21
 627.232
  31
0.0
   0
LINE
   8
LEVEL001
   6
CONTINUOUS
  62
7
  10
 692.000
  20
 627.232
  30
0.0
  11
 695.000
  21
 628.964
  31
0.0
   0
CIRCLE
   8
LEVEL001
   6
CONTINUOUS
  62
7
  10
 695.000
  20
 625.500
  30
0.0
  40
 6.50000
   0
CIRCLE
   8
LEVEL001
   6
CONTINUOUS
  62
7
  10
 695.000
  20
 625.500
  30
0.0
  40
 5.80718
   0
LINE
   8
LEVEL001
   6
DASHDOT
  62
1
  10
 704.500
  20
 625.500
  30
0.0
  11
 685.500
  21
 625.500
  31
0.0
   0
LINE
   8
LEVEL001
   6
CONTINUOUS
  62
7
  10
 695.000
  20
 589.964
  30
0.0
  11
 698.000
  21
 588.232
  31
0.0
   0
LINE
   8
LEVEL001
   6
CONTINUOUS
  62
7
  10
 698.000
  20
 588.232
  30
0.0
  11
 698.000
  21
 584.768
  31
0.0
   0
LINE
   8
LEVEL001
   6
CONTINUOUS
  62
7
  10
 698.000
  20
 584.768
  30
0.0
  11
 695.000
  21
 583.036
  31
0.0
   0
LINE
   8
LEVEL001
   6
CONTINUOUS
  62
7
  10
 695.000
  20
 583.036
  30
0.0
  11
 692.000
  21
 584.768
  31
0.0
   0
LINE
   8
LEVEL001
   6
CONTINUOUS
  62
7
  10
 692.000
  20
 584.768
  30
0.0
  11
 692.000
  21
 588.232
  31
0.0
   0
LINE
   8
LEVEL001
   6
CONTINUOUS
  62
7
  10
 692.000
  20
 588.232
  30
0.0
  11
 695.000
  21
 589.964
  31
0.0
   0
CIRCLE
   8
LEVEL001
   6
CONTINUOUS
  62
7
  10
 695.000
  20
 586.500
  30
0.0
  40
 6.50000
   0
CIRCLE
   8
LEVEL001
   6
CONTINUOUS
  62
7
  10
 695.000
  20
 586.500
  30
0.0
  40
 5.80718
   0
LINE
   8
LEVEL001
   6
DASHDOT
  62
1
  10
 704.500
  20
 586.500
  30
0.0
  11
 685.500
  21
 586.500
  31
0.0
   0
ARC
   8
LEVEL001
   6
CONTINUOUS
  62
7
  10
 700.500
  20
 565.500
  30
0.0
  40
 3.00000
  50
 90.0000
  51
 180.000
   0
ARC
   8
LEVEL001
   6
CONTINUOUS
  62
7
  10
 689.500
  20
 565.500
  30
0.0
  40
 3.00000
  50
 0.282264E-10
  51
 90.0000
   0
LINE
   8
LEVEL001
   6
CONTINUOUS
  62
7
  10
 683.000
  20
 568.500
  30
0.0
  11
 707.000
  21
 568.500
  31
0.0
   0
LINE
   8
LEVEL001
   6
CONTINUOUS
  62
7
  10
 692.500
  20
 565.500
  30
0.0
  11
 692.500
  21
 241.808
  31
0.0
   0
LINE
   8
LEVEL001
   6
CONTINUOUS
  62
7
  10
 697.500
  20
 565.500
  30
0.0
  11
 697.500
  21
 241.808
  31
0.0
   0
LINE
   8
LEVEL001
   6
DASHDOT
  62
1
  10
 695.000
  20
 90.0000
  30
0.0
  11
 695.000
  21
 665.000
  31
0.0
   0
LINE
   8
LEVEL001
   6
CONTINUOUS
  62
7
  10
 327.000
  20
 582.000
  30
0.0
  11
 327.000
  21
 569.000
  31
0.0
   0
LINE
   8
LEVEL001
   6
CONTINUOUS
  62
7
  10
 327.000
  20
 569.000
  30
0.0
  11
 334.600
  21
 569.000
  31
0.0
   0
LINE
   8
LEVEL001
   6
CONTINUOUS
  62
7
  10
 334.600
  20
 569.000
  30
0.0
  11
 335.000
  21
 569.693
  31
0.0
   0
LINE
   8
LEVEL001
   6
CONTINUOUS
  62
7
  10
 335.000
  20
 569.693
  30
0.0
  11
 335.000
  21
 581.307
  31
0.0
   0
LINE
   8
LEVEL001
   6
CONTINUOUS
  62
7
  10
 335.000
  20
 581.307
  30
0.0
  11
 334.600
  21
 582.000
  31
0.0
   0
LINE
   8
LEVEL001
   6
CONTINUOUS
  62
7
  10
 334.600
  20
 582.000
  30
0.0
  11
 327.000
  21
 582.000
  31
0.0
   0
LINE
   8
LEVEL001
   6
CONTINUOUS
  62
7
  10
 334.600
  20
 582.000
  30
0.0
  11
 334.600
  21
 569.000
  31
0.0
   0
LINE
   8
LEVEL001
   6
DASHDOT
  62
1
  10
 335.000
  20
 575.500
  30
0.0
  11
 304.500
  21
 575.500
  31
0.0
   0
ARC
   8
LEVEL001
   6
CONTINUOUS
  62
7
  10
 207.000
  20
 636.500
  30
0.0
  40
 2.00000
  50
 90.0002
  51
 180.000
   0
ARC
   8
LEVEL001
   6
CONTINUOUS
  62
7
  10
 164.560
  20
 254.935
  30
0.0
  40
 35.0000
  50
 328.341
  51
 358.693
   0
LINE
   8
LEVEL001
   6
CONTINUOUS
  62
7
  10
 205.000
  20
 636.500
  30
0.0
  11
 205.000
  21
 615.500
  31
0.0
   0
ARC
   8
LEVEL001
   6
CONTINUOUS
  62
7
  10
 205.712
  20
 611.713
  30
0.0
  40
 2.00000
  50
 358.694
  51
 71.2217
   0
LINE
   8
LEVEL001
   6
CONTINUOUS
  62
7
  10
 207.712
  20
 611.667
  30
0.0
  11
 199.551
  21
 254.136
  31
0.0
   0
ARC
   8
LEVEL001
   6
CONTINUOUS
  62
7
  10
 207.000
  20
 615.500
  30
0.0
  40
 2.00000
  50
 180.000
  51
 251.221
   0
LINE
   8
LEVEL001
   6
CONTINUOUS
  62
7
  10
 327.000
  20
 636.500
  30
0.0
  11
 327.000
  21
 560.500
  31
0.0
   0
ARC
   8
LEVEL001
   6
CONTINUOUS
  62
7
  10
 325.547
  20
 556.538
  30
0.0
  40
 2.00000
  50
 97.8600
  51
 181.307
   0
ARC
   8
LEVEL001
   6
CONTINUOUS
  62
7
  10
 325.000
  20
 560.500
  30
0.0
  40
 2.00000
  50
 277.860
  51
 0.146560E-9
   0
ARC
   8
LEVEL001
   6
CONTINUOUS
  62
7
  10
 349.889
  20
 278.888
  30
0.0
  40
 20.0000
  50
 181.308
  51
 233.120
   0
ARC
   8
LEVEL001
   6
CONTINUOUS
  62
7
  10
 245.164
  20
 139.307
  30
0.0
  40
 154.500
  50
 51.4255
  51
 53.1200
   0
LINE
   8
LEVEL001
   6
CONTINUOUS
  62
7
  10
 326.900
  20
 560.495
  30
0.0
  11
 340.613
  21
 287.371
  31
0.0
   0
LINE
   8
LEVEL001
   6
CONTINUOUS
  62
7
  10
 635.000
  20
 636.500
  30
0.0
  11
 635.000
  21
 615.500
  31
0.0
   0
ARC
   8
LEVEL001
   6
CONTINUOUS
  62
7
  10
 635.712
  20
 611.713
  30
0.0
  40
 2.00000
  50
 358.693
  51
 71.2204
   0
ARC
   8
LEVEL001
   6
CONTINUOUS
  62
7
  10
 637.000
  20
 615.500
  30
0.0
  40
 2.00000
  50
 180.000
  51
 251.221
   0
ARC
   8
LEVEL001
   6
CONTINUOUS
  62
7
  10
 637.000
  20
 636.500
  30
0.0
  40
 2.00000
  50
 90.0009
  51
 180.000
   0
LINE
   8
LEVEL001
   6
CONTINUOUS
  62
7
  10
 637.712
  20
 613.500
  30
0.0
  11
 677.000
  21
 613.500
  31
0.0
   0
LINE
   8
LEVEL001
   6
CONTINUOUS
  62
7
  10
 755.000
  20
 636.500
  30
0.0
  11
 755.000
  21
 615.500
  31
0.0
   0
ARC
   8
LEVEL001
   6
CONTINUOUS
  62
7
  10
 754.288
  20
 611.713
  30
0.0
  40
 2.00000
  50
 108.780
  51
 181.307
   0
ARC
   8
LEVEL001
   6
CONTINUOUS
  62
7
  10
 753.000
  20
 615.500
  30
0.0
  40
 2.00000
  50
 288.780
  51
 0.181504E-2
   0
ARC
   8
LEVEL001
   6
CONTINUOUS
  62
7
  10
 753.000
  20
 636.500
  30
0.0
  40
 2.00000
  50
 0.875965E-3
  51
 89.9991
   0
LINE
   8
LEVEL001
   6
CONTINUOUS
  62
7
  10
 713.000
  20
 613.500
  30
0.0
  11
 752.288
  21
 613.500
  31
0.0
   0
ARC
   8
LEVEL001
   6
CONTINUOUS
  62
7
  10
 594.560
  20
 254.935
  30
0.0
  40
 35.0000
  50
 328.341
  51
 358.693
   0
ARC
   8
LEVEL001
   6
CONTINUOUS
  62
7
  10
 695.000
  20
 193.000
  30
0.0
  40
 83.0000
  50
 148.340
  51
 180.000
   0
ARC
   8
LEVEL001
   6
CONTINUOUS
  62
7
  10
 795.441
  20
 254.932
  30
0.0
  40
 35.0000
  50
 181.307
  51
 211.658
   0
LINE
   8
LEVEL001
   6
CONTINUOUS
  62
7
  10
 752.288
  20
 611.668
  30
0.0
  11
 760.450
  21
 254.134
  31
0.0
   0
ARC
   8
LEVEL001
   6
CONTINUOUS
  62
7
  10
 695.000
  20
 193.000
  30
0.0
  40
 83.0000
  50
 0.457817E-4
  51
 31.6583
   0
TEXT
   8
LEVEL050
  62
3
  10
 945.819
  20
 86.4923
  30
0.0
  40
 7.50000
   1
１
  41
 0.600000
   7
STANDARD
   0
TEXT
   8
LEVEL050
  62
2
  10
 977.250
  20
 79.5000
  30
0.0
  40
 15.0000
   1
　ＯＪ　ジャーナルジャッキ
   7
STANDARD
   0
TEXT
   8
LEVEL020
  62
6
  10
 435.000
  20
 765.000
  30
0.0
  40
 15.0000
   1
ストローク
   7
STANDARD
   0
TEXT
   8
LEVEL020
  62
6
  10
 435.000
  20
 786.000
  30
0.0
  40
 15.0000
   1
揚　　　力
   7
STANDARD
   0
TEXT
   8
LEVEL020
  62
6
  10
 690.000
  20
 765.000
  30
0.0
  40
 15.0000
   1
ｍｍ
  41
 0.700000
   7
STANDARD
   0
LINE
   8
LEVEL020
   6
CONTINUOUS
  62
6
  10
 435.000
  20
 804.000
  30
0.0
  11
 735.000
  21
 804.000
  31
0.0
   0
LINE
   8
LEVEL020
   6
CONTINUOUS
  62
6
  10
 435.000
  20
 783.000
  30
0.0
  11
 735.000
  21
 783.000
  31
0.0
   0
LINE
   8
LEVEL020
   6
CONTINUOUS
  62
6
  10
 435.000
  20
 762.000
  30
0.0
  11
 735.000
  21
 762.000
  31
0.0
   0
TEXT
   8
LEVEL020
  62
6
  10
 435.000
  20
 807.000
  30
0.0
  40
 15.0000
   1
形　　　式
   7
STANDARD
   0
TEXT
   8
LEVEL020
  62
6
  10
 435.000
  20
 828.000
  30
0.0
  40
 15.0000
   1
仕　　　様
   7
STANDARD
   0
LINE
   8
LEVEL020
   6
CONTINUOUS
  62
6
  10
 435.000
  20
 825.000
  30
0.0
  11
 510.000
  21
 825.000
  31
0.0
   0
TEXT
   8
LEVEL020
  62
6
  10
 435.000
  20
 744.000
  30
0.0
  40
 15.0000
   1
最低高さ
   7
STANDARD
   0
TEXT
   8
LEVEL020
  62
6
  10
 690.000
  20
 744.000
  30
0.0
  40
 15.0000
   1
ｍｍ
  41
 0.700000
   7
STANDARD
   0
LINE
   8
LEVEL020
   6
CONTINUOUS
  62
6
  10
 435.000
  20
 741.000
  30
0.0
  11
 735.000
  21
 741.000
  31
0.0
   0
LINE
   8
LEVEL020
   6
CONTINUOUS
  62
6
  10
 435.000
  20
 720.000
  30
0.0
  11
 735.000
  21
 720.000
  31
0.0
   0
LINE
   8
LEVEL020
   6
CONTINUOUS
  62
6
  10
 435.000
  20
 699.000
  30
0.0
  11
 735.000
  21
 699.000
  31
0.0
   0
TEXT
   8
LEVEL020
  62
6
  10
 435.000
  20
 702.000
  30
0.0
  40
 15.0000
   1
付　属　品
   7
STANDARD
   0
TEXT
   8
LEVEL020
  62
6
  10
 606.000
  20
 702.000
  30
0.0
  40
 15.0000
   1
　　　　　　１
  41
 0.700000
   7
STANDARD
   0
TEXT
   8
LEVEL020
  62
6
  10
 690.000
  20
 702.000
  30
0.0
  40
 15.0000
   1
本
  41
 0.500000
   7
STANDARD
   0
TEXT
   8
LEVEL020
  62
6
  10
 690.000
  20
 723.000
  30
0.0
  40
 15.0000
   1
ｋｇ
  41
 0.700000
   7
STANDARD
   0
TEXT
   8
LEVEL050
  62
3
  10
 951.750
  20
 78.0000
  30
0.0
  40
 7.50000
   1
　３
  41
 0.600000
   7
STANDARD
   0
TEXT
   8
LEVEL050
  62
2
  10
 1022.25
  20
 99.0000
  30
0.0
  40
 15.0000
   1
　　ＪＪ－５０３５
   7
STANDARD
   0
TEXT
   8
LEVEL020
  62
6
  10
 606.000
  20
 807.000
  30
0.0
  40
 15.0000
   1
　　　ＪＪ－５０３５
  41
 0.700000
   7
STANDARD
   0
TEXT
   8
LEVEL020
  62
6
  10
 606.000
  20
 765.000
  30
0.0
  40
 15.0000
   1
　　　　３５０
  41
 0.700000
   7
STANDARD
   0
TEXT
   8
LEVEL020
  62
6
  10
 606.000
  20
 744.000
  30
0.0
  40
 15.0000
   1
　　　　５５５
  41
 0.700000
   7
STANDARD
   0
TEXT
   8
LEVEL020
  62
6
  10
 606.000
  20
 723.000
  30
0.0
  40
 15.0000
   1
　　　約　４７
  41
 0.700000
   7
STANDARD
   0
TEXT
   8
LEVEL020
  62
6
  10
 520.500
  20
 702.000
  30
0.0
  40
 15.0000
   1
ハンドル棒（%%c３２×８００Ｌ）
  41
 0.600000
   7
STANDARD
   0
LINE
   8
LEVEL003
   6
CONTINUOUS
  62
3
  10
 182.000
  20
 101.500
  30
0.0
  11
 114.000
  21
 101.500
  31
0.0
   0
LINE
   8
LEVEL003
   6
CONTINUOUS
  62
3
  10
 212.500
  20
 656.500
  30
0.0
  11
 114.000
  21
 656.500
  31
0.0
   0
LINE
   8
LEVEL003
   6
CONTINUOUS
  62
3
  10
 120.000
  20
 101.500
  30
0.0
  11
 120.000
  21
 656.500
  31
0.0
   0
LINE
   8
LEVEL003
   6
CONTINUOUS
  62
3
  10
 121.500
  20
 110.500
  30
0.0
  11
 120.000
  21
 101.500
  31
0.0
   0
LINE
   8
LEVEL003
   6
CONTINUOUS
  62
3
  10
 120.000
  20
 101.500
  30
0.0
  11
 118.500
  21
 110.500
  31
0.0
   0
LINE
   8
LEVEL003
   6
CONTINUOUS
  62
3
  10
 120.000
  20
 101.500
  30
0.0
  11
 120.000
  21
 110.500
  31
0.0
   0
LINE
   8
LEVEL003
   6
CONTINUOUS
  62
3
  10
 118.500
  20
 647.500
  30
0.0
  11
 120.000
  21
 656.500
  31
0.0
   0
LINE
   8
LEVEL003
   6
CONTINUOUS
  62
3
  10
 120.000
  20
 656.500
  30
0.0
  11
 121.500
  21
 647.500
  31
0.0
   0
LINE
   8
LEVEL003
   6
CONTINUOUS
  62
3
  10
 120.000
  20
 656.500
  30
0.0
  11
 120.000
  21
 647.500
  31
0.0
   0
TEXT
   8
LEVEL003
  62
3
  10
 125.600
  20
 370.000
  30
0.0
  40
 12.0000
   1
555
  50
 90.0000
  41
 0.500000
   7
STANDARD
  72
1
  11
 117.600
  21
 379.000
  31
0.0
  73
2
   0
TEXT
   8
LEVEL050
  62
3
  10
 1023.75
  20
 147.750
  30
0.0
  40
 9.45000
   1
ＦＬＮＯ．　ＬＡＮ
   7
STANDARD
   0
LINE
   8
LEVEL001
   6
CONTINUOUS
  62
3
  10
 212.500
  20
 656.500
  30
0.0
  11
 159.000
  21
 656.500
  31
0.0
   0
LINE
   8
LEVEL001
   6
CONTINUOUS
  62
3
  10
 204.000
  20
 638.500
  30
0.0
  11
 159.000
  21
 638.500
  31
0.0
   0
LINE
   8
LEVEL001
   6
CONTINUOUS
  62
3
  10
 165.000
  20
 656.500
  30
0.0
  11
 165.000
  21
 638.500
  31
0.0
   0
LINE
   8
LEVEL001
   6
CONTINUOUS
  62
3
  10
 163.500
  20
 647.500
  30
0.0
  11
 165.000
  21
 656.500
  31
0.0
   0
LINE
   8
LEVEL001
   6
CONTINUOUS
  62
3
  10
 165.000
  20
 656.500
  30
0.0
  11
 166.500
  21
 647.500
  31
0.0
   0
LINE
   8
LEVEL001
   6
CONTINUOUS
  62
3
  10
 165.000
  20
 656.500
  30
0.0
  11
 165.000
  21
 647.500
  31
0.0
   0
LINE
   8
LEVEL001
   6
CONTINUOUS
  62
3
  10
 166.500
  20
 647.500
  30
0.0
  11
 165.000
  21
 638.500
  31
0.0
   0
LINE
   8
LEVEL001
   6
CONTINUOUS
  62
3
  10
 165.000
  20
 638.500
  30
0.0
  11
 163.500
  21
 647.500
  31
0.0
   0
LINE
   8
LEVEL001
   6
CONTINUOUS
  62
3
  10
 165.000
  20
 638.500
  30
0.0
  11
 165.000
  21
 647.500
  31
0.0
   0
TEXT
   8
LEVEL001
  62
3
  10
 170.603
  20
 640.222
  30
0.0
  40
 12.0000
   1
18
  50
 90.0000
  41
 0.500000
   7
STANDARD
  72
1
  11
 162.603
  21
 646.222
  31
0.0
  73
2
   0
LINE
   8
LEVEL001
   6
DASHDOT
  62
1
  10
 660.000
  20
 651.282
  30
0.0
  11
 660.000
  21
 661.064
  31
0.0
   0
LINE
   8
LEVEL001
   6
DASHDOT
  62
1
  10
 677.500
  20
 651.282
  30
0.0
  11
 677.500
  21
 661.064
  31
0.0
   0
LINE
   8
LEVEL001
   6
DASHDOT
  62
1
  10
 712.500
  20
 651.282
  30
0.0
  11
 712.500
  21
 661.064
  31
0.0
   0
LINE
   8
LEVEL001
   6
DASHDOT
  62
1
  10
 730.000
  20
 651.282
  30
0.0
  11
 730.000
  21
 661.064
  31
0.0
   0
LINE
   8
LEVEL001
   6
DASHDOT
  62
1
  10
 635.000
  20
 106.064
  30
0.0
  11
 635.000
  21
 98.7821
  31
0.0
   0
LINE
   8
LEVEL001
   6
DASHDOT
  62
1
  10
 655.000
  20
 106.064
  30
0.0
  11
 655.000
  21
 98.7821
  31
0.0
   0
LINE
   8
LEVEL001
   6
DASHDOT
  62
1
  10
 675.000
  20
 105.564
  30
0.0
  11
 675.000
  21
 98.7821
  31
0.0
   0
LINE
   8
LEVEL001
   6
DASHDOT
  62
1
  10
 715.000
  20
 106.064
  30
0.0
  11
 715.000
  21
 98.7821
  31
0.0
   0
LINE
   8
LEVEL001
   6
DASHDOT
  62
1
  10
 735.000
  20
 106.064
  30
0.0
  11
 735.000
  21
 98.7821
  31
0.0
   0
LINE
   8
LEVEL001
   6
DASHDOT
  62
1
  10
 755.000
  20
 106.064
  30
0.0
  11
 755.000
  21
 98.7821
  31
0.0
   0
TEXT
   8
LEVEL020
  62
6
  10
 606.000
  20
 786.000
  30
0.0
  40
 15.0000
   1
　　　　５００
  41
 0.700000
   7
STANDARD
   0
TEXT
   8
LEVEL020
  62
6
  10
 690.000
  20
 786.000
  30
0.0
  40
 15.0000
   1
ｋＮ
  41
 0.700000
   7
STANDARD
   0
TEXT
   8
LEVEL020
  62
6
  10
 435.000
  20
 723.000
  30
0.0
  40
 15.0000
   1
質　　　量
   7
STANDARD
   0
CIRCLE
   8
LEVEL001
   6
DASHDOT
  62
1
  10
 265.000
  20
 477.500
  30
0.0
  40
 38.0000
   0
LINE
   8
LEVEL001
   6
CONTINUOUS
  62
7
  10
 595.000
  20
 528.000
  30
0.0
  11
 595.000
  21
 503.000
  31
0.0
   0
LINE
   8
LEVEL001
   6
CONTINUOUS
  62
7
  10
 600.500
  20
 515.500
  30
0.0
  11
 600.500
  21
 439.500
  31
0.0
   0
LINE
   8
LEVEL001
   6
CONTINUOUS
  62
7
  10
 611.500
  20
 515.500
  30
0.0
  11
 611.500
  21
 439.500
  31
0.0
   0
ARC
   8
LEVEL001
   6
CONTINUOUS
  62
7
  10
 606.000
  20
 515.500
  30
0.0
  40
 5.50000
  50
0.0
  51
 180.000
   0
LINE
   8
LEVEL001
   6
DASHDOT
  62
1
  10
 606.000
  20
 525.500
  30
0.0
  11
 606.000
  21
 430.500
  31
0.0
   0
LINE
   8
LEVEL001
   6
CONTINUOUS
  62
7
  10
 600.500
  20
 503.000
  30
0.0
  11
 595.000
  21
 503.000
  31
0.0
   0
LINE
   8
LEVEL001
   6
CONTINUOUS
  62
7
  10
 595.000
  20
 503.000
  30
0.0
  11
 594.000
  21
 504.000
  31
0.0
   0
LINE
   8
LEVEL001
   6
CONTINUOUS
  62
7
  10
 594.000
  20
 504.000
  30
0.0
  11
 594.000
  21
 527.000
  31
0.0
   0
LINE
   8
LEVEL001
   6
CONTINUOUS
  62
7
  10
 594.000
  20
 527.000
  30
0.0
  11
 595.000
  21
 528.000
  31
0.0
   0
LINE
   8
LEVEL001
   6
CONTINUOUS
  62
7
  10
 595.000
  20
 528.000
  30
0.0
  11
 618.000
  21
 528.000
  31
0.0
   0
LINE
   8
LEVEL001
   6
CONTINUOUS
  62
7
  10
 618.000
  20
 528.000
  30
0.0
  11
 620.000
  21
 523.000
  31
0.0
   0
LINE
   8
LEVEL001
   6
CONTINUOUS
  62
7
  10
 620.000
  20
 523.000
  30
0.0
  11
 620.000
  21
 508.000
  31
0.0
   0
LINE
   8
LEVEL001
   6
CONTINUOUS
  62
7
  10
 620.000
  20
 508.000
  30
0.0
  11
 618.000
  21
 503.000
  31
0.0
   0
LINE
   8
LEVEL001
   6
CONTINUOUS
  62
7
  10
 618.000
  20
 503.000
  30
0.0
  11
 611.500
  21
 503.000
  31
0.0
   0
LINE
   8
LEVEL001
   6
DASHDOT
  62
1
  10
 590.000
  20
 515.500
  30
0.0
  11
 643.482
  21
 515.500
  31
0.0
   0
ARC
   8
LEVEL001
   6
CONTINUOUS
  62
7
  10
 606.000
  20
 439.500
  30
0.0
  40
 5.50000
  50
 180.000
  51
0.0
   0
LINE
   8
LEVEL001
   6
CONTINUOUS
  62
7
  10
 618.000
  20
 528.000
  30
0.0
  11
 618.000
  21
 503.000
  31
0.0
   0
ARC
   8
LEVEL003
   6
CONTINUOUS
  62
7
  10
 628.549
  20
 533.500
  30
0.0
  40
 3.00000
  50
 270.000
  51
 356.690
   0
LINE
   8
LEVEL001
   6
CONTINUOUS
  62
7
  10
 636.188
  20
 613.616
  30
0.0
  11
 631.544
  21
 533.327
  31
0.0
   0
ARC
   8
LEVEL003
   6
CONTINUOUS
  62
7
  10
 626.467
  20
 497.500
  30
0.0
  40
 3.00000
  50
 356.690
  51
 90.0000
   0
LINE
   8
LEVEL001
   6
CONTINUOUS
  62
7
  10
 629.462
  20
 497.327
  30
0.0
  11
 612.139
  21
 197.792
  31
0.0
   0
LINE
   8
LEVEL003
   6
CONTINUOUS
  62
7
  10
 620.000
  20
 528.500
  30
0.0
  11
 620.000
  21
 523.000
  31
0.0
   0
ARC
   8
LEVEL003
   6
CONTINUOUS
  62
7
  10
 622.000
  20
 528.500
  30
0.0
  40
 2.00000
  50
 90.0000
  51
 180.000
   0
LINE
   8
LEVEL003
   6
CONTINUOUS
  62
7
  10
 620.000
  20
 508.000
  30
0.0
  11
 620.000
  21
 502.500
  31
0.0
   0
ARC
   8
LEVEL003
   6
CONTINUOUS
  62
7
  10
 622.000
  20
 502.500
  30
0.0
  40
 2.00000
  50
 180.000
  51
 270.000
   0
LINE
   8
LEVEL003
   6
CONTINUOUS
  62
7
  10
 622.000
  20
 530.500
  30
0.0
  11
 632.927
  21
 530.500
  31
0.0
   0
ARC
   8
LEVEL003
   6
CONTINUOUS
  62
7
  10
 632.927
  20
 533.500
  30
0.0
  40
 3.00000
  50
 270.000
  51
 358.692
   0
LINE
   8
LEVEL003
   6
CONTINUOUS
  62
7
  10
 622.000
  20
 500.500
  30
0.0
  11
 632.105
  21
 500.500
  31
0.0
   0
ARC
   8
LEVEL003
   6
CONTINUOUS
  62
7
  10
 632.105
  20
 497.500
  30
0.0
  40
 3.00000
  50
 358.692
  51
 90.0000
   0
LINE
   8
LEVEL001
   6
CONTINUOUS
  62
7
  10
 637.712
  20
 611.667
  30
0.0
  11
 629.551
  21
 254.136
  31
0.0
   0
LINE
   8
LEVEL001
   6
CONTINUOUS
  62
7
  10
 795.000
  20
 528.000
  30
0.0
  11
 795.000
  21
 503.000
  31
0.0
   0
LINE
   8
LEVEL001
   6
CONTINUOUS
  62
7
  10
 789.500
  20
 515.500
  30
0.0
  11
 789.500
  21
 439.500
  31
0.0
   0
LINE
   8
LEVEL001
   6
CONTINUOUS
  62
7
  10
 778.500
  20
 515.500
  30
0.0
  11
 778.500
  21
 439.500
  31
0.0
   0
ARC
   8
LEVEL001
   6
CONTINUOUS
  62
7
  10
 784.000
  20
 515.500
  30
0.0
  40
 5.50000
  50
0.0
  51
 180.000
   0
LINE
   8
LEVEL001
   6
DASHDOT
  62
1
  10
 784.000
  20
 525.500
  30
0.0
  11
 784.000
  21
 430.500
  31
0.0
   0
LINE
   8
LEVEL001
   6
CONTINUOUS
  62
7
  10
 789.500
  20
 503.000
  30
0.0
  11
 795.000
  21
 503.000
  31
0.0
   0
LINE
   8
LEVEL001
   6
CONTINUOUS
  62
7
  10
 795.000
  20
 503.000
  30
0.0
  11
 796.000
  21
 504.000
  31
0.0
   0
LINE
   8
LEVEL001
   6
CONTINUOUS
  62
7
  10
 796.000
  20
 504.000
  30
0.0
  11
 796.000
  21
 527.000
  31
0.0
   0
LINE
   8
LEVEL001
   6
CONTINUOUS
  62
7
  10
 796.000
  20
 527.000
  30
0.0
  11
 795.000
  21
 528.000
  31
0.0
   0
LINE
   8
LEVEL001
   6
CONTINUOUS
  62
7
  10
 795.000
  20
 528.000
  30
0.0
  11
 772.000
  21
 528.000
  31
0.0
   0
LINE
   8
LEVEL001
   6
CONTINUOUS
  62
7
  10
 772.000
  20
 528.000
  30
0.0
  11
 770.000
  21
 523.000
  31
0.0
   0
LINE
   8
LEVEL001
   6
CONTINUOUS
  62
7
  10
 770.000
  20
 523.000
  30
0.0
  11
 770.000
  21
 508.000
  31
0.0
   0
LINE
   8
LEVEL001
   6
CONTINUOUS
  62
7
  10
 770.000
  20
 508.000
  30
0.0
  11
 772.000
  21
 503.000
  31
0.0
   0
LINE
   8
LEVEL001
   6
CONTINUOUS
  62
7
  10
 772.000
  20
 503.000
  30
0.0
  11
 778.500
  21
 503.000
  31
0.0
   0
LINE
   8
LEVEL001
   6
DASHDOT
  62
1
  10
 800.000
  20
 515.500
  30
0.0
  11
 746.518
  21
 515.500
  31
0.0
   0
LINE
   8
LEVEL001
   6
CONTINUOUS
  62
7
  10
 772.000
  20
 528.000
  30
0.0
  11
 772.000
  21
 503.000
  31
0.0
   0
LINE
   8
LEVEL003
   6
CONTINUOUS
  62
7
  10
 770.000
  20
 528.500
  30
0.0
  11
 770.000
  21
 523.000
  31
0.0
   0
ARC
   8
LEVEL003
   6
CONTINUOUS
  62
7
  10
 768.000
  20
 528.500
  30
0.0
  40
 2.00000
  50
0.0
  51
 90.0000
   0
LINE
   8
LEVEL003
   6
CONTINUOUS
  62
7
  10
 770.000
  20
 508.000
  30
0.0
  11
 770.000
  21
 502.500
  31
0.0
   0
ARC
   8
LEVEL003
   6
CONTINUOUS
  62
7
  10
 768.000
  20
 502.500
  30
0.0
  40
 2.00000
  50
 270.000
  51
 0.651378E-11
   0
LINE
   8
LEVEL003
   6
CONTINUOUS
  62
7
  10
 768.000
  20
 530.500
  30
0.0
  11
 757.073
  21
 530.500
  31
0.0
   0
LINE
   8
LEVEL003
   6
CONTINUOUS
  62
7
  10
 768.000
  20
 500.500
  30
0.0
  11
 757.895
  21
 500.500
  31
0.0
   0
ARC
   8
LEVEL001
   6
CONTINUOUS
  62
7
  10
 784.000
  20
 439.500
  30
0.0
  40
 5.50000
  50
 180.000
  51
0.0
   0
ARC
   8
LEVEL003
   6
CONTINUOUS
  62
7
  10
 761.451
  20
 533.500
  30
0.0
  40
 3.00000
  50
 183.310
  51
 270.000
   0
ARC
   8
LEVEL003
   6
CONTINUOUS
  62
7
  10
 763.533
  20
 497.500
  30
0.0
  40
 3.00000
  50
 90.0000
  51
 183.310
   0
ARC
   8
LEVEL003
   6
CONTINUOUS
  62
7
  10
 757.073
  20
 533.500
  30
0.0
  40
 3.00000
  50
 181.308
  51
 270.000
   0
ARC
   8
LEVEL003
   6
CONTINUOUS
  62
7
  10
 757.895
  20
 497.500
  30
0.0
  40
 3.00000
  50
 90.0000
  51
 181.308
   0
LINE
   8
LEVEL001
   6
CONTINUOUS
  62
7
  10
 753.813
  20
 613.616
  30
0.0
  11
 758.456
  21
 533.327
  31
0.0
   0
LINE
   8
LEVEL001
   6
CONTINUOUS
  62
7
  10
 760.539
  20
 497.327
  30
0.0
  11
 777.863
  21
 197.793
  31
0.0
   0
ARC
   8
LEVEL001
   6
CONTINUOUS
  62
7
  10
 180.000
  20
 157.500
  30
0.0
  40
 2.00000
  50
 300.000
  51
0.0
   0
ARC
   8
LEVEL001
   6
CONTINUOUS
  62
7
  10
 177.000
  20
 149.137
  30
0.0
  40
 5.00000
  50
0.0
  51
 44.4153
   0
ARC
   8
LEVEL001
   6
CONTINUOUS
  62
7
  10
 182.000
  20
 154.036
  30
0.0
  40
 2.00000
  50
 120.000
  51
 224.415
   0
ARC
   8
LEVEL001
   6
CONTINUOUS
  62
7
  10
 180.000
  20
 191.500
  30
0.0
  40
 2.00000
  50
 0.113991E-10
  51
 59.6202
   0
ARC
   8
LEVEL001
   6
CONTINUOUS
  62
7
  10
 182.023
  20
 194.951
  30
0.0
  40
 2.00000
  50
 132.572
  51
 239.620
   0
ARC
   8
LEVEL001
   6
CONTINUOUS
  62
7
  10
 177.287
  20
 200.106
  30
0.0
  40
 5.00000
  50
 312.572
  51
 355.368
   0
LINE
   8
LEVEL001
   6
CONTINUOUS
  62
7
  10
 182.000
  20
 149.137
  30
0.0
  11
 182.000
  21
 146.500
  31
0.0
   0
LINE
   8
LEVEL001
   6
CONTINUOUS
  62
7
  10
 182.000
  20
 191.500
  30
0.0
  11
 182.000
  21
 157.500
  31
0.0
   0
ARC
   8
LEVEL001
   6
CONTINUOUS
  62
7
  10
 265.000
  20
 193.000
  30
0.0
  40
 83.0000
  50
 148.340
  51
 175.368
   0
LINE
   8
LEVEL001
   6
CONTINUOUS
  62
7
  10
 206.188
  20
 613.616
  30
0.0
  11
 182.249
  21
 199.703
  31
0.0
   0
ARC
   8
LEVEL003
   6
CONTINUOUS
  62
7
  10
 751.459
  20
 388.500
  30
0.0
  40
 2.00000
  50
 0.924779
  51
 90.0000
   0
ARC
   8
LEVEL003
   6
CONTINUOUS
  62
7
  10
 723.780
  20
 388.500
  30
0.0
  40
 2.00000
  50
 90.0000
  51
 180.925
   0
LINE
   8
LEVEL003
   6
CONTINUOUS
  62
7
  10
 722.927
  20
 317.468
  30
0.0
  11
 721.780
  21
 388.468
  31
0.0
   0
ARC
   8
LEVEL003
   6
CONTINUOUS
  62
7
  10
 724.926
  20
 317.500
  30
0.0
  40
 2.00000
  50
 180.925
  51
 270.000
   0
ARC
   8
LEVEL003
   6
CONTINUOUS
  62
7
  10
 752.605
  20
 317.500
  30
0.0
  40
 2.00000
  50
 270.000
  51
 0.924779
   0
LINE
   8
LEVEL003
   6
CONTINUOUS
  62
7
  10
 753.459
  20
 388.532
  30
0.0
  11
 754.605
  21
 317.532
  31
0.0
   0
LINE
   8
LEVEL003
   6
CONTINUOUS
  62
7
  10
 724.796
  20
 315.500
  30
0.0
  11
 752.605
  21
 315.500
  31
0.0
   0
ARC
   8
LEVEL003
   6
CONTINUOUS
  62
7
  10
 724.796
  20
 312.500
  30
0.0
  40
 3.00000
  50
 90.0000
  51
 180.908
   0
ARC
   8
LEVEL003
   6
CONTINUOUS
  62
7
  10
 723.512
  20
 393.500
  30
0.0
  40
 3.00000
  50
 180.908
  51
 270.000
   0
LINE
   8
LEVEL003
   6
CONTINUOUS
  62
7
  10
 723.512
  20
 390.500
  30
0.0
  11
 751.459
  21
 390.500
  31
0.0
   0
ARC
   8
LEVEL003
   6
CONTINUOUS
  62
7
  10
 751.459
  20
 393.500
  30
0.0
  40
 3.00000
  50
 180.908
  51
 270.000
   0
LINE
   8
LEVEL003
   6
CONTINUOUS
  62
7
  10
 720.592
  20
 388.449
  30
0.0
  11
 721.717
  21
 317.449
  31
0.0
   0
ARC
   8
LEVEL003
   6
CONTINUOUS
  62
7
  10
 752.605
  20
 312.500
  30
0.0
  40
 3.00000
  50
 90.0000
  51
 180.908
   0
ARC
   8
LEVEL001
   6
CONTINUOUS
  62
7
  10
 667.000
  20
 169.966
  30
0.0
  40
 3.00000
  50
0.0
  51
 90.0000
   0
ARC
   8
LEVEL001
   6
CONTINUOUS
  62
7
  10
 723.000
  20
 169.966
  30
0.0
  40
 3.00000
  50
 90.0000
  51
 180.000
   0
LINE
   8
LEVEL003
   6
CONTINUOUS
  62
7
  10
 664.693
  20
 177.500
  30
0.0
  11
 662.693
  21
 179.500
  31
0.0
   0
LINE
   8
LEVEL003
   6
CONTINUOUS
  62
7
  10
 662.693
  20
 179.500
  30
0.0
  11
 662.693
  21
 178.500
  31
0.0
   0
LINE
   8
LEVEL003
   6
CONTINUOUS
  62
7
  10
 662.693
  20
 178.500
  30
0.0
  11
 655.693
  21
 178.500
  31
0.0
   0
LINE
   8
LEVEL003
   6
CONTINUOUS
  62
7
  10
 655.693
  20
 178.500
  30
0.0
  11
 655.693
  21
 176.500
  31
0.0
   0
LINE
   8
LEVEL003
   6
CONTINUOUS
  62
7
  10
 655.693
  20
 176.500
  30
0.0
  11
 662.693
  21
 176.500
  31
0.0
   0
LINE
   8
LEVEL003
   6
CONTINUOUS
  62
7
  10
 662.693
  20
 176.500
  30
0.0
  11
 662.693
  21
 175.500
  31
0.0
   0
LINE
   8
LEVEL003
   6
CONTINUOUS
  62
7
  10
 662.693
  20
 175.500
  30
0.0
  11
 664.693
  21
 177.500
  31
0.0
   0
TEXT
   8
LEVEL003
  62
7
  10
 652.036
  20
 181.702
  30
0.0
  40
 8.10000
   1
ＵＰ
  50
 180.000
  41
 0.851852
   7
STANDARD
   0
LINE
   8
LEVEL003
   6
CONTINUOUS
  62
7
  10
 713.420
  20
 177.500
  30
0.0
  11
 715.420
  21
 179.500
  31
0.0
   0
LINE
   8
LEVEL003
   6
CONTINUOUS
  62
7
  10
 715.420
  20
 179.500
  30
0.0
  11
 715.420
  21
 178.500
  31
0.0
   0
LINE
   8
LEVEL003
   6
CONTINUOUS
  62
7
  10
 715.420
  20
 178.500
  30
0.0
  11
 722.420
  21
 178.500
  31
0.0
   0
LINE
   8
LEVEL003
   6
CONTINUOUS
  62
7
  10
 722.420
  20
 178.500
  30
0.0
  11
 722.420
  21
 176.500
  31
0.0
   0
LINE
   8
LEVEL003
   6
CONTINUOUS
  62
7
  10
 722.420
  20
 176.500
  30
0.0
  11
 715.420
  21
 176.500
  31
0.0
   0
LINE
   8
LEVEL003
   6
CONTINUOUS
  62
7
  10
 715.420
  20
 176.500
  30
0.0
  11
 715.420
  21
 175.500
  31
0.0
   0
LINE
   8
LEVEL003
   6
CONTINUOUS
  62
7
  10
 715.420
  20
 175.500
  30
0.0
  11
 713.420
  21
 177.500
  31
0.0
   0
TEXT
   8
LEVEL003
  62
7
  10
 753.788
  20
 181.702
  30
0.0
  40
 8.10000
   1
ＤＯＷＮ
  50
 180.000
  41
 0.851852
   7
STANDARD
   0
ARC
   8
LEVEL003
   6
CONTINUOUS
  62
7
  10
 684.000
  20
 157.000
  30
0.0
  40
 3.00000
  50
 180.000
  51
 270.000
   0
ARC
   8
LEVEL003
   6
CONTINUOUS
  62
7
  10
 679.000
  20
 167.200
  30
0.0
  40
 2.00000
  50
 0.814222E-11
  51
 90.0000
   0
LINE
   8
LEVEL003
   6
CONTINUOUS
  62
7
  10
 684.000
  20
 154.000
  30
0.0
  11
 706.000
  21
 154.000
  31
0.0
   0
ARC
   8
LEVEL003
   6
CONTINUOUS
  62
7
  10
 706.000
  20
 157.000
  30
0.0
  40
 3.00000
  50
 270.000
  51
0.0
   0
ARC
   8
LEVEL003
   6
CONTINUOUS
  62
7
  10
 711.000
  20
 167.200
  30
0.0
  40
 2.00000
  50
 90.0000
  51
 180.000
   0
LINE
   8
LEVEL003
   6
CONTINUOUS
  62
7
  10
 709.000
  20
 157.000
  30
0.0
  11
 709.000
  21
 167.200
  31
0.0
   0
LINE
   8
LEVEL003
   6
CONTINUOUS
  62
7
  10
 681.000
  20
 157.000
  30
0.0
  11
 681.000
  21
 167.200
  31
0.0
   0
CIRCLE
   8
0
   6
CONTINUOUS
  62
7
  10
 697.523
  20
 160.040
  30
0.0
  40
 3.33333
   0
LINE
   8
0
   6
CONTINUOUS
  62
7
  10
 690.980
  20
 156.706
  30
0.0
  11
 695.214
  21
 164.040
  31
0.0
   0
LINE
   8
0
   6
CONTINUOUS
  62
7
  10
 695.214
  20
 164.040
  30
0.0
  11
 703.682
  21
 164.040
  31
0.0
   0
LINE
   8
0
   6
CONTINUOUS
  62
7
  10
 703.682
  20
 164.040
  30
0.0
  11
 704.644
  21
 165.706
  31
0.0
   0
LINE
   8
0
   6
CONTINUOUS
  62
7
  10
 704.644
  20
 165.706
  30
0.0
  11
 689.510
  21
 165.706
  31
0.0
   0
LINE
   8
0
   6
CONTINUOUS
  62
7
  10
 689.510
  20
 165.706
  30
0.0
  11
 684.313
  21
 156.706
  31
0.0
   0
LINE
   8
0
   6
CONTINUOUS
  62
7
  10
 684.313
  20
 156.706
  30
0.0
  11
 690.980
  21
 156.706
  31
0.0
   0
LINE
   8
LEVEL001
   6
CONTINUOUS
  62
7
  10
 720.000
  20
 169.966
  30
0.0
  11
 720.000
  21
 122.880
  31
0.0
   0
LINE
   8
LEVEL001
   6
CONTINUOUS
  62
7
  10
 670.000
  20
 169.966
  30
0.0
  11
 670.000
  21
 122.880
  31
0.0
   0
TEXT
   8
LEVEL050
  62
3
  10
 1023.75
  20
 159.000
  30
0.0
  40
 9.45000
   1
ファイル名．Ｏ４ＪＪ５０３５Ｇ
   7
STANDARD
   0
TEXT
   8
LEVEL050
  62
2
  10
 977.250
  20
 40.5000
  30
0.0
  40
 15.0000
   1
　　　Ｏ　　　　４－３８１２Ｇ
  41
 0.700000
   7
STANDARD
   0
TEXT
   8
LEVEL050
  62
2
  10
 214.950
  20
 858.300
  30
0.0
  40
 15.0000
   1
　　　Ｏ　　４－３８１２Ｇ
  50
 180.000
  41
 0.700000
   7
STANDARD
   0
LINE
   8
LEVEL001
   6
CONTINUOUS
  62
7
  10
 207.000
  20
 638.500
  30
0.0
  11
 323.000
  21
 638.500
  31
0.0
   0
CIRCLE
   8
LEVEL001
   6
CONTINUOUS
  62
7
  10
 265.000
  20
 515.500
  30
0.0
  40
 12.5000
   0
CIRCLE
   8
LEVEL001
   6
CONTINUOUS
  62
7
  10
 265.000
  20
 515.500
  30
0.0
  40
 11.5000
   0
LINE
   8
LEVEL001
   6
CONTINUOUS
  62
7
  10
 173.500
  20
 115.500
  30
0.0
  11
 356.500
  21
 115.500
  31
0.0
   0
LINE
   8
LEVEL001
   6
CONTINUOUS
  62
7
  10
 186.005
  20
 132.500
  30
0.0
  11
 186.005
  21
 115.500
  31
0.0
   0
LINE
   8
LEVEL001
   6
CONTINUOUS
  62
7
  10
 343.995
  20
 132.500
  30
0.0
  11
 343.995
  21
 115.500
  31
0.0
   0
LINE
   8
LEVEL001
   6
CONTINUOUS
  62
7
  10
 235.000
  20
 132.500
  30
0.0
  11
 186.005
  21
 132.500
  31
0.0
   0
LINE
   8
LEVEL001
   6
CONTINUOUS
  62
7
  10
 235.000
  20
 115.500
  30
0.0
  11
 235.000
  21
 132.500
  31
0.0
   0
LINE
   8
LEVEL001
   6
CONTINUOUS
  62
7
  10
 295.000
  20
 115.500
  30
0.0
  11
 295.000
  21
 132.500
  31
0.0
   0
LINE
   8
LEVEL001
   6
CONTINUOUS
  62
7
  10
 295.000
  20
 132.500
  30
0.0
  11
 343.995
  21
 132.500
  31
0.0
   0
LINE
   8
LEVEL001
   6
CONTINUOUS
  62
7
  10
 343.995
  20
 130.500
  30
0.0
  11
 356.500
  21
 130.500
  31
0.0
   0
LINE
   8
LEVEL001
   6
CONTINUOUS
  62
7
  10
 295.000
  20
 130.500
  30
0.0
  11
 235.000
  21
 130.500
  31
0.0
   0
LINE
   8
LEVEL001
   6
CONTINUOUS
  62
7
  10
 186.005
  20
 130.500
  30
0.0
  11
 173.500
  21
 130.500
  31
0.0
   0
LINE
   8
LEVEL001
   6
CONTINUOUS
  62
7
  10
 265.000
  20
 146.500
  30
0.0
  11
 180.500
  21
 146.500
  31
0.0
   0
LINE
   8
LEVEL001
   6
CONTINUOUS
  62
7
  10
 265.000
  20
 146.500
  30
0.0
  11
 349.500
  21
 146.500
  31
0.0
   0
LINE
   8
LEVEL001
   6
CONTINUOUS
  62
7
  10
 394.000
  20
 181.000
  30
0.0
  11
 394.000
  21
 235.000
  31
0.0
   0
LINE
   8
LEVEL003
   6
CONTINUOUS
  62
7
  10
 392.003
  20
 237.109
  30
0.0
  11
 392.003
  21
 178.891
  31
0.0
   0
LINE
   8
LEVEL001
   6
CONTINUOUS
  62
7
  10
 207.712
  20
 613.500
  30
0.0
  11
 318.508
  21
 613.500
  31
0.0
   0
ARC
   8
LEVEL001
   6
CONTINUOUS
  62
7
  10
 270.500
  20
 610.500
  30
0.0
  40
 3.00000
  50
 90.0000
  51
 180.000
   0
ARC
   8
LEVEL001
   6
CONTINUOUS
  62
7
  10
 259.500
  20
 610.500
  30
0.0
  40
 3.00000
  50
 0.217126E-10
  51
 90.0000
   0
LINE
   8
LEVEL001
   6
DASHDOT
  62
1
  10
 389.626
  20
 177.277
  30
0.0
  11
 459.626
  21
 177.277
  31
0.0
   0
ARC
   8
LEVEL001
   6
CONTINUOUS
  62
7
  10
 444.500
  20
 183.277
  30
0.0
  40
 1.00000
  50
 90.0009
  51
 180.002
   0
ARC
   8
LEVEL001
   6
CONTINUOUS
  62
7
  10
 444.500
  20
 109.777
  30
0.0
  40
 2.00000
  50
 270.000
  51
 0.130276E-10
   0
ARC
   8
LEVEL001
   6
CONTINUOUS
  62
7
  10
 445.500
  20
 116.777
  30
0.0
  40
 1.00000
  50
 359.998
  51
 89.9991
   0
ARC
   8
LEVEL001
   6
CONTINUOUS
  62
7
  10
 445.000
  20
 118.777
  30
0.0
  40
 1.00000
  50
 180.001
  51
 269.999
   0
LINE
   8
LEVEL001
   6
CONTINUOUS
  62
7
  10
 445.000
  20
 117.777
  30
0.0
  11
 445.500
  21
 117.777
  31
0.0
   0
LINE
   8
LEVEL001
   6
DASHDOT
  62
1
  10
 432.126
  20
 127.777
  30
0.0
  11
 477.126
  21
 127.777
  31
0.0
   0
ARC
   8
LEVEL001
   6
CONTINUOUS
  62
7
  10
 434.000
  20
 174.155
  30
0.0
  40
 10.0000
  50
 0.162844E-12
  51
 18.1960
   0
LINE
   8
LEVEL001
   6
CONTINUOUS
  62
7
  10
 394.500
  20
 182.277
  30
0.0
  11
 394.500
  21
 177.277
  31
0.0
   0
ARC
   8
LEVEL001
   6
CONTINUOUS
  62
7
  10
 404.000
  20
 174.155
  30
0.0
  40
 10.0000
  50
 161.804
  51
 180.000
   0
ARC
   8
LEVEL001
   6
CONTINUOUS
  62
7
  10
 471.000
  20
 127.777
  30
0.0
  40
 3.00000
  50
 274.224
  51
 85.7766
   0
ARC
   8
LEVEL001
   6
CONTINUOUS
  62
7
  10
 450.500
  20
 221.777
  30
0.0
  40
 1.00000
  50
 359.998
  51
 89.9991
   0
LINE
   8
LEVEL001
   6
CONTINUOUS
  62
7
  10
 451.500
  20
 221.777
  30
0.0
  11
 451.500
  21
 207.777
  31
0.0
   0
LINE
   8
LEVEL001
   6
CONTINUOUS
  62
7
  10
 449.150
  20
 222.777
  30
0.0
  11
 450.500
  21
 222.777
  31
0.0
   0
LINE
   8
LEVEL001
   6
CONTINUOUS
  62
7
  10
 447.500
  20
 230.277
  30
0.0
  11
 445.500
  21
 230.277
  31
0.0
   0
LINE
   8
LEVEL001
   6
CONTINUOUS
  62
7
  10
 447.500
  20
 185.277
  30
0.0
  11
 447.500
  21
 230.277
  31
0.0
   0
ARC
   8
LEVEL001
   6
CONTINUOUS
  62
7
  10
 444.500
  20
 232.277
  30
0.0
  40
 1.00000
  50
 180.001
  51
 269.999
   0
LINE
   8
LEVEL001
   6
CONTINUOUS
  62
7
  10
 395.250
  20
 241.677
  30
0.0
  11
 442.750
  21
 241.677
  31
0.0
   0
LINE
   8
LEVEL001
   6
CONTINUOUS
  62
7
  10
 449.150
  20
 207.777
  30
0.0
  11
 449.150
  21
 226.877
  31
0.0
   0
LINE
   8
LEVEL003
   6
CONTINUOUS
  62
7
  10
 447.500
  20
 226.877
  30
0.0
  11
 449.150
  21
 226.877
  31
0.0
   0
ARC
   8
LEVEL001
   6
CONTINUOUS
  62
7
  10
 450.500
  20
 193.777
  30
0.0
  40
 1.00000
  50
 270.001
  51
 359.997
   0
LINE
   8
LEVEL001
   6
CONTINUOUS
  62
7
  10
 451.500
  20
 193.777
  30
0.0
  11
 451.500
  21
 207.777
  31
0.0
   0
LINE
   8
LEVEL001
   6
CONTINUOUS
  62
7
  10
 449.150
  20
 192.777
  30
0.0
  11
 450.500
  21
 192.777
  31
0.0
   0
LINE
   8
LEVEL001
   6
CONTINUOUS
  62
7
  10
 447.500
  20
 207.777
  30
0.0
  11
 447.500
  21
 185.277
  31
0.0
   0
LINE
   8
LEVEL001
   6
CONTINUOUS
  62
7
  10
 447.500
  20
 185.277
  30
0.0
  11
 445.500
  21
 185.277
  31
0.0
   0
LINE
   8
LEVEL001
   6
CONTINUOUS
  62
7
  10
 449.150
  20
 207.777
  30
0.0
  11
 449.150
  21
 189.977
  31
0.0
   0
LINE
   8
LEVEL003
   6
CONTINUOUS
  62
7
  10
 447.500
  20
 189.977
  30
0.0
  11
 449.150
  21
 189.977
  31
0.0
   0
LINE
   8
LEVEL001
   6
DASHDOT
  62
1
  10
 419.000
  20
 239.777
  30
0.0
  11
 419.000
  21
 104.777
  31
0.0
   0
LINE
   8
LEVEL001
   6
CONTINUOUS
  62
7
  10
 394.000
  20
 225.777
  30
0.0
  11
 394.500
  21
 225.777
  31
0.0
   0
LINE
   8
LEVEL001
   6
CONTINUOUS
  62
7
  10
 394.000
  20
 189.777
  30
0.0
  11
 394.500
  21
 189.777
  31
0.0
   0
LINE
   8
LEVEL001
   6
CONTINUOUS
  62
7
  10
 394.500
  20
 182.277
  30
0.0
  11
 394.500
  21
 240.277
  31
0.0
   0
LINE
   8
LEVEL001
   6
CONTINUOUS
  62
7
  10
 444.500
  20
 231.277
  30
0.0
  11
 444.500
  21
 184.277
  31
0.0
   0
LINE
   8
LEVEL001
   6
CONTINUOUS
  62
7
  10
 445.500
  20
 230.277
  30
0.0
  11
 445.500
  21
 185.277
  31
0.0
   0
LINE
   8
LEVEL001
   6
CONTINUOUS
  62
7
  10
 444.500
  20
 192.777
  30
0.0
  11
 445.500
  21
 192.777
  31
0.0
   0
LINE
   8
LEVEL001
   6
CONTINUOUS
  62
7
  10
 444.500
  20
 222.777
  30
0.0
  11
 445.500
  21
 222.777
  31
0.0
   0
ARC
   8
LEVEL001
   6
DOT
  62
3
  10
 433.000
  20
 153.527
  30
0.0
  40
 2.50000
  50
0.0
  51
 89.9996
   0
LINE
   8
LEVEL001
   6
DOT
  62
3
  10
 433.000
  20
 156.027
  30
0.0
  11
 419.000
  21
 156.027
  31
0.0
   0
ARC
   8
LEVEL001
   6
DOT
  62
3
  10
 438.000
  20
 110.277
  30
0.0
  40
 2.50000
  50
 179.999
  51
 270.000
   0
LINE
   8
LEVEL001
   6
DOT
  62
3
  10
 435.500
  20
 110.277
  30
0.0
  11
 435.500
  21
 153.527
  31
0.0
   0
ARC
   8
LEVEL001
   6
DOT
  62
3
  10
 405.000
  20
 153.527
  30
0.0
  40
 2.50000
  50
 90.0004
  51
 180.001
   0
LINE
   8
LEVEL001
   6
DOT
  62
3
  10
 405.000
  20
 156.027
  30
0.0
  11
 419.000
  21
 156.027
  31
0.0
   0
ARC
   8
LEVEL001
   6
DOT
  62
3
  10
 400.000
  20
 110.277
  30
0.0
  40
 2.50000
  50
 270.000
  51
 0.696680E-3
   0
LINE
   8
LEVEL001
   6
DOT
  62
3
  10
 402.500
  20
 110.277
  30
0.0
  11
 402.500
  21
 153.527
  31
0.0
   0
LINE
   8
LEVEL001
   6
CONTINUOUS
  62
7
  10
 443.500
  20
 177.277
  30
0.0
  11
 443.500
  21
 240.277
  31
0.0
   0
LINE
   8
LEVEL001
   6
CONTINUOUS
  62
7
  10
 394.500
  20
 240.277
  30
0.0
  11
 395.250
  21
 240.277
  31
0.0
   0
LINE
   8
LEVEL001
   6
CONTINUOUS
  62
7
  10
 442.750
  20
 240.277
  30
0.0
  11
 443.500
  21
 240.277
  31
0.0
   0
ARC
   8
LEVEL001
   6
CONTINUOUS
  62
7
  10
 420.117
  20
 204.259
  30
0.0
  40
 3.40000
  50
 5.75579
  51
 56.0536
   0
ARC
   8
LEVEL001
   6
CONTINUOUS
  62
7
  10
 419.000
  20
 202.600
  30
0.0
  40
 5.40000
  50
 56.0539
  51
 90.0013
   0
ARC
   8
LEVEL001
   6
CONTINUOUS
  62
7
  10
 417.883
  20
 204.259
  30
0.0
  40
 3.40000
  50
 123.947
  51
 174.246
   0
ARC
   8
LEVEL001
   6
CONTINUOUS
  62
7
  10
 419.000
  20
 202.600
  30
0.0
  40
 5.40000
  50
 90.0000
  51
 123.947
   0
LINE
   8
LEVEL001
   6
CONTINUOUS
  62
7
  10
 414.500
  20
 204.600
  30
0.0
  11
 423.500
  21
 204.600
  31
0.0
   0
LINE
   8
LEVEL001
   6
CONTINUOUS
  62
7
  10
 442.750
  20
 241.677
  30
0.0
  11
 442.750
  21
 202.427
  31
0.0
   0
LINE
   8
LEVEL001
   6
CONTINUOUS
  62
7
  10
 395.250
  20
 241.677
  30
0.0
  11
 395.250
  21
 202.427
  31
0.0
   0
LINE
   8
LEVEL001
   6
CONTINUOUS
  62
7
  10
 395.250
  20
 202.427
  30
0.0
  11
 442.750
  21
 202.427
  31
0.0
   0
LINE
   8
LEVEL001
   6
CONTINUOUS
  62
7
  10
 442.750
  20
 203.821
  30
0.0
  11
 395.250
  21
 203.821
  31
0.0
   0
CIRCLE
   8
LEVEL001
   6
CONTINUOUS
  62
7
  10
 419.000
  20
 177.278
  30
0.0
  40
 17.2500
   0
ARC
   8
LEVEL001
   6
CONTINUOUS
  62
7
  10
 419.000
  20
 177.278
  30
0.0
  40
 24.5000
  50
 180.000
  51
0.0
   0
LINE
   8
LEVEL001
   6
CONTINUOUS
  62
7
  10
 402.500
  20
 107.777
  30
0.0
  11
 393.500
  21
 107.777
  31
0.0
   0
LINE
   8
LEVEL001
   6
CONTINUOUS
  62
7
  10
 435.500
  20
 107.777
  30
0.0
  11
 444.500
  21
 107.777
  31
0.0
   0
ARC
   8
LEVEL001
   6
CONTINUOUS
  62
7
  10
 419.000
  20
 12.1183
  30
0.0
  40
 97.0718
  50
 80.2134
  51
 99.7866
   0
ARC
   8
LEVEL001
   6
CONTINUOUS
  62
7
  10
 419.000
  20
-43.3778
  30
0.0
  40
 155.011
  50
 80.5471
  51
 99.4529
   0
ARC
   8
LEVEL001
   6
CONTINUOUS
  62
7
  10
 419.000
  20
-35.0035
  30
0.0
  40
 155.011
  50
 80.5471
  51
 99.4529
   0
ARC
   8
LEVEL001
   6
CONTINUOUS
  62
7
  10
 455.502
  20
 136.942
  30
0.0
  40
 5.00000
  50
 240.154
  51
 265.781
   0
LINE
   8
LEVEL001
   6
CONTINUOUS
  62
7
  10
 455.134
  20
 131.956
  30
0.0
  11
 471.221
  21
 130.769
  31
0.0
   0
ARC
   8
LEVEL001
   6
CONTINUOUS
  62
7
  10
 455.502
  20
 118.612
  30
0.0
  40
 5.00000
  50
 94.2191
  51
 119.846
   0
LINE
   8
LEVEL001
   6
CONTINUOUS
  62
7
  10
 455.134
  20
 123.599
  30
0.0
  11
 471.221
  21
 124.786
  31
0.0
   0
LINE
   8
LEVEL001
   6
CONTINUOUS
  62
7
  10
 444.000
  20
 174.155
  30
0.0
  11
 444.000
  21
 140.673
  31
0.0
   0
ARC
   8
LEVEL001
   6
CONTINUOUS
  62
7
  10
 449.000
  20
 140.673
  30
0.0
  40
 5.00000
  50
 180.000
  51
 240.154
   0
LINE
   8
LEVEL001
   6
CONTINUOUS
  62
7
  10
 446.512
  20
 136.336
  30
0.0
  11
 453.014
  21
 132.606
  31
0.0
   0
LINE
   8
LEVEL001
   6
CONTINUOUS
  62
7
  10
 446.500
  20
 116.316
  30
0.0
  11
 446.500
  21
 109.777
  31
0.0
   0
ARC
   8
LEVEL001
   6
CONTINUOUS
  62
7
  10
 451.500
  20
 116.316
  30
0.0
  40
 5.00000
  50
 119.846
  51
 180.000
   0
LINE
   8
LEVEL001
   6
CONTINUOUS
  62
7
  10
 449.012
  20
 120.653
  30
0.0
  11
 453.014
  21
 122.949
  31
0.0
   0
LINE
   8
LEVEL001
   6
CONTINUOUS
  62
7
  10
 454.000
  20
 130.922
  30
0.0
  11
 454.000
  21
 124.574
  31
0.0
   0
ARC
   8
LEVEL001
   6
CONTINUOUS
  62
7
  10
 468.142
  20
 127.777
  30
0.0
  40
 26.1313
  50
 157.500
  51
 196.956
   0
ARC
   8
LEVEL001
   6
CONTINUOUS
  62
7
  10
 393.500
  20
 109.777
  30
0.0
  40
 2.00000
  50
 180.001
  51
 270.000
   0
ARC
   8
LEVEL001
   6
CONTINUOUS
  62
7
  10
 392.500
  20
 116.777
  30
0.0
  40
 1.00000
  50
 90.0009
  51
 180.002
   0
LINE
   8
LEVEL001
   6
CONTINUOUS
  62
7
  10
 391.500
  20
 116.777
  30
0.0
  11
 391.500
  21
 109.777
  31
0.0
   0
ARC
   8
LEVEL001
   6
CONTINUOUS
  62
7
  10
 393.000
  20
 118.777
  30
0.0
  40
 1.00000
  50
 270.001
  51
 0.420139E-9
   0
LINE
   8
LEVEL001
   6
CONTINUOUS
  62
7
  10
 393.000
  20
 117.777
  30
0.0
  11
 392.500
  21
 117.777
  31
0.0
   0
LINE
   8
LEVEL001
   6
CONTINUOUS
  62
7
  10
 394.000
  20
 174.155
  30
0.0
  11
 394.000
  21
 118.777
  31
0.0
   0
LINE
   8
LEVEL001
   6
CONTINUOUS
  62
7
  10
 392.003
  20
 210.277
  30
0.0
  11
 348.000
  21
 210.277
  31
0.0
   0
ARC
   8
LEVEL001
   6
CONTINUOUS
  62
7
  10
 348.000
  20
 213.277
  30
0.0
  40
 3.00000
  50
 180.000
  51
 270.000
   0
LINE
   8
LEVEL001
   6
CONTINUOUS
  62
7
  10
 392.003
  20
 205.277
  30
0.0
  11
 348.000
  21
 205.277
  31
0.0
   0
ARC
   8
LEVEL001
   6
CONTINUOUS
  62
7
  10
 348.000
  20
 202.277
  30
0.0
  40
 3.00000
  50
 90.0000
  51
 180.000
   0
POLYLINE
   8
LEVEL001
   6
CONTINUOUS
  62
7
  66
1
  10
0.0
  20
0.0
  30
0.0
  70
0
   0
VERTEX
   8
LEVEL001
   6
CONTINUOUS
  62
7
  10
 180.993
  20
 155.891
  30
0.0
   0
VERTEX
   8
LEVEL001
   6
CONTINUOUS
  62
7
  10
 182.072
  20
 156.300
  30
0.0
   0
VERTEX
   8
LEVEL001
   6
CONTINUOUS
  62
7
  10
 183.118
  20
 156.994
  30
0.0
   0
VERTEX
   8
LEVEL001
   6
CONTINUOUS
  62
7
  10
 184.116
  20
 157.961
  30
0.0
   0
VERTEX
   8
LEVEL001
   6
CONTINUOUS
  62
7
  10
 185.049
  20
 159.186
  30
0.0
   0
VERTEX
   8
LEVEL001
   6
CONTINUOUS
  62
7
  10
 185.904
  20
 160.650
  30
0.0
   0
VERTEX
   8
LEVEL001
   6
CONTINUOUS
  62
7
  10
 186.666
  20
 162.330
  30
0.0
   0
VERTEX
   8
LEVEL001
   6
CONTINUOUS
  62
7
  10
 187.325
  20
 164.200
  30
0.0
   0
VERTEX
   8
LEVEL001
   6
CONTINUOUS
  62
7
  10
 187.869
  20
 166.231
  30
0.0
   0
VERTEX
   8
LEVEL001
   6
CONTINUOUS
  62
7
  10
 188.290
  20
 168.390
  30
0.0
   0
VERTEX
   8
LEVEL001
   6
CONTINUOUS
  62
7
  10
 188.582
  20
 170.646
  30
0.0
   0
VERTEX
   8
LEVEL001
   6
CONTINUOUS
  62
7
  10
 188.740
  20
 172.961
  30
0.0
   0
VERTEX
   8
LEVEL001
   6
CONTINUOUS
  62
7
  10
 188.762
  20
 175.300
  30
0.0
   0
VERTEX
   8
LEVEL001
   6
CONTINUOUS
  62
7
  10
 188.647
  20
 177.627
  30
0.0
   0
VERTEX
   8
LEVEL001
   6
CONTINUOUS
  62
7
  10
 188.397
  20
 179.905
  30
0.0
   0
VERTEX
   8
LEVEL001
   6
CONTINUOUS
  62
7
  10
 188.016
  20
 182.098
  30
0.0
   0
VERTEX
   8
LEVEL001
   6
CONTINUOUS
  62
7
  10
 187.510
  20
 184.174
  30
0.0
   0
VERTEX
   8
LEVEL001
   6
CONTINUOUS
  62
7
  10
 186.886
  20
 186.098
  30
0.0
   0
VERTEX
   8
LEVEL001
   6
CONTINUOUS
  62
7
  10
 186.156
  20
 187.841
  30
0.0
   0
VERTEX
   8
LEVEL001
   6
CONTINUOUS
  62
7
  10
 185.329
  20
 189.376
  30
0.0
   0
VERTEX
   8
LEVEL001
   6
CONTINUOUS
  62
7
  10
 184.419
  20
 190.679
  30
0.0
   0
VERTEX
   8
LEVEL001
   6
CONTINUOUS
  62
7
  10
 183.440
  20
 191.729
  30
0.0
   0
VERTEX
   8
LEVEL001
   6
CONTINUOUS
  62
7
  10
 182.407
  20
 192.511
  30
0.0
   0
VERTEX
   8
LEVEL001
   6
CONTINUOUS
  62
7
  10
 181.337
  20
 193.011
  30
0.0
   0
VERTEX
   8
LEVEL001
   6
CONTINUOUS
  62
7
  10
 181.294
  20
 193.025
  30
0.0
   0
SEQEND
   0
POLYLINE
   8
LEVEL001
   6
CONTINUOUS
  62
7
  66
1
  10
0.0
  20
0.0
  30
0.0
  70
0
   0
VERTEX
   8
LEVEL001
   6
CONTINUOUS
  62
7
  10
 183.552
  20
 152.589
  30
0.0
   0
VERTEX
   8
LEVEL001
   6
CONTINUOUS
  62
7
  10
 185.055
  20
 153.550
  30
0.0
   0
VERTEX
   8
LEVEL001
   6
CONTINUOUS
  62
7
  10
 186.479
  20
 154.838
  30
0.0
   0
VERTEX
   8
LEVEL001
   6
CONTINUOUS
  62
7
  10
 187.801
  20
 156.433
  30
0.0
   0
VERTEX
   8
LEVEL001
   6
CONTINUOUS
  62
7
  10
 189.003
  20
 158.310
  30
0.0
   0
VERTEX
   8
LEVEL001
   6
CONTINUOUS
  62
7
  10
 190.063
  20
 160.440
  30
0.0
   0
VERTEX
   8
LEVEL001
   6
CONTINUOUS
  62
7
  10
 190.967
  20
 162.789
  30
0.0
   0
VERTEX
   8
LEVEL001
   6
CONTINUOUS
  62
7
  10
 191.699
  20
 165.320
  30
0.0
   0
VERTEX
   8
LEVEL001
   6
CONTINUOUS
  62
7
  10
 192.249
  20
 167.995
  30
0.0
   0
VERTEX
   8
LEVEL001
   6
CONTINUOUS
  62
7
  10
 192.608
  20
 170.772
  30
0.0
   0
VERTEX
   8
LEVEL001
   6
CONTINUOUS
  62
7
  10
 192.770
  20
 173.606
  30
0.0
   0
VERTEX
   8
LEVEL001
   6
CONTINUOUS
  62
7
  10
 192.733
  20
 176.455
  30
0.0
   0
VERTEX
   8
LEVEL001
   6
CONTINUOUS
  62
7
  10
 192.497
  20
 179.273
  30
0.0
   0
VERTEX
   8
LEVEL001
   6
CONTINUOUS
  62
7
  10
 192.066
  20
 182.017
  30
0.0
   0
VERTEX
   8
LEVEL001
   6
CONTINUOUS
  62
7
  10
 191.447
  20
 184.643
  30
0.0
   0
VERTEX
   8
LEVEL001
   6
CONTINUOUS
  62
7
  10
 190.649
  20
 187.111
  30
0.0
   0
VERTEX
   8
LEVEL001
   6
CONTINUOUS
  62
7
  10
 189.685
  20
 189.382
  30
0.0
   0
VERTEX
   8
LEVEL001
   6
CONTINUOUS
  62
7
  10
 188.570
  20
 191.421
  30
0.0
   0
VERTEX
   8
LEVEL001
   6
CONTINUOUS
  62
7
  10
 187.321
  20
 193.196
  30
0.0
   0
VERTEX
   8
LEVEL001
   6
CONTINUOUS
  62
7
  10
 185.958
  20
 194.680
  30
0.0
   0
VERTEX
   8
LEVEL001
   6
CONTINUOUS
  62
7
  10
 184.502
  20
 195.848
  30
0.0
   0
VERTEX
   8
LEVEL001
   6
CONTINUOUS
  62
7
  10
 183.575
  20
 196.399
  30
0.0
   0
SEQEND
   0
LINE
   8
LEVEL001
   6
CONTINUOUS
  62
7
  10
 322.319
  20
 610.329
  30
0.0
  11
 329.894
  21
 278.432
  31
0.0
   0
LINE
   8
LEVEL001
   6
CONTINUOUS
  62
7
  10
 321.544
  20
 615.500
  30
0.0
  11
 321.544
  21
 636.500
  31
0.0
   0
LINE
   8
LEVEL001
   6
CONTINUOUS
  62
7
  10
 262.500
  20
 610.500
  30
0.0
  11
 262.500
  21
 532.141
  31
0.0
   0
LINE
   8
LEVEL001
   6
CONTINUOUS
  62
7
  10
 267.500
  20
 610.500
  30
0.0
  11
 267.500
  21
 532.639
  31
0.0
   0
ARC
   8
LEVEL001
   6
CONTINUOUS
  62
7
  10
 270.500
  20
 532.639
  30
0.0
  40
 3.00000
  50
 180.000
  51
 252.208
   0
ARC
   8
LEVEL003
   6
CONTINUOUS
  62
7
  10
 270.500
  20
 498.361
  30
0.0
  40
 3.00000
  50
 107.792
  51
 180.000
   0
ARC
   8
LEVEL003
   6
CONTINUOUS
  62
7
  10
 259.500
  20
 498.361
  30
0.0
  40
 3.00000
  50
0.0
  51
 72.2084
   0
ARC
   8
LEVEL001
   6
CONTINUOUS
  62
7
  10
 259.500
  20
 532.639
  30
0.0
  40
 3.00000
  50
 287.792
  51
 0.108563E-10
   0
ARC
   8
LEVEL003
   6
CONTINUOUS
  62
7
  10
 265.000
  20
 515.500
  30
0.0
  40
 15.0000
  50
 11.2934
  51
 168.707
   0
ARC
   8
LEVEL003
   6
CONTINUOUS
  62
7
  10
 265.000
  20
 515.500
  30
0.0
  40
 15.0000
  50
 212.514
  51
 327.486
   0
ARC
   8
LEVEL003
   6
CONTINUOUS
  62
7
  10
 272.500
  20
 278.432
  30
0.0
  40
 5.00000
  50
 180.000
  51
 270.000
   0
ARC
   8
LEVEL003
   6
CONTINUOUS
  62
7
  10
 257.500
  20
 278.432
  30
0.0
  40
 5.00000
  50
 270.000
  51
0.0
   0
ARC
   8
LEVEL001
   6
CONTINUOUS
  62
7
  10
 265.000
  20
 477.500
  30
0.0
  40
 32.5000
  50
 108.380
  51
 71.6203
   0
ARC
   8
LEVEL001
   6
CONTINUOUS
  62
7
  10
 265.000
  20
 477.500
  30
0.0
  40
 43.5000
  50
 105.869
  51
 74.1306
   0
LINE
   8
LEVEL001
   6
CONTINUOUS
  62
7
  10
 262.500
  20
 498.361
  30
0.0
  11
 262.500
  21
 445.096
  31
0.0
   0
LINE
   8
LEVEL001
   6
CONTINUOUS
  62
7
  10
 262.500
  20
 434.072
  30
0.0
  11
 262.500
  21
 278.432
  31
0.0
   0
LINE
   8
LEVEL001
   6
CONTINUOUS
  62
7
  10
 267.500
  20
 498.361
  30
0.0
  11
 267.500
  21
 445.096
  31
0.0
   0
LINE
   8
LEVEL001
   6
CONTINUOUS
  62
7
  10
 267.500
  20
 434.072
  30
0.0
  11
 267.500
  21
 278.432
  31
0.0
   0
TEXT
   8
LEVEL050
  62
3
  10
 903.750
  20
 34.5000
  30
0.0
  40
 9.60000
   1
’０４　　４　１４
  41
 0.703125
   7
STANDARD
   0
LINE
   8
LEVEL110
   6
CONTINUOUS
  62
7
  10
 933.750
  20
 192.000
  30
0.0
  11
 933.750
  21
 171.000
  31
0.0
   0
LINE
   8
LEVEL110
   6
CONTINUOUS
  62
7
  10
 1023.75
  20
 192.000
  30
0.0
  11
 1023.75
  21
 123.000
  31
0.0
   0
LINE
   8
LEVEL110
   6
CONTINUOUS
  62
7
  10
 1083.75
  20
 192.000
  30
0.0
  11
 1083.75
  21
 171.000
  31
0.0
   0
LINE
   8
LEVEL110
   6
CONTINUOUS
  62
7
  10
 1107.75
  20
 192.000
  30
0.0
  11
 1107.75
  21
 171.000
  31
0.0
   0
LINE
   8
LEVEL110
   6
CONTINUOUS
  62
7
  10
 1142.25
  20
 192.000
  30
0.0
  11
 1142.25
  21
 171.000
  31
0.0
   0
LINE
   8
LEVEL110
   6
CONTINUOUS
  62
7
  10
 995.250
  20
 171.000
  30
0.0
  11
 995.250
  21
 123.000
  31
0.0
   0
LINE
   8
LEVEL110
   6
CONTINUOUS
  62
7
  10
 945.750
  20
 79.5000
  30
0.0
  11
 960.750
  21
 94.5000
  31
0.0
   0
CIRCLE
   8
LEVEL110
   6
CONTINUOUS
  62
7
  10
 924.750
  20
 34.5000
  30
0.0
  40
 1.20000
   0
CIRCLE
   8
LEVEL110
   6
CONTINUOUS
  62
7
  10
 945.750
  20
 34.5000
  30
0.0
  40
 1.20000
   0
CIRCLE
   8
LEVEL110
   6
CONTINUOUS
  62
7
  10
 924.750
  20
 34.5000
  30
0.0
  40
 0.750000
   0
CIRCLE
   8
LEVEL110
   6
CONTINUOUS
  62
7
  10
 945.750
  20
 34.5000
  30
0.0
  40
 0.750000
   0
LINE
   8
LEVEL110
   6
CONTINUOUS
  62
7
  10
 1038.00
  20
 46.5000
  30
0.0
  11
 1038.00
  21
 49.5000
  31
0.0
   0
LINE
   8
LEVEL110
   6
CONTINUOUS
  62
7
  10
 1038.00
  20
 49.5000
  30
0.0
  11
 1047.00
  21
 49.5000
  31
0.0
   0
LINE
   8
LEVEL110
   6
CONTINUOUS
  62
7
  10
 1047.00
  20
 49.5000
  30
0.0
  11
 1047.00
  21
 46.5000
  31
0.0
   0
LINE
   8
LEVEL110
   6
CONTINUOUS
  62
7
  10
 1047.00
  20
 46.5000
  30
0.0
  11
 1038.00
  21
 46.5000
  31
0.0
   0
LINE
   8
LEVEL110
   6
CONTINUOUS
  62
7
  10
 966.750
  20
 171.000
  30
0.0
  11
 966.750
  21
 30.0000
  31
0.0
   0
LINE
   8
LEVEL110
   6
CONTINUOUS
  62
7
  10
 903.750
  20
 99.0000
  30
0.0
  11
 966.750
  21
 99.0000
  31
0.0
   0
LINE
   8
LEVEL110
   6
CONTINUOUS
  62
7
  10
 903.750
  20
 159.000
  30
0.0
  11
 1224.45
  21
 159.000
  31
0.0
   0
LINE
   8
LEVEL110
   6
CONTINUOUS
  62
7
  10
 903.750
  20
 123.000
  30
0.0
  11
 1224.45
  21
 123.000
  31
0.0
   0
LINE
   8
LEVEL110
   6
CONTINUOUS
  62
7
  10
 903.750
  20
 75.0000
  30
0.0
  11
 1224.45
  21
 75.0000
  31
0.0
   0
LINE
   8
LEVEL110
   6
CONTINUOUS
  62
7
  10
 1140.45
  20
 75.0000
  30
0.0
  11
 1140.45
  21
 30.0000
  31
0.0
   0
LINE
   8
LEVEL110
   6
CONTINUOUS
  62
7
  10
 1152.45
  20
 30.0000
  30
0.0
  11
 1203.45
  21
 60.0000
  31
0.0
   0
LINE
   8
LEVEL110
   6
CONTINUOUS
  62
7
  10
 171.450
  20
 852.300
  30
0.0
  11
 162.450
  21
 852.300
  31
0.0
   0
LINE
   8
LEVEL110
   6
CONTINUOUS
  62
7
  10
 162.450
  20
 852.300
  30
0.0
  11
 162.450
  21
 849.300
  31
0.0
   0
LINE
   8
LEVEL110
   6
CONTINUOUS
  62
7
  10
 162.450
  20
 849.300
  30
0.0
  11
 171.450
  21
 849.300
  31
0.0
   0
LINE
   8
LEVEL110
   6
CONTINUOUS
  62
7
  10
 171.450
  20
 849.300
  30
0.0
  11
 171.450
  21
 852.300
  31
0.0
   0
LINE
   8
LEVEL110
   6
CONTINUOUS
  62
7
  10
 54.0000
  20
 837.600
  30
0.0
  11
 225.450
  21
 837.600
  31
0.0
   0
LINE
   8
LEVEL110
   6
CONTINUOUS
  62
7
  10
 225.450
  20
 837.600
  30
0.0
  11
 225.450
  21
 864.000
  31
0.0
   0
TEXT
   8
LEVEL110
  62
3
  10
 911.625
  20
 61.2000
  30
0.0
  40
 9.45000
   1
製図年月日
   7
STANDARD
  72
1
  11
 935.250
  21
 67.5000
  31
0.0
  73
2
   0
TEXT
   8
LEVEL110
  62
3
  10
 974.475
  20
 61.2000
  30
0.0
  40
 9.45000
   1
図面番号
   7
STANDARD
  72
1
  11
 993.375
  21
 67.5000
  31
0.0
  73
2
   0
TEXT
   8
LEVEL110
  62
3
  10
 907.466
  20
 84.1754
  30
0.0
  40
 9.45000
   1
尺 度
   7
STANDARD
  72
1
  11
 919.278
  21
 90.4754
  31
0.0
  73
2
   0
TEXT
   8
LEVEL110
  62
3
  10
 1044.30
  20
 173.500
  30
0.0
  40
 12.0000
   1
材料
  41
 0.787500
   7
STANDARD
  72
1
  11
 1053.75
  21
 181.500
  31
0.0
  73
2
   0
TEXT
   8
LEVEL110
  62
3
  10
 1086.30
  20
 173.500
  30
0.0
  40
 12.0000
   1
数量
  41
 0.787500
   7
STANDARD
  72
1
  11
 1095.75
  21
 181.500
  31
0.0
  73
2
   0
TEXT
   8
LEVEL110
  62
3
  10
 1110.83
  20
 173.500
  30
0.0
  40
 12.0000
   1
単重量
  41
 0.787500
   7
STANDARD
  72
1
  11
 1125.00
  21
 181.500
  31
0.0
  73
2
   0
TEXT
   8
LEVEL110
  62
3
  10
 1173.90
  20
 173.500
  30
0.0
  40
 12.0000
   1
記事
  41
 0.787500
   7
STANDARD
  72
1
  11
 1183.35
  21
 181.500
  31
0.0
  73
2
   0
TEXT
   8
LEVEL110
  62
3
  10
 971.550
  20
 158.700
  30
0.0
  40
 9.45000
   1
担当
   7
STANDARD
  72
1
  11
 981.000
  21
 165.000
  31
0.0
  73
2
   0
TEXT
   8
LEVEL110
  62
3
  10
 1000.05
  20
 158.700
  30
0.0
  40
 9.45000
   1
製図
   7
STANDARD
  72
1
  11
 1009.50
  21
 165.000
  31
0.0
  73
2
   0
TEXT
   8
LEVEL110
  62
2
  10
 1035.00
  20
 10.5000
  30
0.0
  40
 18.0000
   1
大阪ジャッキ製作所
   7
STANDARD
   0
LINE
   8
LEVEL110
   6
CONTINUOUS
  62
2
  10
 903.750
  20
 30.0000
  30
0.0
  11
 903.750
  21
 192.000
  31
0.0
   0
LINE
   8
LEVEL110
   6
CONTINUOUS
  62
2
  10
 903.750
  20
 192.000
  30
0.0
  11
 1224.45
  21
 192.000
  31
0.0
   0
TEXT
   8
LEVEL110
  62
2
  10
 917.250
  20
 103.000
  30
0.0
  40
 12.0000
   1
三角法
   7
STANDARD
  72
1
  11
 935.250
  21
 111.000
  31
0.0
  73
2
   0
LINE
   8
LEVEL110
   6
CONTINUOUS
  62
2
  10
 903.750
  20
 171.000
  30
0.0
  11
 1224.45
  21
 171.000
  31
0.0
   0
CIRCLE
   8
LEVEL110
   6
CONTINUOUS
  62
3
  10
 1005.00
  20
 15.0000
  30
0.0
  40
 3.00000
   0
TEXT
   8
LEVEL110
  62
3
  10
 1002.88
  20
 12.8787
  30
0.0
  40
 4.24264
   1
Ｒ
   7
STANDARD
   0
TEXT
   8
LEVEL110
  62
7
  10
 1012.22
  20
 19.2469
  30
0.0
  40
 8.25000
   1
株式
   7
STANDARD
   0
TEXT
   8
LEVEL110
  62
7
  10
 1012.22
  20
 11.2469
  30
0.0
  40
 8.25000
   1
会社
   7
STANDARD
   0
CIRCLE
   8
LEVEL110
   6
CONTINUOUS
  62
7
  10
 981.817
  20
 22.2000
  30
0.0
  40
 6.00000
   0
LINE
   8
LEVEL110
   6
CONTINUOUS
  62
7
  10
 993.595
  20
 28.2000
  30
0.0
  11
 985.974
  21
 15.0000
  31
0.0
   0
LINE
   8
LEVEL110
   6
CONTINUOUS
  62
7
  10
 985.974
  20
 15.0000
  30
0.0
  11
 970.732
  21
 15.0000
  31
0.0
   0
LINE
   8
LEVEL110
   6
CONTINUOUS
  62
7
  10
 970.732
  20
 15.0000
  30
0.0
  11
 969.000
  21
 12.0000
  31
0.0
   0
LINE
   8
LEVEL110
   6
CONTINUOUS
  62
7
  10
 969.000
  20
 12.0000
  30
0.0
  11
 996.242
  21
 12.0000
  31
0.0
   0
LINE
   8
LEVEL110
   6
CONTINUOUS
  62
7
  10
 996.242
  20
 12.0000
  30
0.0
  11
 1005.60
  21
 28.2000
  31
0.0
   0
LINE
   8
LEVEL110
   6
CONTINUOUS
  62
7
  10
 1005.60
  20
 28.2000
  30
0.0
  11
 993.595
  21
 28.2000
  31
0.0
   0
TEXT
   8
LEVEL110
  62
3
  10
 908.250
  20
 183.167
  30
0.0
  40
 8.25000
   1
部品
   7
STANDARD
   0
TEXT
   8
LEVEL110
  62
3
  10
 908.250
  20
 171.583
  30
0.0
  40
 8.25000
   1
番号
   7
STANDARD
   0
TEXT
   8
LEVEL110
  62
3
  10
 959.850
  20
 173.500
  30
0.0
  40
 12.0000
   1
部品名称
  41
 0.787500
   7
STANDARD
  72
1
  11
 978.750
  21
 181.500
  31
0.0
  73
2
   0
TEXT
   8
LEVEL110
  62
3
  10
 925.800
  20
 158.700
  30
0.0
  40
 9.45000
   1
認可
   7
STANDARD
  72
1
  11
 935.250
  21
 165.000
  31
0.0
  73
2
   0
TEXT
   8
LEVEL110
  62
3
  10
 1163.55
  20
 61.2000
  30
0.0
  40
 9.45000
   1
整理番号
   7
STANDARD
  72
1
  11
 1182.45
  21
 67.5000
  31
0.0
  73
2
   0
LINE
   8
LEVEL110
   6
CONTINUOUS
  62
7
  10
 1038.00
  20
 46.5000
  30
0.0
  11
 1038.00
  21
 49.5000
  31
0.0
   0
LINE
   8
LEVEL110
   6
CONTINUOUS
  62
7
  10
 1038.00
  20
 49.5000
  30
0.0
  11
 1047.00
  21
 49.5000
  31
0.0
   0
LINE
   8
LEVEL110
   6
CONTINUOUS
  62
7
  10
 1047.00
  20
 49.5000
  30
0.0
  11
 1047.00
  21
 46.5000
  31
0.0
   0
LINE
   8
LEVEL110
   6
CONTINUOUS
  62
7
  10
 1047.00
  20
 46.5000
  30
0.0
  11
 1038.00
  21
 46.5000
  31
0.0
   0
LINE
   8
LEVEL110
   6
CONTINUOUS
  62
7
  10
 171.450
  20
 852.300
  30
0.0
  11
 162.450
  21
 852.300
  31
0.0
   0
LINE
   8
LEVEL110
   6
CONTINUOUS
  62
7
  10
 162.450
  20
 852.300
  30
0.0
  11
 162.450
  21
 849.300
  31
0.0
   0
LINE
   8
LEVEL110
   6
CONTINUOUS
  62
7
  10
 162.450
  20
 849.300
  30
0.0
  11
 171.450
  21
 849.300
  31
0.0
   0
LINE
   8
LEVEL110
   6
CONTINUOUS
  62
7
  10
 171.450
  20
 849.300
  30
0.0
  11
 171.450
  21
 852.300
  31
0.0
   0
TEXT
   8
LEVEL110
  62
2
  10
 977.250
  20
 40.5000
  30
0.0
  40
 15.0000
   1
ＯＪ．
  41
 0.800000
   7
STANDARD
   0
TEXT
   8
LEVEL110
  62
2
  10
 222.450
  20
 858.300
  30
0.0
  40
 15.0000
   1
ＯＪ．
  50
 180.000
  41
 0.900000
   7
STANDARD
   0
CIRCLE
   8
LEVEL110
   6
CONTINUOUS
  62
7
  10
 981.817
  20
 22.2000
  30
0.0
  40
 6.00000
   0
LINE
   8
LEVEL110
   6
CONTINUOUS
  62
7
  10
 993.595
  20
 28.2000
  30
0.0
  11
 985.974
  21
 15.0000
  31
0.0
   0
LINE
   8
LEVEL110
   6
CONTINUOUS
  62
7
  10
 985.974
  20
 15.0000
  30
0.0
  11
 970.732
  21
 15.0000
  31
0.0
   0
LINE
   8
LEVEL110
   6
CONTINUOUS
  62
7
  10
 970.732
  20
 15.0000
  30
0.0
  11
 969.000
  21
 12.0000
  31
0.0
   0
LINE
   8
LEVEL110
   6
CONTINUOUS
  62
7
  10
 969.000
  20
 12.0000
  30
0.0
  11
 996.242
  21
 12.0000
  31
0.0
   0
LINE
   8
LEVEL110
   6
CONTINUOUS
  62
7
  10
 996.242
  20
 12.0000
  30
0.0
  11
 1005.60
  21
 28.2000
  31
0.0
   0
LINE
   8
LEVEL110
   6
CONTINUOUS
  62
7
  10
 1005.60
  20
 28.2000
  30
0.0
  11
 993.595
  21
 28.2000
  31
0.0
   0
LINE
   8
LEVEL110
   6
CONTINUOUS
  62
3
  10
 981.450
  20
 789.000
  30
0.0
  11
 981.450
  21
 864.000
  31
0.0
   0
LINE
   8
LEVEL110
   6
CONTINUOUS
  62
3
  10
 981.450
  20
 849.000
  30
0.0
  11
 1224.45
  21
 849.000
  31
0.0
   0
LINE
   8
LEVEL110
   6
CONTINUOUS
  62
3
  10
 981.450
  20
 834.000
  30
0.0
  11
 1224.45
  21
 834.000
  31
0.0
   0
LINE
   8
LEVEL110
   6
CONTINUOUS
  62
3
  10
 1008.45
  20
 849.000
  30
0.0
  11
 1008.45
  21
 834.000
  31
0.0
   0
LINE
   8
LEVEL110
   6
CONTINUOUS
  62
3
  10
 1164.45
  20
 849.000
  30
0.0
  11
 1164.45
  21
 834.000
  31
0.0
   0
LINE
   8
LEVEL110
   6
CONTINUOUS
  62
3
  10
 1200.45
  20
 849.000
  30
0.0
  11
 1200.45
  21
 834.000
  31
0.0
   0
TEXT
   8
LEVEL110
  62
3
  10
 1084.05
  20
 850.200
  30
0.0
  40
 9.45000
   1
図面来歴
   7
STANDARD
  72
1
  11
 1102.95
  21
 856.500
  31
0.0
  73
2
   0
TEXT
   8
LEVEL110
  62
3
  10
 985.500
  20
 835.200
  30
0.0
  40
 9.45000
   1
記号
   7
STANDARD
  72
1
  11
 994.950
  21
 841.500
  31
0.0
  73
2
   0
TEXT
   8
LEVEL110
  62
3
  10
 1077.00
  20
 835.200
  30
0.0
  40
 9.45000
   1
記事
   7
STANDARD
  72
1
  11
 1086.45
  21
 841.500
  31
0.0
  73
2
   0
TEXT
   8
LEVEL110
  62
3
  10
 1168.28
  20
 835.200
  30
0.0
  40
 9.45000
   1
年月日
   7
STANDARD
  72
1
  11
 1182.45
  21
 841.500
  31
0.0
  73
2
   0
TEXT
   8
LEVEL110
  62
3
  10
 1203.00
  20
 835.200
  30
0.0
  40
 9.45000
   1
担当
   7
STANDARD
  72
1
  11
 1212.45
  21
 841.500
  31
0.0
  73
2
   0
LINE
   8
LEVEL110
   6
CONTINUOUS
  62
2
  10
 54.0000
  20
 30.0000
  30
0.0
  11
 54.0000
  21
 864.000
  31
0.0
   0
LINE
   8
LEVEL110
   6
CONTINUOUS
  62
2
  10
 54.0000
  20
 864.000
  30
0.0
  11
 1224.45
  21
 864.000
  31
0.0
   0
LINE
   8
LEVEL110
   6
CONTINUOUS
  62
2
  10
 1224.45
  20
 864.000
  30
0.0
  11
 1224.45
  21
 30.0000
  31
0.0
   0
LINE
   8
LEVEL110
   6
CONTINUOUS
  62
2
  10
 1224.45
  20
 30.0000
  30
0.0
  11
 54.0000
  21
 30.0000
  31
0.0
   0
LINE
   8
LEVEL110
   6
CONTINUOUS
  62
3
  10
 981.450
  20
 819.000
  30
0.0
  11
 987.450
  21
 819.000
  31
0.0
   0
LINE
   8
LEVEL110
   6
CONTINUOUS
  62
3
  10
 1218.45
  20
 819.000
  30
0.0
  11
 1224.45
  21
 819.000
  31
0.0
   0
LINE
   8
LEVEL110
   6
CONTINUOUS
  62
3
  10
 981.450
  20
 804.000
  30
0.0
  11
 987.450
  21
 804.000
  31
0.0
   0
LINE
   8
LEVEL110
   6
CONTINUOUS
  62
3
  10
 1218.45
  20
 804.000
  30
0.0
  11
 1224.45
  21
 804.000
  31
0.0
   0
LINE
   8
LEVEL110
   6
CONTINUOUS
  62
3
  10
 981.450
  20
 789.000
  30
0.0
  11
 987.450
  21
 789.000
  31
0.0
   0
LINE
   8
LEVEL110
   6
CONTINUOUS
  62
3
  10
 1218.45
  20
 789.000
  30
0.0
  11
 1224.45
  21
 789.000
  31
0.0
   0
CIRCLE
   8
LEVEL003
   6
CONTINUOUS
  62
7
  10
 936.652
  20
 95.5933
  30
0.0
  40
 8.06216
   0
LINE
   8
LEVEL003
   6
CONTINUOUS
  62
7
  10
 952.475
  20
 103.655
  30
0.0
  11
 942.236
  21
 85.9187
  31
0.0
   0
LINE
   8
LEVEL003
   6
CONTINUOUS
  62
7
  10
 942.236
  20
 85.9187
  30
0.0
  11
 921.756
  21
 85.9187
  31
0.0
   0
LINE
   8
LEVEL003
   6
CONTINUOUS
  62
7
  10
 919.428
  20
 81.8877
  30
0.0
  11
 956.034
  21
 81.8877
  31
0.0
   0
LINE
   8
LEVEL003
   6
CONTINUOUS
  62
7
  10
 956.034
  20
 81.8877
  30
0.0
  11
 968.600
  21
 103.655
  31
0.0
   0
LINE
   8
LEVEL003
   6
CONTINUOUS
  62
7
  10
 968.600
  20
 103.655
  30
0.0
  11
 952.475
  21
 103.655
  31
0.0
   0
LINE
   8
LEVEL003
   6
CONTINUOUS
  62
7
  10
 921.756
  20
 85.9187
  30
0.0
  11
 919.428
  21
 81.8877
  31
0.0
   0
TEXT
   8
LEVEL003
  62
7
  10
 978.882
  20
 77.3562
  30
0.0
  40
 20.1554
   1
ＯＳＡＫＡ ＪＡＣＫ
   7
STANDARD
   0
TEXT
   8
LEVEL003
  62
7
  10
 979.248
  20
 117.297
  30
0.0
  40
 13.4369
   1
Model : ＪＪ－５０３５
   7
STANDARD
   0
ENDSEC
   0
EOF
