   0
SECTION
   2
HEADER
   9
$LIMMIN
  10
0.0
  20
0.0
   9
$LIMMAX
  10
 1188.00
  20
 974.000
   9
$EXTMIN
  10
0.0
  20
0.0
   9
$EXTMAX
  10
 1188.00
  20
 974.000
   9
$LTSCALE
  40
 23.7600
   0
ENDSEC
   0
SECTION
   2
TABLES
  0
TABLE
  2
LTYPE
 70
    25
  0
LTYPE
  2
CONTINUOUS
 70
    64
  3
Solid line
 72
    65
 73
     0
 40
0.0
  0
LTYPE
  2
BORDER
 70
    64
  3
__ __ . __ __ . __ __ . __ __ . __ __ . __ __ .
 72
    65
 73
     6
 40
1.75
 49
0.5
 49
-0.25
 49
0.5
 49
-0.25
 49
0.0
 49
-0.25
  0
LTYPE
  2
BORDER2
 70
    64
  3
__.__.__.__.__.__.__.__.__.__.__.__.__.__.__.__
 72
    65
 73
     6
 40
0.875
 49
0.25
 49
-0.125
 49
0.25
 49
-0.125
 49
0.0
 49
-0.125
  0
LTYPE
  2
BORDERX2
 70
    64
  3
____  ____  .  ____  ____  .  ____  ____  .  __
 72
    65
 73
     6
 40
3.5
 49
1.0
 49
-0.5
 49
1.0
 49
-0.5
 49
0.0
 49
-0.5
  0
LTYPE
  2
CENTER
 70
    64
  3
____ _ ____ _ ____ _ ____ _ ____ _ ____ _ ____ 
 72
    65
 73
     4
 40
2.0
 49
1.25
 49
-0.25
 49
0.25
 49
-0.25
  0
LTYPE
  2
CENTER2
 70
    64
  3
___ _ ___ _ ___ _ ___ _ ___ _ ___ _ ___ _ ___ _
 72
    65
 73
     4
 40
1.125
 49
0.75
 49
-0.125
 49
0.125
 49
-0.125
  0
LTYPE
  2
CENTERX2
 70
    64
  3
________  __  ________  __  ________  __  _____
 72
    65
 73
     4
 40
4.0
 49
2.5
 49
-0.5
 49
0.5
 49
-0.5
  0
LTYPE
  2
DASHDOT
 70
    64
  3
__ . __ . __ . __ . __ . __ . __ . __ . __ . __
 72
    65
 73
     4
 40
1.0
 49
0.5
 49
-0.25
 49
0.0
 49
-0.25
  0
LTYPE
  2
DASHDOT2
 70
    64
  3
_._._._._._._._._._._._._._._._._._._._._._._._
 72
    65
 73
     4
 40
0.5
 49
0.25
 49
-0.125
 49
0.0
 49
-0.125
  0
LTYPE
  2
DASHDOTX2
 70
    64
  3
____  .  ____  .  ____  .  ____  .  ____  .  __
 72
    65
 73
     4
 40
2.0
 49
1.0
 49
-0.5
 49
0.0
 49
-0.5
  0
LTYPE
  2
DASHED
 70
    64
  3
__ __ __ __ __ __ __ __ __ __ __ __ __ __ __ __
 72
    65
 73
     2
 40
0.75
 49
0.5
 49
-0.25
  0
LTYPE
  2
DASHED2
 70
    64
  3
_ _ _ _ _ _ _ _ _ _ _ _ _ _ _ _ _ _ _ _ _ _ _ _
 72
    65
 73
     2
 40
0.375
 49
0.25
 49
-0.125
  0
LTYPE
  2
DASHEDX2
 70
    64
  3
____  ____  ____  ____  ____  ____  ____  ____ 
 72
    65
 73
     2
 40
1.5
 49
1.0
 49
-0.5
  0
LTYPE
  2
DIVIDE
 70
    64
  3
____ . . ____ . . ____ . . ____ . . ____ . . __
 72
    65
 73
     6
 40
1.25
 49
0.5
 49
-0.25
 49
0.0
 49
-0.25
 49
0.0
 49
-0.25
  0
LTYPE
  2
DIVIDE2
 70
    64
  3
__..__..__..__..__..__..__..__..__..__..__..__.
 72
    65
 73
     6
 40
0.625
 49
0.25
 49
-0.125
 49
0.0
 49
-0.125
 49
0.0
 49
-0.125
  0
LTYPE
  2
DIVIDEX2
 70
    64
  3
________  .  .  ________  .  .  ________  .  . 
 72
    65
 73
     6
 40
2.5
 49
1.0
 49
-0.5
 49
0.0
 49
-0.5
 49
0.0
 49
-0.5
  0
LTYPE
  2
DOT
 70
    64
  3
. . . . . . . . . . . . . . . . . . . . . . . .
 72
    65
 73
     2
 40
0.25
 49
0.0
 49
-0.25
  0
LTYPE
  2
DOT2
 70
    64
  3
...............................................
 72
    65
 73
     2
 40
0.125
 49
0.0
 49
-0.125
  0
LTYPE
  2
DOTX2
 70
    64
  3
.  .  .  .  .  .  .  .  .  .  .  .  .  .  .  . 
 72
    65
 73
     2
 40
0.5
 49
0.0
 49
-0.5
  0
LTYPE
  2
HIDDEN
 70
    64
  3
__ __ __ __ __ __ __ __ __ __ __ __ __ __ __ __
 72
    65
 73
     2
 40
0.375
 49
0.25
 49
-0.125
  0
LTYPE
  2
HIDDEN2
 70
    64
  3
_ _ _ _ _ _ _ _ _ _ _ _ _ _ _ _ _ _ _ _ _ _ _ _
 72
    65
 73
     2
 40
0.1875
 49
0.125
 49
-0.0625
  0
LTYPE
  2
HIDDENX2
 70
    64
  3
____ ____ ____ ____ ____ ____ ____ ____ ____ __
 72
    65
 73
     2
 40
0.75
 49
0.5
 49
-0.25
  0
LTYPE
  2
PHANTOM
 70
    64
  3
______  __  __  ______  __  __  ______  __  __ 
 72
    65
 73
     6
 40
2.5
 49
1.25
 49
-0.25
 49
0.25
 49
-0.25
 49
0.25
 49
-0.25
  0
LTYPE
  2
PHANTOM2
 70
    64
  3
___ _ _ ___ _ _ ___ _ _ ___ _ _ ___ _ _ ___ _ _
 72
    65
 73
     6
 40
1.25
 49
0.625
 49
-0.125
 49
0.125
 49
-0.125
 49
0.125
 49
-0.125
  0
LTYPE
  2
PHANTOMX2
 70
    64
  3
____________    ____    ____    ____________   
 72
    65
 73
     6
 40
5.0
 49
2.5
 49
-0.5
 49
0.5
 49
-0.5
 49
0.5
 49
-0.5
  0
ENDTAB
  0
TABLE
  2
STYLE
 70
     2
  0
STYLE
  2
STANDARD
 70
0
 40
0.0
 41
1.0
 50
0.0
 71
0
 42
0.2
  3
TXT
  4
BIGFONT
  0
STYLE
  2
STANDARD1
 70
     4
 40
0.0
 41
1.0
 50
0.0
 71
     0
 42
0.2
  3
TXT
  4
BIGFONT
  0
ENDTAB
   0
TABLE
   2
LAYER
  70
4
   0
LAYER
   2
0
  70
0
  62
7
   6
CONTINUOUS
   0
LAYER
   2
LEVEL001
  70
0
  62
7
   6
CONTINUOUS
   0
LAYER
   2
LEVEL003
  70
0
  62
7
   6
CONTINUOUS
   0
LAYER
   2
LEVEL004
  70
0
  62
7
   6
CONTINUOUS
   0
ENDTAB
   0
ENDSEC
   0
SECTION
   2
ENTITIES
   0
ARC
   8
LEVEL001
   6
CONTINUOUS
  62
7
  10
 243.000
  20
 243.223
  30
0.0
  40
 12.0000
  50
 0.135704E-12
  51
 82.1630
   0
LINE
   8
LEVEL001
   6
CONTINUOUS
  62
7
  10
 243.000
  20
 255.223
  30
0.0
  11
 157.000
  21
 255.223
  31
0.0
   0
ARC
   8
LEVEL001
   6
CONTINUOUS
  62
7
  10
 239.000
  20
 143.000
  30
0.0
  40
 3.00000
  50
 138.191
  51
 180.001
   0
LINE
   8
LEVEL001
   6
CONTINUOUS
  62
7
  10
 236.000
  20
 135.000
  30
0.0
  11
 164.000
  21
 135.000
  31
0.0
   0
LINE
   8
LEVEL001
   6
CONTINUOUS
  62
7
  10
 166.000
  20
 132.171
  30
0.0
  11
 166.000
  21
 104.500
  31
0.0
   0
ARC
   8
LEVEL001
   6
CONTINUOUS
  62
7
  10
 163.000
  20
 132.171
  30
0.0
  40
 3.00000
  50
 359.998
  51
 70.5280
   0
LINE
   8
LEVEL001
   6
CONTINUOUS
  62
7
  10
 164.000
  20
 143.000
  30
0.0
  11
 164.000
  21
 135.000
  31
0.0
   0
ARC
   8
LEVEL001
   6
CONTINUOUS
  62
7
  10
 237.000
  20
 132.171
  30
0.0
  40
 3.00000
  50
 109.472
  51
 180.002
   0
LINE
   8
LEVEL001
   6
CONTINUOUS
  62
7
  10
 236.000
  20
 143.000
  30
0.0
  11
 236.000
  21
 135.000
  31
0.0
   0
ARC
   8
LEVEL001
   6
CONTINUOUS
  62
7
  10
 161.000
  20
 143.000
  30
0.0
  40
 3.00000
  50
 0.814222E-11
  51
 41.8090
   0
LINE
   8
LEVEL001
   6
CONTINUOUS
  62
7
  10
 200.000
  20
 102.500
  30
0.0
  11
 168.000
  21
 102.500
  31
0.0
   0
LINE
   8
LEVEL001
   6
CONTINUOUS
  62
7
  10
 200.000
  20
 102.500
  30
0.0
  11
 232.000
  21
 102.500
  31
0.0
   0
LINE
   8
LEVEL001
   6
CONTINUOUS
  62
7
  10
 171.000
  20
 270.018
  30
0.0
  11
 171.000
  21
 274.750
  31
0.0
   0
LINE
   8
LEVEL001
   6
CONTINUOUS
  62
7
  10
 229.000
  20
 270.018
  30
0.0
  11
 229.000
  21
 274.750
  31
0.0
   0
LINE
   8
LEVEL001
   6
CONTINUOUS
  62
7
  10
 219.000
  20
 35.0000
  30
0.0
  11
 219.000
  21
 73.0000
  31
0.0
   0
LINE
   8
LEVEL001
   6
CONTINUOUS
  62
7
  10
 181.000
  20
 35.0000
  30
0.0
  11
 181.000
  21
 73.0000
  31
0.0
   0
LINE
   8
LEVEL001
   6
CONTINUOUS
  62
7
  10
 220.000
  20
 36.0000
  30
0.0
  11
 180.000
  21
 36.0000
  31
0.0
   0
LINE
   8
LEVEL001
   6
CONTINUOUS
  62
7
  10
 219.000
  20
 35.0000
  30
0.0
  11
 181.000
  21
 35.0000
  31
0.0
   0
LINE
   8
LEVEL001
   6
CONTINUOUS
  62
7
  10
 220.000
  20
 36.0000
  30
0.0
  11
 220.000
  21
 37.0000
  31
0.0
   0
LINE
   8
LEVEL001
   6
CONTINUOUS
  62
7
  10
 219.000
  20
 73.0000
  30
0.0
  11
 219.000
  21
 74.0000
  31
0.0
   0
ARC
   8
LEVEL001
   6
CONTINUOUS
  62
7
  10
 220.000
  20
 74.0000
  30
0.0
  40
 1.00000
  50
 90.0010
  51
 179.999
   0
ARC
   8
LEVEL001
   6
CONTINUOUS
  62
7
  10
 220.000
  20
 73.0000
  30
0.0
  40
 1.00000
  50
 179.997
  51
 270.000
   0
LINE
   8
LEVEL001
   6
CONTINUOUS
  62
7
  10
 180.000
  20
 36.0000
  30
0.0
  11
 180.000
  21
 37.0000
  31
0.0
   0
LINE
   8
LEVEL001
   6
CONTINUOUS
  62
7
  10
 181.000
  20
 73.0000
  30
0.0
  11
 181.000
  21
 74.0000
  31
0.0
   0
ARC
   8
LEVEL001
   6
CONTINUOUS
  62
7
  10
 180.000
  20
 74.0000
  30
0.0
  40
 1.00000
  50
 0.900000E-3
  51
 89.9990
   0
ARC
   8
LEVEL001
   6
CONTINUOUS
  62
7
  10
 180.000
  20
 73.0000
  30
0.0
  40
 1.00000
  50
 270.001
  51
 0.350000E-2
   0
ARC
   8
LEVEL001
   6
CONTINUOUS
  62
7
  10
 154.000
  20
 265.018
  30
0.0
  40
 10.0000
  50
 277.837
  51
 0.100000E-3
   0
LINE
   8
LEVEL001
   6
CONTINUOUS
  62
7
  10
 164.000
  20
 268.018
  30
0.0
  11
 164.000
  21
 265.018
  31
0.0
   0
ARC
   8
LEVEL001
   6
CONTINUOUS
  62
7
  10
 166.000
  20
 268.018
  30
0.0
  40
 2.00000
  50
 90.0010
  51
 180.003
   0
ARC
   8
LEVEL001
   6
CONTINUOUS
  62
7
  10
 246.000
  20
 265.018
  30
0.0
  40
 10.0000
  50
 180.000
  51
 262.162
   0
LINE
   8
LEVEL001
   6
CONTINUOUS
  62
7
  10
 236.000
  20
 268.018
  30
0.0
  11
 236.000
  21
 265.018
  31
0.0
   0
ARC
   8
LEVEL001
   6
CONTINUOUS
  62
7
  10
 234.000
  20
 268.018
  30
0.0
  40
 2.00000
  50
 359.997
  51
 89.9990
   0
ARC
   8
LEVEL001
   6
CONTINUOUS
  62
7
  10
 168.000
  20
 104.500
  30
0.0
  40
 2.00000
  50
 180.001
  51
 270.000
   0
LINE
   8
LEVEL001
   6
CONTINUOUS
  62
7
  10
 234.000
  20
 132.421
  30
0.0
  11
 234.000
  21
 104.500
  31
0.0
   0
ARC
   8
LEVEL001
   6
CONTINUOUS
  62
7
  10
 232.000
  20
 104.500
  30
0.0
  40
 2.00000
  50
 269.999
  51
0.0
   0
LINE
   8
LEVEL001
   6
CONTINUOUS
  62
7
  10
 179.000
  20
 75.5000
  30
0.0
  11
 179.000
  21
 99.5000
  31
0.0
   0
ARC
   8
LEVEL001
   6
CONTINUOUS
  62
7
  10
 179.500
  20
 75.5000
  30
0.0
  40
 0.500000
  50
 179.997
  51
 269.995
   0
ARC
   8
LEVEL001
   6
CONTINUOUS
  62
7
  10
 220.500
  20
 75.5000
  30
0.0
  40
 0.500000
  50
 269.997
  51
 0.350000E-2
   0
LINE
   8
LEVEL001
   6
CONTINUOUS
  62
7
  10
 179.250
  20
 99.5000
  30
0.0
  11
 179.250
  21
 102.500
  31
0.0
   0
LINE
   8
LEVEL001
   6
CONTINUOUS
  62
7
  10
 220.750
  20
 99.5000
  30
0.0
  11
 220.750
  21
 102.500
  31
0.0
   0
LINE
   8
LEVEL001
   6
CONTINUOUS
  62
7
  10
 172.000
  20
 271.018
  30
0.0
  11
 171.000
  21
 274.750
  31
0.0
   0
LINE
   8
LEVEL001
   6
CONTINUOUS
  62
7
  10
 228.000
  20
 271.018
  30
0.0
  11
 229.000
  21
 274.750
  31
0.0
   0
LINE
   8
LEVEL001
   6
CONTINUOUS
  62
7
  10
 172.000
  20
 270.018
  30
0.0
  11
 172.000
  21
 271.018
  31
0.0
   0
LINE
   8
LEVEL001
   6
CONTINUOUS
  62
7
  10
 228.000
  20
 270.018
  30
0.0
  11
 228.000
  21
 271.018
  31
0.0
   0
LINE
   8
LEVEL001
   6
CONTINUOUS
  62
7
  10
 219.000
  20
 35.0000
  30
0.0
  11
 220.000
  21
 36.0000
  31
0.0
   0
LINE
   8
LEVEL001
   6
CONTINUOUS
  62
7
  10
 181.000
  20
 35.0000
  30
0.0
  11
 180.000
  21
 36.0000
  31
0.0
   0
LINE
   8
LEVEL001
   6
CONTINUOUS
  62
7
  10
 180.000
  20
 36.0000
  30
0.0
  11
 180.000
  21
 72.0000
  31
0.0
   0
LINE
   8
LEVEL001
   6
CONTINUOUS
  62
7
  10
 172.000
  20
 645.000
  30
0.0
  11
 228.000
  21
 645.000
  31
0.0
   0
LINE
   8
LEVEL001
   6
CONTINUOUS
  62
7
  10
 169.750
  20
 641.000
  30
0.0
  11
 172.000
  21
 645.000
  31
0.0
   0
LINE
   8
LEVEL001
   6
CONTINUOUS
  62
7
  10
 230.250
  20
 641.000
  30
0.0
  11
 228.000
  21
 645.000
  31
0.0
   0
LINE
   8
LEVEL001
   6
CONTINUOUS
  62
7
  10
 230.250
  20
 641.000
  30
0.0
  11
 169.750
  21
 641.000
  31
0.0
   0
LINE
   8
LEVEL001
   6
CONTINUOUS
  62
7
  10
 230.250
  20
 274.750
  30
0.0
  11
 230.250
  21
 641.000
  31
0.0
   0
LINE
   8
LEVEL001
   6
CONTINUOUS
  62
7
  10
 179.000
  20
 99.5000
  30
0.0
  11
 221.000
  21
 99.5000
  31
0.0
   0
LINE
   8
LEVEL001
   6
CONTINUOUS
  62
7
  10
 221.000
  20
 75.5000
  30
0.0
  11
 221.000
  21
 99.5000
  31
0.0
   0
LINE
   8
LEVEL001
   6
CONTINUOUS
  62
7
  10
 220.000
  20
 72.0000
  30
0.0
  11
 180.000
  21
 72.0000
  31
0.0
   0
LINE
   8
LEVEL001
   6
CONTINUOUS
  62
7
  10
 220.000
  20
 36.0000
  30
0.0
  11
 220.000
  21
 72.0000
  31
0.0
   0
LINE
   8
LEVEL001
   6
CONTINUOUS
  62
7
  10
 220.500
  20
 75.0000
  30
0.0
  11
 179.500
  21
 75.0000
  31
0.0
   0
LINE
   8
LEVEL001
   6
CONTINUOUS
  62
7
  10
 234.018
  20
 132.500
  30
0.0
  11
 234.700
  21
 132.500
  31
0.0
   0
LINE
   8
LEVEL001
   6
CONTINUOUS
  62
7
  10
 234.700
  20
 132.500
  30
0.0
  11
 235.000
  21
 131.980
  31
0.0
   0
LINE
   8
LEVEL001
   6
CONTINUOUS
  62
7
  10
 235.000
  20
 131.980
  30
0.0
  11
 235.000
  21
 123.020
  31
0.0
   0
LINE
   8
LEVEL001
   6
CONTINUOUS
  62
7
  10
 235.000
  20
 123.020
  30
0.0
  11
 234.700
  21
 122.500
  31
0.0
   0
LINE
   8
LEVEL001
   6
CONTINUOUS
  62
7
  10
 234.700
  20
 122.500
  30
0.0
  11
 234.000
  21
 122.500
  31
0.0
   0
LINE
   8
LEVEL001
   6
CONTINUOUS
  62
7
  10
 234.700
  20
 132.500
  30
0.0
  11
 234.700
  21
 122.500
  31
0.0
   0
LINE
   8
LEVEL001
   6
CONTINUOUS
  62
7
  10
 234.018
  20
 117.500
  30
0.0
  11
 234.700
  21
 117.500
  31
0.0
   0
LINE
   8
LEVEL001
   6
CONTINUOUS
  62
7
  10
 234.700
  20
 117.500
  30
0.0
  11
 235.000
  21
 116.980
  31
0.0
   0
LINE
   8
LEVEL001
   6
CONTINUOUS
  62
7
  10
 235.000
  20
 116.980
  30
0.0
  11
 235.000
  21
 108.020
  31
0.0
   0
LINE
   8
LEVEL001
   6
CONTINUOUS
  62
7
  10
 235.000
  20
 108.020
  30
0.0
  11
 234.700
  21
 107.500
  31
0.0
   0
LINE
   8
LEVEL001
   6
CONTINUOUS
  62
7
  10
 234.700
  20
 107.500
  30
0.0
  11
 234.000
  21
 107.500
  31
0.0
   0
LINE
   8
LEVEL001
   6
CONTINUOUS
  62
7
  10
 234.700
  20
 117.500
  30
0.0
  11
 234.700
  21
 107.500
  31
0.0
   0
LINE
   8
LEVEL001
   6
CONTINUOUS
  62
7
  10
 169.750
  20
 274.750
  30
0.0
  11
 169.750
  21
 641.000
  31
0.0
   0
LINE
   8
LEVEL001
   6
CONTINUOUS
  62
7
  10
 169.750
  20
 274.750
  30
0.0
  11
 230.250
  21
 274.750
  31
0.0
   0
LINE
   8
LEVEL001
   6
CONTINUOUS
  62
7
  10
 234.000
  20
 270.018
  30
0.0
  11
 166.000
  21
 270.018
  31
0.0
   0
LINE
   8
LEVEL001
   6
CONTINUOUS
  62
7
  10
 171.000
  20
 271.018
  30
0.0
  11
 229.000
  21
 271.018
  31
0.0
   0
ARC
   8
LEVEL001
   6
CONTINUOUS
  62
7
  10
 128.500
  20
 235.000
  30
0.0
  40
 2.00000
  50
 90.0010
  51
 180.000
   0
LINE
   8
LEVEL001
   6
CONTINUOUS
  62
7
  10
 138.500
  20
 237.000
  30
0.0
  11
 128.500
  21
 237.000
  31
0.0
   0
LINE
   8
LEVEL001
   6
CONTINUOUS
  62
7
  10
 138.500
  20
 163.000
  30
0.0
  11
 128.500
  21
 163.000
  31
0.0
   0
ARC
   8
LEVEL001
   6
CONTINUOUS
  62
7
  10
 128.500
  20
 165.000
  30
0.0
  40
 2.00000
  50
 180.001
  51
 269.999
   0
LINE
   8
LEVEL001
   6
CONTINUOUS
  62
7
  10
 138.750
  20
 236.000
  30
0.0
  11
 138.750
  21
 164.000
  31
0.0
   0
LINE
   8
LEVEL001
   6
CONTINUOUS
  62
7
  10
 138.500
  20
 163.000
  30
0.0
  11
 138.500
  21
 237.000
  31
0.0
   0
LINE
   8
LEVEL001
   6
CONTINUOUS
  62
7
  10
 126.500
  20
 235.000
  30
0.0
  11
 126.500
  21
 165.000
  31
0.0
   0
LINE
   8
LEVEL001
   6
CONTINUOUS
  62
7
  10
 261.250
  20
 236.000
  30
0.0
  11
 261.250
  21
 164.000
  31
0.0
   0
LINE
   8
LEVEL001
   6
CONTINUOUS
  62
7
  10
 273.500
  20
 212.500
  30
0.0
  11
 275.500
  21
 212.500
  31
0.0
   0
LINE
   8
LEVEL001
   6
CONTINUOUS
  62
7
  10
 273.500
  20
 187.500
  30
0.0
  11
 275.500
  21
 187.500
  31
0.0
   0
LINE
   8
LEVEL001
   6
CONTINUOUS
  62
7
  10
 261.500
  20
 163.000
  30
0.0
  11
 261.500
  21
 237.000
  31
0.0
   0
LINE
   8
LEVEL001
   6
CONTINUOUS
  62
7
  10
 261.500
  20
 163.000
  30
0.0
  11
 271.500
  21
 163.000
  31
0.0
   0
ARC
   8
LEVEL001
   6
CONTINUOUS
  62
7
  10
 271.500
  20
 165.000
  30
0.0
  40
 2.00000
  50
 270.001
  51
 0.179129E-10
   0
LINE
   8
LEVEL001
   6
CONTINUOUS
  62
7
  10
 273.500
  20
 235.000
  30
0.0
  11
 273.500
  21
 165.000
  31
0.0
   0
ARC
   8
LEVEL001
   6
CONTINUOUS
  62
7
  10
 271.500
  20
 235.000
  30
0.0
  40
 2.00000
  50
 1.00000E-3
  51
 89.9990
   0
LINE
   8
LEVEL001
   6
CONTINUOUS
  62
7
  10
 261.500
  20
 237.000
  30
0.0
  11
 271.500
  21
 237.000
  31
0.0
   0
LINE
   8
LEVEL001
   6
CONTINUOUS
  62
7
  10
 259.808
  20
 164.000
  30
0.0
  11
 261.250
  21
 164.000
  31
0.0
   0
LINE
   8
LEVEL001
   6
CONTINUOUS
  62
7
  10
 187.919
  20
 236.803
  30
0.0
  11
 138.750
  21
 236.000
  31
0.0
   0
LINE
   8
LEVEL001
   6
CONTINUOUS
  62
7
  10
 212.081
  20
 236.803
  30
0.0
  11
 261.250
  21
 236.000
  31
0.0
   0
LINE
   8
LEVEL001
   6
CONTINUOUS
  62
7
  10
 140.192
  20
 164.000
  30
0.0
  11
 138.750
  21
 164.000
  31
0.0
   0
LINE
   8
LEVEL001
   6
CONTINUOUS
  62
7
  10
 275.500
  20
 212.500
  30
0.0
  11
 275.500
  21
 200.000
  31
0.0
   0
LINE
   8
LEVEL001
   6
CONTINUOUS
  62
7
  10
 275.500
  20
 187.500
  30
0.0
  11
 275.500
  21
 200.000
  31
0.0
   0
LINE
   8
LEVEL001
   6
CONTINUOUS
  62
7
  10
 279.000
  20
 189.000
  30
0.0
  11
 314.000
  21
 189.000
  31
0.0
   0
LINE
   8
LEVEL001
   6
CONTINUOUS
  62
7
  10
 314.000
  20
 189.000
  30
0.0
  11
 315.000
  21
 190.000
  31
0.0
   0
LINE
   8
LEVEL001
   6
CONTINUOUS
  62
7
  10
 279.000
  20
 189.000
  30
0.0
  11
 275.500
  21
 187.500
  31
0.0
   0
LINE
   8
LEVEL001
   6
CONTINUOUS
  62
7
  10
 255.000
  20
 145.000
  30
0.0
  11
 145.000
  21
 145.000
  31
0.0
   0
LINE
   8
LEVEL001
   6
CONTINUOUS
  62
7
  10
 255.000
  20
 160.000
  30
0.0
  11
 255.000
  21
 145.000
  31
0.0
   0
ARC
   8
LEVEL001
   6
CONTINUOUS
  62
7
  10
 259.808
  20
 158.000
  30
0.0
  40
 6.00000
  50
 90.0000
  51
 160.529
   0
LINE
   8
LEVEL001
   6
CONTINUOUS
  62
7
  10
 255.000
  20
 243.223
  30
0.0
  11
 255.000
  21
 236.102
  31
0.0
   0
LINE
   8
LEVEL001
   6
CONTINUOUS
  62
7
  10
 255.000
  20
 161.589
  30
0.0
  11
 255.000
  21
 160.000
  31
0.0
   0
LINE
   8
LEVEL001
   6
CONTINUOUS
  62
7
  10
 145.000
  20
 161.589
  30
0.0
  11
 145.000
  21
 160.000
  31
0.0
   0
LINE
   8
LEVEL001
   6
CONTINUOUS
  62
7
  10
 145.000
  20
 160.000
  30
0.0
  11
 145.000
  21
 145.000
  31
0.0
   0
LINE
   8
LEVEL001
   6
CONTINUOUS
  62
7
  10
 145.000
  20
 243.223
  30
0.0
  11
 145.000
  21
 236.102
  31
0.0
   0
ARC
   8
LEVEL001
   6
CONTINUOUS
  62
7
  10
 157.000
  20
 243.223
  30
0.0
  40
 12.0000
  50
 97.8370
  51
 180.000
   0
LINE
   8
LEVEL001
   6
CONTINUOUS
  62
7
  10
 314.000
  20
 210.583
  30
0.0
  11
 315.000
  21
 209.539
  31
0.0
   0
LINE
   8
LEVEL001
   6
CONTINUOUS
  62
7
  10
 275.500
  20
 212.500
  30
0.0
  11
 279.000
  21
 210.583
  31
0.0
   0
LINE
   8
LEVEL001
   6
CONTINUOUS
  62
7
  10
 285.000
  20
 213.500
  30
0.0
  11
 285.000
  21
 210.583
  31
0.0
   0
LINE
   8
LEVEL001
   6
CONTINUOUS
  62
7
  10
 314.000
  20
 189.000
  30
0.0
  11
 314.000
  21
 210.583
  31
0.0
   0
LINE
   8
LEVEL001
   6
CONTINUOUS
  62
7
  10
 315.000
  20
 190.000
  30
0.0
  11
 315.000
  21
 209.539
  31
0.0
   0
LINE
   8
LEVEL001
   6
CONTINUOUS
  62
7
  10
 279.000
  20
 189.000
  30
0.0
  11
 279.000
  21
 210.583
  31
0.0
   0
LINE
   8
LEVEL001
   6
CONTINUOUS
  62
7
  10
 279.000
  20
 210.583
  30
0.0
  11
 314.000
  21
 210.583
  31
0.0
   0
LINE
   8
LEVEL001
   6
CONTINUOUS
  62
7
  10
 285.000
  20
 213.500
  30
0.0
  11
 315.000
  21
 213.500
  31
0.0
   0
LINE
   8
LEVEL001
   6
CONTINUOUS
  62
7
  10
 315.000
  20
 213.500
  30
0.0
  11
 315.000
  21
 209.539
  31
0.0
   0
LINE
   8
LEVEL001
   6
CONTINUOUS
  62
7
  10
 126.500
  20
 212.500
  30
0.0
  11
 124.500
  21
 212.500
  31
0.0
   0
LINE
   8
LEVEL001
   6
CONTINUOUS
  62
7
  10
 126.500
  20
 187.500
  30
0.0
  11
 124.500
  21
 187.500
  31
0.0
   0
LINE
   8
LEVEL001
   6
CONTINUOUS
  62
7
  10
 124.500
  20
 212.500
  30
0.0
  11
 124.500
  21
 200.000
  31
0.0
   0
LINE
   8
LEVEL001
   6
CONTINUOUS
  62
7
  10
 124.500
  20
 187.500
  30
0.0
  11
 124.500
  21
 200.000
  31
0.0
   0
LINE
   8
LEVEL001
   6
CONTINUOUS
  62
7
  10
 121.000
  20
 189.000
  30
0.0
  11
 86.0000
  21
 189.000
  31
0.0
   0
LINE
   8
LEVEL001
   6
CONTINUOUS
  62
7
  10
 86.0000
  20
 189.000
  30
0.0
  11
 85.0000
  21
 190.000
  31
0.0
   0
LINE
   8
LEVEL001
   6
CONTINUOUS
  62
7
  10
 121.000
  20
 189.000
  30
0.0
  11
 124.500
  21
 187.500
  31
0.0
   0
LINE
   8
LEVEL001
   6
CONTINUOUS
  62
7
  10
 86.0000
  20
 210.583
  30
0.0
  11
 85.0000
  21
 209.539
  31
0.0
   0
LINE
   8
LEVEL001
   6
CONTINUOUS
  62
7
  10
 124.500
  20
 212.500
  30
0.0
  11
 121.000
  21
 210.583
  31
0.0
   0
LINE
   8
LEVEL001
   6
CONTINUOUS
  62
7
  10
 115.000
  20
 213.500
  30
0.0
  11
 115.000
  21
 210.583
  31
0.0
   0
LINE
   8
LEVEL001
   6
CONTINUOUS
  62
7
  10
 86.0000
  20
 189.000
  30
0.0
  11
 86.0000
  21
 210.583
  31
0.0
   0
LINE
   8
LEVEL001
   6
CONTINUOUS
  62
7
  10
 85.0000
  20
 190.000
  30
0.0
  11
 85.0000
  21
 209.539
  31
0.0
   0
LINE
   8
LEVEL001
   6
CONTINUOUS
  62
7
  10
 121.000
  20
 189.000
  30
0.0
  11
 121.000
  21
 210.583
  31
0.0
   0
LINE
   8
LEVEL001
   6
CONTINUOUS
  62
7
  10
 121.000
  20
 210.583
  30
0.0
  11
 86.0000
  21
 210.583
  31
0.0
   0
LINE
   8
LEVEL001
   6
CONTINUOUS
  62
7
  10
 115.000
  20
 213.500
  30
0.0
  11
 85.0000
  21
 213.500
  31
0.0
   0
LINE
   8
LEVEL001
   6
CONTINUOUS
  62
7
  10
 85.0000
  20
 213.500
  30
0.0
  11
 85.0000
  21
 209.539
  31
0.0
   0
ARC
   8
LEVEL001
   6
CONTINUOUS
  62
7
  10
 140.192
  20
 158.000
  30
0.0
  40
 6.00000
  50
 19.5780
  51
 90.0000
   0
ARC
   8
LEVEL001
   6
CONTINUOUS
  62
7
  10
 209.191
  20
 165.000
  30
0.0
  40
 5.00000
  50
 177.852
  51
 270.000
   0
LINE
   8
LEVEL001
   6
CONTINUOUS
  62
7
  10
 145.000
  20
 160.000
  30
0.0
  11
 255.000
  21
 160.000
  31
0.0
   0
ARC
   8
LEVEL001
   6
CONTINUOUS
  62
7
  10
 190.809
  20
 165.000
  30
0.0
  40
 5.00000
  50
 270.000
  51
 2.14759
   0
LINE
   8
LEVEL001
   6
CONTINUOUS
  62
7
  10
 205.320
  20
 195.187
  30
0.0
  11
 204.195
  21
 165.187
  31
0.0
   0
ARC
   8
LEVEL001
   6
CONTINUOUS
  62
7
  10
 210.316
  20
 195.000
  30
0.0
  40
 5.00000
  50
 90.0000
  51
 177.852
   0
LINE
   8
LEVEL001
   6
CONTINUOUS
  62
7
  10
 194.680
  20
 195.187
  30
0.0
  11
 195.805
  21
 165.187
  31
0.0
   0
ARC
   8
LEVEL001
   6
CONTINUOUS
  62
7
  10
 189.684
  20
 195.000
  30
0.0
  40
 5.00000
  50
 2.14759
  51
 90.0000
   0
LINE
   8
LEVEL001
   6
CONTINUOUS
  62
7
  10
 209.239
  20
 200.000
  30
0.0
  11
 212.126
  21
 195.000
  31
0.0
   0
LINE
   8
LEVEL001
   6
CONTINUOUS
  62
7
  10
 212.126
  20
 195.000
  30
0.0
  11
 217.900
  21
 195.000
  31
0.0
   0
LINE
   8
LEVEL001
   6
CONTINUOUS
  62
7
  10
 217.900
  20
 195.000
  30
0.0
  11
 220.786
  21
 200.000
  31
0.0
   0
LINE
   8
LEVEL001
   6
CONTINUOUS
  62
7
  10
 217.413
  20
 211.548
  30
0.0
  11
 217.404
  21
 211.628
  31
0.0
   0
LINE
   8
LEVEL001
   6
CONTINUOUS
  62
7
  10
 217.404
  20
 211.628
  30
0.0
  11
 217.376
  21
 211.707
  31
0.0
   0
LINE
   8
LEVEL001
   6
CONTINUOUS
  62
7
  10
 217.376
  20
 211.707
  30
0.0
  11
 217.331
  21
 211.786
  31
0.0
   0
LINE
   8
LEVEL001
   6
CONTINUOUS
  62
7
  10
 217.331
  20
 211.786
  30
0.0
  11
 217.268
  21
 211.862
  31
0.0
   0
LINE
   8
LEVEL001
   6
CONTINUOUS
  62
7
  10
 217.268
  20
 211.862
  30
0.0
  11
 217.188
  21
 211.936
  31
0.0
   0
LINE
   8
LEVEL001
   6
CONTINUOUS
  62
7
  10
 217.188
  20
 211.936
  30
0.0
  11
 217.091
  21
 212.007
  31
0.0
   0
LINE
   8
LEVEL001
   6
CONTINUOUS
  62
7
  10
 217.091
  20
 212.007
  30
0.0
  11
 216.979
  21
 212.075
  31
0.0
   0
LINE
   8
LEVEL001
   6
CONTINUOUS
  62
7
  10
 216.979
  20
 212.075
  30
0.0
  11
 216.851
  21
 212.138
  31
0.0
   0
LINE
   8
LEVEL001
   6
CONTINUOUS
  62
7
  10
 216.851
  20
 212.138
  30
0.0
  11
 216.710
  21
 212.197
  31
0.0
   0
LINE
   8
LEVEL001
   6
CONTINUOUS
  62
7
  10
 216.710
  20
 212.197
  30
0.0
  11
 216.556
  21
 212.252
  31
0.0
   0
LINE
   8
LEVEL001
   6
CONTINUOUS
  62
7
  10
 216.556
  20
 212.252
  30
0.0
  11
 216.390
  21
 212.300
  31
0.0
   0
LINE
   8
LEVEL001
   6
CONTINUOUS
  62
7
  10
 216.390
  20
 212.300
  30
0.0
  11
 216.213
  21
 212.343
  31
0.0
   0
LINE
   8
LEVEL001
   6
CONTINUOUS
  62
7
  10
 216.213
  20
 212.343
  30
0.0
  11
 216.027
  21
 212.380
  31
0.0
   0
LINE
   8
LEVEL001
   6
CONTINUOUS
  62
7
  10
 216.027
  20
 212.380
  30
0.0
  11
 215.834
  21
 212.411
  31
0.0
   0
LINE
   8
LEVEL001
   6
CONTINUOUS
  62
7
  10
 215.834
  20
 212.411
  30
0.0
  11
 215.634
  21
 212.435
  31
0.0
   0
LINE
   8
LEVEL001
   6
CONTINUOUS
  62
7
  10
 215.634
  20
 212.435
  30
0.0
  11
 215.430
  21
 212.452
  31
0.0
   0
LINE
   8
LEVEL001
   6
CONTINUOUS
  62
7
  10
 215.430
  20
 212.452
  30
0.0
  11
 215.222
  21
 212.463
  31
0.0
   0
LINE
   8
LEVEL001
   6
CONTINUOUS
  62
7
  10
 215.222
  20
 212.463
  30
0.0
  11
 215.013
  21
 212.466
  31
0.0
   0
LINE
   8
LEVEL001
   6
CONTINUOUS
  62
7
  10
 215.013
  20
 212.466
  30
0.0
  11
 214.804
  21
 212.463
  31
0.0
   0
LINE
   8
LEVEL001
   6
CONTINUOUS
  62
7
  10
 214.804
  20
 212.463
  30
0.0
  11
 214.596
  21
 212.452
  31
0.0
   0
LINE
   8
LEVEL001
   6
CONTINUOUS
  62
7
  10
 214.596
  20
 212.452
  30
0.0
  11
 214.392
  21
 212.435
  31
0.0
   0
LINE
   8
LEVEL001
   6
CONTINUOUS
  62
7
  10
 214.392
  20
 212.435
  30
0.0
  11
 214.192
  21
 212.411
  31
0.0
   0
LINE
   8
LEVEL001
   6
CONTINUOUS
  62
7
  10
 214.192
  20
 212.411
  30
0.0
  11
 213.999
  21
 212.380
  31
0.0
   0
LINE
   8
LEVEL001
   6
CONTINUOUS
  62
7
  10
 213.999
  20
 212.380
  30
0.0
  11
 213.813
  21
 212.343
  31
0.0
   0
LINE
   8
LEVEL001
   6
CONTINUOUS
  62
7
  10
 213.813
  20
 212.343
  30
0.0
  11
 213.636
  21
 212.300
  31
0.0
   0
LINE
   8
LEVEL001
   6
CONTINUOUS
  62
7
  10
 213.636
  20
 212.300
  30
0.0
  11
 213.470
  21
 212.252
  31
0.0
   0
LINE
   8
LEVEL001
   6
CONTINUOUS
  62
7
  10
 213.470
  20
 212.252
  30
0.0
  11
 213.316
  21
 212.197
  31
0.0
   0
LINE
   8
LEVEL001
   6
CONTINUOUS
  62
7
  10
 213.316
  20
 212.197
  30
0.0
  11
 213.174
  21
 212.138
  31
0.0
   0
LINE
   8
LEVEL001
   6
CONTINUOUS
  62
7
  10
 213.174
  20
 212.138
  30
0.0
  11
 213.047
  21
 212.075
  31
0.0
   0
LINE
   8
LEVEL001
   6
CONTINUOUS
  62
7
  10
 213.047
  20
 212.075
  30
0.0
  11
 212.934
  21
 212.007
  31
0.0
   0
LINE
   8
LEVEL001
   6
CONTINUOUS
  62
7
  10
 212.934
  20
 212.007
  30
0.0
  11
 212.838
  21
 211.936
  31
0.0
   0
LINE
   8
LEVEL001
   6
CONTINUOUS
  62
7
  10
 212.838
  20
 211.936
  30
0.0
  11
 212.758
  21
 211.862
  31
0.0
   0
LINE
   8
LEVEL001
   6
CONTINUOUS
  62
7
  10
 212.758
  20
 211.862
  30
0.0
  11
 212.695
  21
 211.786
  31
0.0
   0
LINE
   8
LEVEL001
   6
CONTINUOUS
  62
7
  10
 212.695
  20
 211.786
  30
0.0
  11
 212.649
  21
 211.707
  31
0.0
   0
LINE
   8
LEVEL001
   6
CONTINUOUS
  62
7
  10
 212.649
  20
 211.707
  30
0.0
  11
 212.622
  21
 211.628
  31
0.0
   0
LINE
   8
LEVEL001
   6
CONTINUOUS
  62
7
  10
 212.622
  20
 211.628
  30
0.0
  11
 212.613
  21
 211.548
  31
0.0
   0
LINE
   8
LEVEL001
   6
CONTINUOUS
  62
7
  10
 212.613
  20
 211.548
  30
0.0
  11
 212.622
  21
 211.468
  31
0.0
   0
LINE
   8
LEVEL001
   6
CONTINUOUS
  62
7
  10
 212.622
  20
 211.468
  30
0.0
  11
 212.649
  21
 211.389
  31
0.0
   0
LINE
   8
LEVEL001
   6
CONTINUOUS
  62
7
  10
 212.649
  20
 211.389
  30
0.0
  11
 212.695
  21
 211.310
  31
0.0
   0
LINE
   8
LEVEL001
   6
CONTINUOUS
  62
7
  10
 212.695
  20
 211.310
  30
0.0
  11
 212.758
  21
 211.234
  31
0.0
   0
LINE
   8
LEVEL001
   6
CONTINUOUS
  62
7
  10
 212.758
  20
 211.234
  30
0.0
  11
 212.838
  21
 211.160
  31
0.0
   0
LINE
   8
LEVEL001
   6
CONTINUOUS
  62
7
  10
 212.838
  20
 211.160
  30
0.0
  11
 212.934
  21
 211.089
  31
0.0
   0
LINE
   8
LEVEL001
   6
CONTINUOUS
  62
7
  10
 212.934
  20
 211.089
  30
0.0
  11
 213.047
  21
 211.021
  31
0.0
   0
LINE
   8
LEVEL001
   6
CONTINUOUS
  62
7
  10
 213.047
  20
 211.021
  30
0.0
  11
 213.174
  21
 210.958
  31
0.0
   0
LINE
   8
LEVEL001
   6
CONTINUOUS
  62
7
  10
 213.174
  20
 210.958
  30
0.0
  11
 213.316
  21
 210.899
  31
0.0
   0
LINE
   8
LEVEL001
   6
CONTINUOUS
  62
7
  10
 213.316
  20
 210.899
  30
0.0
  11
 213.470
  21
 210.844
  31
0.0
   0
LINE
   8
LEVEL001
   6
CONTINUOUS
  62
7
  10
 213.470
  20
 210.844
  30
0.0
  11
 213.636
  21
 210.796
  31
0.0
   0
LINE
   8
LEVEL001
   6
CONTINUOUS
  62
7
  10
 213.636
  20
 210.796
  30
0.0
  11
 213.813
  21
 210.753
  31
0.0
   0
LINE
   8
LEVEL001
   6
CONTINUOUS
  62
7
  10
 213.813
  20
 210.753
  30
0.0
  11
 213.999
  21
 210.716
  31
0.0
   0
LINE
   8
LEVEL001
   6
CONTINUOUS
  62
7
  10
 213.999
  20
 210.716
  30
0.0
  11
 214.192
  21
 210.685
  31
0.0
   0
LINE
   8
LEVEL001
   6
CONTINUOUS
  62
7
  10
 214.192
  20
 210.685
  30
0.0
  11
 214.392
  21
 210.661
  31
0.0
   0
LINE
   8
LEVEL001
   6
CONTINUOUS
  62
7
  10
 214.392
  20
 210.661
  30
0.0
  11
 214.596
  21
 210.644
  31
0.0
   0
LINE
   8
LEVEL001
   6
CONTINUOUS
  62
7
  10
 214.596
  20
 210.644
  30
0.0
  11
 214.804
  21
 210.633
  31
0.0
   0
LINE
   8
LEVEL001
   6
CONTINUOUS
  62
7
  10
 214.804
  20
 210.633
  30
0.0
  11
 215.013
  21
 210.630
  31
0.0
   0
LINE
   8
LEVEL001
   6
CONTINUOUS
  62
7
  10
 215.013
  20
 210.630
  30
0.0
  11
 215.222
  21
 210.633
  31
0.0
   0
LINE
   8
LEVEL001
   6
CONTINUOUS
  62
7
  10
 215.222
  20
 210.633
  30
0.0
  11
 215.430
  21
 210.644
  31
0.0
   0
LINE
   8
LEVEL001
   6
CONTINUOUS
  62
7
  10
 215.430
  20
 210.644
  30
0.0
  11
 215.634
  21
 210.661
  31
0.0
   0
LINE
   8
LEVEL001
   6
CONTINUOUS
  62
7
  10
 215.634
  20
 210.661
  30
0.0
  11
 215.834
  21
 210.685
  31
0.0
   0
LINE
   8
LEVEL001
   6
CONTINUOUS
  62
7
  10
 215.834
  20
 210.685
  30
0.0
  11
 216.027
  21
 210.716
  31
0.0
   0
LINE
   8
LEVEL001
   6
CONTINUOUS
  62
7
  10
 216.027
  20
 210.716
  30
0.0
  11
 216.213
  21
 210.753
  31
0.0
   0
LINE
   8
LEVEL001
   6
CONTINUOUS
  62
7
  10
 216.213
  20
 210.753
  30
0.0
  11
 216.390
  21
 210.796
  31
0.0
   0
LINE
   8
LEVEL001
   6
CONTINUOUS
  62
7
  10
 216.390
  20
 210.796
  30
0.0
  11
 216.556
  21
 210.844
  31
0.0
   0
LINE
   8
LEVEL001
   6
CONTINUOUS
  62
7
  10
 216.556
  20
 210.844
  30
0.0
  11
 216.710
  21
 210.899
  31
0.0
   0
LINE
   8
LEVEL001
   6
CONTINUOUS
  62
7
  10
 216.710
  20
 210.899
  30
0.0
  11
 216.851
  21
 210.958
  31
0.0
   0
LINE
   8
LEVEL001
   6
CONTINUOUS
  62
7
  10
 216.851
  20
 210.958
  30
0.0
  11
 216.979
  21
 211.021
  31
0.0
   0
LINE
   8
LEVEL001
   6
CONTINUOUS
  62
7
  10
 216.979
  20
 211.021
  30
0.0
  11
 217.091
  21
 211.089
  31
0.0
   0
LINE
   8
LEVEL001
   6
CONTINUOUS
  62
7
  10
 217.091
  20
 211.089
  30
0.0
  11
 217.188
  21
 211.160
  31
0.0
   0
LINE
   8
LEVEL001
   6
CONTINUOUS
  62
7
  10
 217.188
  20
 211.160
  30
0.0
  11
 217.268
  21
 211.234
  31
0.0
   0
LINE
   8
LEVEL001
   6
CONTINUOUS
  62
7
  10
 217.268
  20
 211.234
  30
0.0
  11
 217.331
  21
 211.310
  31
0.0
   0
LINE
   8
LEVEL001
   6
CONTINUOUS
  62
7
  10
 217.331
  20
 211.310
  30
0.0
  11
 217.376
  21
 211.389
  31
0.0
   0
LINE
   8
LEVEL001
   6
CONTINUOUS
  62
7
  10
 217.376
  20
 211.389
  30
0.0
  11
 217.404
  21
 211.468
  31
0.0
   0
LINE
   8
LEVEL001
   6
CONTINUOUS
  62
7
  10
 217.404
  20
 211.468
  30
0.0
  11
 217.413
  21
 211.548
  31
0.0
   0
LINE
   8
LEVEL001
   6
CONTINUOUS
  62
7
  10
 214.013
  20
 211.548
  30
0.0
  11
 214.014
  21
 211.531
  31
0.0
   0
LINE
   8
LEVEL001
   6
CONTINUOUS
  62
7
  10
 214.014
  20
 211.531
  30
0.0
  11
 214.017
  21
 211.515
  31
0.0
   0
LINE
   8
LEVEL001
   6
CONTINUOUS
  62
7
  10
 214.017
  20
 211.515
  30
0.0
  11
 214.022
  21
 211.498
  31
0.0
   0
LINE
   8
LEVEL001
   6
CONTINUOUS
  62
7
  10
 214.022
  20
 211.498
  30
0.0
  11
 214.028
  21
 211.482
  31
0.0
   0
LINE
   8
LEVEL001
   6
CONTINUOUS
  62
7
  10
 214.028
  20
 211.482
  30
0.0
  11
 214.037
  21
 211.465
  31
0.0
   0
LINE
   8
LEVEL001
   6
CONTINUOUS
  62
7
  10
 214.037
  20
 211.465
  30
0.0
  11
 214.047
  21
 211.449
  31
0.0
   0
LINE
   8
LEVEL001
   6
CONTINUOUS
  62
7
  10
 214.047
  20
 211.449
  30
0.0
  11
 214.059
  21
 211.433
  31
0.0
   0
LINE
   8
LEVEL001
   6
CONTINUOUS
  62
7
  10
 214.059
  20
 211.433
  30
0.0
  11
 214.073
  21
 211.417
  31
0.0
   0
LINE
   8
LEVEL001
   6
CONTINUOUS
  62
7
  10
 214.073
  20
 211.417
  30
0.0
  11
 214.089
  21
 211.402
  31
0.0
   0
LINE
   8
LEVEL001
   6
CONTINUOUS
  62
7
  10
 214.089
  20
 211.402
  30
0.0
  11
 214.107
  21
 211.386
  31
0.0
   0
LINE
   8
LEVEL001
   6
CONTINUOUS
  62
7
  10
 214.107
  20
 211.386
  30
0.0
  11
 214.126
  21
 211.371
  31
0.0
   0
LINE
   8
LEVEL001
   6
CONTINUOUS
  62
7
  10
 214.126
  20
 211.371
  30
0.0
  11
 214.147
  21
 211.357
  31
0.0
   0
LINE
   8
LEVEL001
   6
CONTINUOUS
  62
7
  10
 214.147
  20
 211.357
  30
0.0
  11
 214.170
  21
 211.342
  31
0.0
   0
LINE
   8
LEVEL001
   6
CONTINUOUS
  62
7
  10
 214.170
  20
 211.342
  30
0.0
  11
 214.194
  21
 211.329
  31
0.0
   0
LINE
   8
LEVEL001
   6
CONTINUOUS
  62
7
  10
 214.194
  20
 211.329
  30
0.0
  11
 214.220
  21
 211.315
  31
0.0
   0
LINE
   8
LEVEL001
   6
CONTINUOUS
  62
7
  10
 214.220
  20
 211.315
  30
0.0
  11
 214.247
  21
 211.302
  31
0.0
   0
LINE
   8
LEVEL001
   6
CONTINUOUS
  62
7
  10
 214.247
  20
 211.302
  30
0.0
  11
 214.276
  21
 211.289
  31
0.0
   0
LINE
   8
LEVEL001
   6
CONTINUOUS
  62
7
  10
 214.276
  20
 211.289
  30
0.0
  11
 214.306
  21
 211.277
  31
0.0
   0
LINE
   8
LEVEL001
   6
CONTINUOUS
  62
7
  10
 214.306
  20
 211.277
  30
0.0
  11
 214.337
  21
 211.266
  31
0.0
   0
LINE
   8
LEVEL001
   6
CONTINUOUS
  62
7
  10
 214.337
  20
 211.266
  30
0.0
  11
 214.370
  21
 211.255
  31
0.0
   0
LINE
   8
LEVEL001
   6
CONTINUOUS
  62
7
  10
 214.370
  20
 211.255
  30
0.0
  11
 214.404
  21
 211.244
  31
0.0
   0
LINE
   8
LEVEL001
   6
CONTINUOUS
  62
7
  10
 214.404
  20
 211.244
  30
0.0
  11
 214.439
  21
 211.235
  31
0.0
   0
LINE
   8
LEVEL001
   6
CONTINUOUS
  62
7
  10
 214.439
  20
 211.235
  30
0.0
  11
 214.476
  21
 211.225
  31
0.0
   0
LINE
   8
LEVEL001
   6
CONTINUOUS
  62
7
  10
 214.476
  20
 211.225
  30
0.0
  11
 214.513
  21
 211.217
  31
0.0
   0
LINE
   8
LEVEL001
   6
CONTINUOUS
  62
7
  10
 214.513
  20
 211.217
  30
0.0
  11
 214.551
  21
 211.209
  31
0.0
   0
LINE
   8
LEVEL001
   6
CONTINUOUS
  62
7
  10
 214.551
  20
 211.209
  30
0.0
  11
 214.590
  21
 211.201
  31
0.0
   0
LINE
   8
LEVEL001
   6
CONTINUOUS
  62
7
  10
 214.590
  20
 211.201
  30
0.0
  11
 214.630
  21
 211.194
  31
0.0
   0
LINE
   8
LEVEL001
   6
CONTINUOUS
  62
7
  10
 214.630
  20
 211.194
  30
0.0
  11
 214.671
  21
 211.188
  31
0.0
   0
LINE
   8
LEVEL001
   6
CONTINUOUS
  62
7
  10
 214.671
  20
 211.188
  30
0.0
  11
 214.712
  21
 211.183
  31
0.0
   0
LINE
   8
LEVEL001
   6
CONTINUOUS
  62
7
  10
 214.712
  20
 211.183
  30
0.0
  11
 214.754
  21
 211.178
  31
0.0
   0
LINE
   8
LEVEL001
   6
CONTINUOUS
  62
7
  10
 214.754
  20
 211.178
  30
0.0
  11
 214.797
  21
 211.174
  31
0.0
   0
LINE
   8
LEVEL001
   6
CONTINUOUS
  62
7
  10
 214.797
  20
 211.174
  30
0.0
  11
 214.839
  21
 211.171
  31
0.0
   0
LINE
   8
LEVEL001
   6
CONTINUOUS
  62
7
  10
 214.839
  20
 211.171
  30
0.0
  11
 214.882
  21
 211.169
  31
0.0
   0
LINE
   8
LEVEL001
   6
CONTINUOUS
  62
7
  10
 214.882
  20
 211.169
  30
0.0
  11
 214.926
  21
 211.167
  31
0.0
   0
LINE
   8
LEVEL001
   6
CONTINUOUS
  62
7
  10
 214.926
  20
 211.167
  30
0.0
  11
 214.969
  21
 211.166
  31
0.0
   0
LINE
   8
LEVEL001
   6
CONTINUOUS
  62
7
  10
 214.969
  20
 211.166
  30
0.0
  11
 215.013
  21
 211.165
  31
0.0
   0
LINE
   8
LEVEL001
   6
CONTINUOUS
  62
7
  10
 215.013
  20
 211.165
  30
0.0
  11
 215.057
  21
 211.166
  31
0.0
   0
LINE
   8
LEVEL001
   6
CONTINUOUS
  62
7
  10
 215.057
  20
 211.166
  30
0.0
  11
 215.100
  21
 211.167
  31
0.0
   0
LINE
   8
LEVEL001
   6
CONTINUOUS
  62
7
  10
 215.100
  20
 211.167
  30
0.0
  11
 215.143
  21
 211.169
  31
0.0
   0
LINE
   8
LEVEL001
   6
CONTINUOUS
  62
7
  10
 215.143
  20
 211.169
  30
0.0
  11
 215.187
  21
 211.171
  31
0.0
   0
LINE
   8
LEVEL001
   6
CONTINUOUS
  62
7
  10
 215.187
  20
 211.171
  30
0.0
  11
 215.229
  21
 211.174
  31
0.0
   0
LINE
   8
LEVEL001
   6
CONTINUOUS
  62
7
  10
 215.229
  20
 211.174
  30
0.0
  11
 215.272
  21
 211.178
  31
0.0
   0
LINE
   8
LEVEL001
   6
CONTINUOUS
  62
7
  10
 215.272
  20
 211.178
  30
0.0
  11
 215.314
  21
 211.183
  31
0.0
   0
LINE
   8
LEVEL001
   6
CONTINUOUS
  62
7
  10
 215.314
  20
 211.183
  30
0.0
  11
 215.355
  21
 211.188
  31
0.0
   0
LINE
   8
LEVEL001
   6
CONTINUOUS
  62
7
  10
 215.355
  20
 211.188
  30
0.0
  11
 215.396
  21
 211.194
  31
0.0
   0
LINE
   8
LEVEL001
   6
CONTINUOUS
  62
7
  10
 215.396
  20
 211.194
  30
0.0
  11
 215.436
  21
 211.201
  31
0.0
   0
LINE
   8
LEVEL001
   6
CONTINUOUS
  62
7
  10
 215.436
  20
 211.201
  30
0.0
  11
 215.475
  21
 211.209
  31
0.0
   0
LINE
   8
LEVEL001
   6
CONTINUOUS
  62
7
  10
 215.475
  20
 211.209
  30
0.0
  11
 215.513
  21
 211.217
  31
0.0
   0
LINE
   8
LEVEL001
   6
CONTINUOUS
  62
7
  10
 215.513
  20
 211.217
  30
0.0
  11
 215.550
  21
 211.225
  31
0.0
   0
LINE
   8
LEVEL001
   6
CONTINUOUS
  62
7
  10
 215.550
  20
 211.225
  30
0.0
  11
 215.587
  21
 211.235
  31
0.0
   0
LINE
   8
LEVEL001
   6
CONTINUOUS
  62
7
  10
 215.587
  20
 211.235
  30
0.0
  11
 215.622
  21
 211.244
  31
0.0
   0
LINE
   8
LEVEL001
   6
CONTINUOUS
  62
7
  10
 215.622
  20
 211.244
  30
0.0
  11
 215.656
  21
 211.255
  31
0.0
   0
LINE
   8
LEVEL001
   6
CONTINUOUS
  62
7
  10
 215.656
  20
 211.255
  30
0.0
  11
 215.689
  21
 211.266
  31
0.0
   0
LINE
   8
LEVEL001
   6
CONTINUOUS
  62
7
  10
 215.689
  20
 211.266
  30
0.0
  11
 215.720
  21
 211.277
  31
0.0
   0
LINE
   8
LEVEL001
   6
CONTINUOUS
  62
7
  10
 215.720
  20
 211.277
  30
0.0
  11
 215.750
  21
 211.289
  31
0.0
   0
LINE
   8
LEVEL001
   6
CONTINUOUS
  62
7
  10
 215.750
  20
 211.289
  30
0.0
  11
 215.779
  21
 211.302
  31
0.0
   0
LINE
   8
LEVEL001
   6
CONTINUOUS
  62
7
  10
 215.779
  20
 211.302
  30
0.0
  11
 215.806
  21
 211.315
  31
0.0
   0
LINE
   8
LEVEL001
   6
CONTINUOUS
  62
7
  10
 215.806
  20
 211.315
  30
0.0
  11
 215.832
  21
 211.329
  31
0.0
   0
LINE
   8
LEVEL001
   6
CONTINUOUS
  62
7
  10
 215.832
  20
 211.329
  30
0.0
  11
 215.856
  21
 211.342
  31
0.0
   0
LINE
   8
LEVEL001
   6
CONTINUOUS
  62
7
  10
 215.856
  20
 211.342
  30
0.0
  11
 215.879
  21
 211.357
  31
0.0
   0
LINE
   8
LEVEL001
   6
CONTINUOUS
  62
7
  10
 215.879
  20
 211.357
  30
0.0
  11
 215.900
  21
 211.371
  31
0.0
   0
LINE
   8
LEVEL001
   6
CONTINUOUS
  62
7
  10
 215.900
  20
 211.371
  30
0.0
  11
 215.919
  21
 211.386
  31
0.0
   0
LINE
   8
LEVEL001
   6
CONTINUOUS
  62
7
  10
 215.919
  20
 211.386
  30
0.0
  11
 215.937
  21
 211.402
  31
0.0
   0
LINE
   8
LEVEL001
   6
CONTINUOUS
  62
7
  10
 215.937
  20
 211.402
  30
0.0
  11
 215.953
  21
 211.417
  31
0.0
   0
LINE
   8
LEVEL001
   6
CONTINUOUS
  62
7
  10
 215.953
  20
 211.417
  30
0.0
  11
 215.967
  21
 211.433
  31
0.0
   0
LINE
   8
LEVEL001
   6
CONTINUOUS
  62
7
  10
 215.967
  20
 211.433
  30
0.0
  11
 215.979
  21
 211.449
  31
0.0
   0
LINE
   8
LEVEL001
   6
CONTINUOUS
  62
7
  10
 215.979
  20
 211.449
  30
0.0
  11
 215.989
  21
 211.465
  31
0.0
   0
LINE
   8
LEVEL001
   6
CONTINUOUS
  62
7
  10
 215.989
  20
 211.465
  30
0.0
  11
 215.998
  21
 211.482
  31
0.0
   0
LINE
   8
LEVEL001
   6
CONTINUOUS
  62
7
  10
 215.998
  20
 211.482
  30
0.0
  11
 216.004
  21
 211.498
  31
0.0
   0
LINE
   8
LEVEL001
   6
CONTINUOUS
  62
7
  10
 216.004
  20
 211.498
  30
0.0
  11
 216.009
  21
 211.515
  31
0.0
   0
LINE
   8
LEVEL001
   6
CONTINUOUS
  62
7
  10
 216.009
  20
 211.515
  30
0.0
  11
 216.012
  21
 211.531
  31
0.0
   0
LINE
   8
LEVEL001
   6
CONTINUOUS
  62
7
  10
 216.012
  20
 211.531
  30
0.0
  11
 216.013
  21
 211.548
  31
0.0
   0
ARC
   8
LEVEL001
   6
CONTINUOUS
  62
7
  10
 215.013
  20
 211.320
  30
0.0
  40
 1.00000
  50
 11.9426
  51
 167.156
   0
LINE
   8
LEVEL001
   6
CONTINUOUS
  62
7
  10
 211.713
  20
 209.054
  30
0.0
  11
 211.716
  21
 208.999
  31
0.0
   0
LINE
   8
LEVEL001
   6
CONTINUOUS
  62
7
  10
 211.716
  20
 208.999
  30
0.0
  11
 211.726
  21
 208.944
  31
0.0
   0
LINE
   8
LEVEL001
   6
CONTINUOUS
  62
7
  10
 211.726
  20
 208.944
  30
0.0
  11
 211.741
  21
 208.889
  31
0.0
   0
LINE
   8
LEVEL001
   6
CONTINUOUS
  62
7
  10
 211.741
  20
 208.889
  30
0.0
  11
 211.763
  21
 208.835
  31
0.0
   0
LINE
   8
LEVEL001
   6
CONTINUOUS
  62
7
  10
 211.763
  20
 208.835
  30
0.0
  11
 211.791
  21
 208.781
  31
0.0
   0
LINE
   8
LEVEL001
   6
CONTINUOUS
  62
7
  10
 211.791
  20
 208.781
  30
0.0
  11
 211.825
  21
 208.727
  31
0.0
   0
LINE
   8
LEVEL001
   6
CONTINUOUS
  62
7
  10
 211.825
  20
 208.727
  30
0.0
  11
 211.866
  21
 208.674
  31
0.0
   0
LINE
   8
LEVEL001
   6
CONTINUOUS
  62
7
  10
 211.866
  20
 208.674
  30
0.0
  11
 211.912
  21
 208.622
  31
0.0
   0
LINE
   8
LEVEL001
   6
CONTINUOUS
  62
7
  10
 211.912
  20
 208.622
  30
0.0
  11
 211.964
  21
 208.571
  31
0.0
   0
LINE
   8
LEVEL001
   6
CONTINUOUS
  62
7
  10
 211.964
  20
 208.571
  30
0.0
  11
 212.022
  21
 208.520
  31
0.0
   0
LINE
   8
LEVEL001
   6
CONTINUOUS
  62
7
  10
 212.022
  20
 208.520
  30
0.0
  11
 212.086
  21
 208.471
  31
0.0
   0
LINE
   8
LEVEL001
   6
CONTINUOUS
  62
7
  10
 212.086
  20
 208.471
  30
0.0
  11
 212.155
  21
 208.423
  31
0.0
   0
LINE
   8
LEVEL001
   6
CONTINUOUS
  62
7
  10
 212.155
  20
 208.423
  30
0.0
  11
 212.230
  21
 208.376
  31
0.0
   0
LINE
   8
LEVEL001
   6
CONTINUOUS
  62
7
  10
 212.230
  20
 208.376
  30
0.0
  11
 212.310
  21
 208.330
  31
0.0
   0
LINE
   8
LEVEL001
   6
CONTINUOUS
  62
7
  10
 212.310
  20
 208.330
  30
0.0
  11
 212.395
  21
 208.285
  31
0.0
   0
LINE
   8
LEVEL001
   6
CONTINUOUS
  62
7
  10
 212.395
  20
 208.285
  30
0.0
  11
 212.485
  21
 208.242
  31
0.0
   0
LINE
   8
LEVEL001
   6
CONTINUOUS
  62
7
  10
 212.485
  20
 208.242
  30
0.0
  11
 212.580
  21
 208.201
  31
0.0
   0
LINE
   8
LEVEL001
   6
CONTINUOUS
  62
7
  10
 212.580
  20
 208.201
  30
0.0
  11
 212.679
  21
 208.161
  31
0.0
   0
LINE
   8
LEVEL001
   6
CONTINUOUS
  62
7
  10
 212.679
  20
 208.161
  30
0.0
  11
 212.784
  21
 208.123
  31
0.0
   0
LINE
   8
LEVEL001
   6
CONTINUOUS
  62
7
  10
 212.784
  20
 208.123
  30
0.0
  11
 212.892
  21
 208.087
  31
0.0
   0
LINE
   8
LEVEL001
   6
CONTINUOUS
  62
7
  10
 212.892
  20
 208.087
  30
0.0
  11
 213.004
  21
 208.052
  31
0.0
   0
LINE
   8
LEVEL001
   6
CONTINUOUS
  62
7
  10
 213.004
  20
 208.052
  30
0.0
  11
 213.120
  21
 208.020
  31
0.0
   0
LINE
   8
LEVEL001
   6
CONTINUOUS
  62
7
  10
 213.120
  20
 208.020
  30
0.0
  11
 213.240
  21
 207.989
  31
0.0
   0
LINE
   8
LEVEL001
   6
CONTINUOUS
  62
7
  10
 213.240
  20
 207.989
  30
0.0
  11
 213.363
  21
 207.960
  31
0.0
   0
LINE
   8
LEVEL001
   6
CONTINUOUS
  62
7
  10
 213.363
  20
 207.960
  30
0.0
  11
 213.489
  21
 207.934
  31
0.0
   0
LINE
   8
LEVEL001
   6
CONTINUOUS
  62
7
  10
 213.489
  20
 207.934
  30
0.0
  11
 213.618
  21
 207.910
  31
0.0
   0
LINE
   8
LEVEL001
   6
CONTINUOUS
  62
7
  10
 213.618
  20
 207.910
  30
0.0
  11
 213.750
  21
 207.887
  31
0.0
   0
LINE
   8
LEVEL001
   6
CONTINUOUS
  62
7
  10
 213.750
  20
 207.887
  30
0.0
  11
 213.884
  21
 207.867
  31
0.0
   0
LINE
   8
LEVEL001
   6
CONTINUOUS
  62
7
  10
 213.884
  20
 207.867
  30
0.0
  11
 214.021
  21
 207.850
  31
0.0
   0
LINE
   8
LEVEL001
   6
CONTINUOUS
  62
7
  10
 214.021
  20
 207.850
  30
0.0
  11
 214.159
  21
 207.834
  31
0.0
   0
LINE
   8
LEVEL001
   6
CONTINUOUS
  62
7
  10
 214.159
  20
 207.834
  30
0.0
  11
 214.299
  21
 207.821
  31
0.0
   0
LINE
   8
LEVEL001
   6
CONTINUOUS
  62
7
  10
 214.299
  20
 207.821
  30
0.0
  11
 214.440
  21
 207.810
  31
0.0
   0
LINE
   8
LEVEL001
   6
CONTINUOUS
  62
7
  10
 214.440
  20
 207.810
  30
0.0
  11
 214.582
  21
 207.802
  31
0.0
   0
LINE
   8
LEVEL001
   6
CONTINUOUS
  62
7
  10
 214.582
  20
 207.802
  30
0.0
  11
 214.725
  21
 207.796
  31
0.0
   0
LINE
   8
LEVEL001
   6
CONTINUOUS
  62
7
  10
 214.725
  20
 207.796
  30
0.0
  11
 214.869
  21
 207.792
  31
0.0
   0
LINE
   8
LEVEL001
   6
CONTINUOUS
  62
7
  10
 214.869
  20
 207.792
  30
0.0
  11
 215.013
  21
 207.791
  31
0.0
   0
LINE
   8
LEVEL001
   6
CONTINUOUS
  62
7
  10
 215.013
  20
 207.791
  30
0.0
  11
 215.157
  21
 207.792
  31
0.0
   0
LINE
   8
LEVEL001
   6
CONTINUOUS
  62
7
  10
 215.157
  20
 207.792
  30
0.0
  11
 215.301
  21
 207.796
  31
0.0
   0
LINE
   8
LEVEL001
   6
CONTINUOUS
  62
7
  10
 215.301
  20
 207.796
  30
0.0
  11
 215.444
  21
 207.802
  31
0.0
   0
LINE
   8
LEVEL001
   6
CONTINUOUS
  62
7
  10
 215.444
  20
 207.802
  30
0.0
  11
 215.586
  21
 207.810
  31
0.0
   0
LINE
   8
LEVEL001
   6
CONTINUOUS
  62
7
  10
 215.586
  20
 207.810
  30
0.0
  11
 215.727
  21
 207.821
  31
0.0
   0
LINE
   8
LEVEL001
   6
CONTINUOUS
  62
7
  10
 215.727
  20
 207.821
  30
0.0
  11
 215.867
  21
 207.834
  31
0.0
   0
LINE
   8
LEVEL001
   6
CONTINUOUS
  62
7
  10
 215.867
  20
 207.834
  30
0.0
  11
 216.005
  21
 207.850
  31
0.0
   0
LINE
   8
LEVEL001
   6
CONTINUOUS
  62
7
  10
 216.005
  20
 207.850
  30
0.0
  11
 216.142
  21
 207.867
  31
0.0
   0
LINE
   8
LEVEL001
   6
CONTINUOUS
  62
7
  10
 216.142
  20
 207.867
  30
0.0
  11
 216.276
  21
 207.887
  31
0.0
   0
LINE
   8
LEVEL001
   6
CONTINUOUS
  62
7
  10
 216.276
  20
 207.887
  30
0.0
  11
 216.408
  21
 207.910
  31
0.0
   0
LINE
   8
LEVEL001
   6
CONTINUOUS
  62
7
  10
 216.408
  20
 207.910
  30
0.0
  11
 216.537
  21
 207.934
  31
0.0
   0
LINE
   8
LEVEL001
   6
CONTINUOUS
  62
7
  10
 216.537
  20
 207.934
  30
0.0
  11
 216.663
  21
 207.960
  31
0.0
   0
LINE
   8
LEVEL001
   6
CONTINUOUS
  62
7
  10
 216.663
  20
 207.960
  30
0.0
  11
 216.786
  21
 207.989
  31
0.0
   0
LINE
   8
LEVEL001
   6
CONTINUOUS
  62
7
  10
 216.786
  20
 207.989
  30
0.0
  11
 216.906
  21
 208.020
  31
0.0
   0
LINE
   8
LEVEL001
   6
CONTINUOUS
  62
7
  10
 216.906
  20
 208.020
  30
0.0
  11
 217.022
  21
 208.052
  31
0.0
   0
LINE
   8
LEVEL001
   6
CONTINUOUS
  62
7
  10
 217.022
  20
 208.052
  30
0.0
  11
 217.134
  21
 208.087
  31
0.0
   0
LINE
   8
LEVEL001
   6
CONTINUOUS
  62
7
  10
 217.134
  20
 208.087
  30
0.0
  11
 217.242
  21
 208.123
  31
0.0
   0
LINE
   8
LEVEL001
   6
CONTINUOUS
  62
7
  10
 217.242
  20
 208.123
  30
0.0
  11
 217.346
  21
 208.161
  31
0.0
   0
LINE
   8
LEVEL001
   6
CONTINUOUS
  62
7
  10
 217.346
  20
 208.161
  30
0.0
  11
 217.446
  21
 208.201
  31
0.0
   0
LINE
   8
LEVEL001
   6
CONTINUOUS
  62
7
  10
 217.446
  20
 208.201
  30
0.0
  11
 217.541
  21
 208.242
  31
0.0
   0
LINE
   8
LEVEL001
   6
CONTINUOUS
  62
7
  10
 217.541
  20
 208.242
  30
0.0
  11
 217.631
  21
 208.285
  31
0.0
   0
LINE
   8
LEVEL001
   6
CONTINUOUS
  62
7
  10
 217.631
  20
 208.285
  30
0.0
  11
 217.716
  21
 208.330
  31
0.0
   0
LINE
   8
LEVEL001
   6
CONTINUOUS
  62
7
  10
 217.716
  20
 208.330
  30
0.0
  11
 217.796
  21
 208.376
  31
0.0
   0
LINE
   8
LEVEL001
   6
CONTINUOUS
  62
7
  10
 217.796
  20
 208.376
  30
0.0
  11
 217.871
  21
 208.423
  31
0.0
   0
LINE
   8
LEVEL001
   6
CONTINUOUS
  62
7
  10
 217.871
  20
 208.423
  30
0.0
  11
 217.940
  21
 208.471
  31
0.0
   0
LINE
   8
LEVEL001
   6
CONTINUOUS
  62
7
  10
 217.940
  20
 208.471
  30
0.0
  11
 218.004
  21
 208.520
  31
0.0
   0
LINE
   8
LEVEL001
   6
CONTINUOUS
  62
7
  10
 218.004
  20
 208.520
  30
0.0
  11
 218.062
  21
 208.571
  31
0.0
   0
LINE
   8
LEVEL001
   6
CONTINUOUS
  62
7
  10
 218.062
  20
 208.571
  30
0.0
  11
 218.114
  21
 208.622
  31
0.0
   0
LINE
   8
LEVEL001
   6
CONTINUOUS
  62
7
  10
 218.114
  20
 208.622
  30
0.0
  11
 218.160
  21
 208.674
  31
0.0
   0
LINE
   8
LEVEL001
   6
CONTINUOUS
  62
7
  10
 218.160
  20
 208.674
  30
0.0
  11
 218.201
  21
 208.727
  31
0.0
   0
LINE
   8
LEVEL001
   6
CONTINUOUS
  62
7
  10
 218.201
  20
 208.727
  30
0.0
  11
 218.235
  21
 208.781
  31
0.0
   0
LINE
   8
LEVEL001
   6
CONTINUOUS
  62
7
  10
 218.235
  20
 208.781
  30
0.0
  11
 218.263
  21
 208.835
  31
0.0
   0
LINE
   8
LEVEL001
   6
CONTINUOUS
  62
7
  10
 218.263
  20
 208.835
  30
0.0
  11
 218.285
  21
 208.889
  31
0.0
   0
LINE
   8
LEVEL001
   6
CONTINUOUS
  62
7
  10
 218.285
  20
 208.889
  30
0.0
  11
 218.300
  21
 208.944
  31
0.0
   0
LINE
   8
LEVEL001
   6
CONTINUOUS
  62
7
  10
 218.300
  20
 208.944
  30
0.0
  11
 218.310
  21
 208.999
  31
0.0
   0
LINE
   8
LEVEL001
   6
CONTINUOUS
  62
7
  10
 218.310
  20
 208.999
  30
0.0
  11
 218.313
  21
 209.054
  31
0.0
   0
LINE
   8
LEVEL001
   6
CONTINUOUS
  62
7
  10
 211.713
  20
 209.054
  30
0.0
  11
 212.615
  21
 211.588
  31
0.0
   0
LINE
   8
LEVEL001
   6
CONTINUOUS
  62
7
  10
 218.310
  20
 208.999
  30
0.0
  11
 217.404
  21
 211.628
  31
0.0
   0
LINE
   8
LEVEL001
   6
CONTINUOUS
  62
7
  10
 212.133
  20
 207.404
  30
0.0
  11
 212.136
  21
 207.356
  31
0.0
   0
LINE
   8
LEVEL001
   6
CONTINUOUS
  62
7
  10
 212.136
  20
 207.356
  30
0.0
  11
 212.144
  21
 207.308
  31
0.0
   0
LINE
   8
LEVEL001
   6
CONTINUOUS
  62
7
  10
 212.144
  20
 207.308
  30
0.0
  11
 212.158
  21
 207.260
  31
0.0
   0
LINE
   8
LEVEL001
   6
CONTINUOUS
  62
7
  10
 212.158
  20
 207.260
  30
0.0
  11
 212.177
  21
 207.213
  31
0.0
   0
LINE
   8
LEVEL001
   6
CONTINUOUS
  62
7
  10
 212.177
  20
 207.213
  30
0.0
  11
 212.201
  21
 207.166
  31
0.0
   0
LINE
   8
LEVEL001
   6
CONTINUOUS
  62
7
  10
 212.201
  20
 207.166
  30
0.0
  11
 212.231
  21
 207.119
  31
0.0
   0
LINE
   8
LEVEL001
   6
CONTINUOUS
  62
7
  10
 212.231
  20
 207.119
  30
0.0
  11
 212.266
  21
 207.073
  31
0.0
   0
LINE
   8
LEVEL001
   6
CONTINUOUS
  62
7
  10
 212.266
  20
 207.073
  30
0.0
  11
 212.307
  21
 207.027
  31
0.0
   0
LINE
   8
LEVEL001
   6
CONTINUOUS
  62
7
  10
 212.307
  20
 207.027
  30
0.0
  11
 212.352
  21
 206.982
  31
0.0
   0
LINE
   8
LEVEL001
   6
CONTINUOUS
  62
7
  10
 212.352
  20
 206.982
  30
0.0
  11
 212.403
  21
 206.938
  31
0.0
   0
LINE
   8
LEVEL001
   6
CONTINUOUS
  62
7
  10
 212.403
  20
 206.938
  30
0.0
  11
 212.458
  21
 206.895
  31
0.0
   0
LINE
   8
LEVEL001
   6
CONTINUOUS
  62
7
  10
 212.458
  20
 206.895
  30
0.0
  11
 212.519
  21
 206.853
  31
0.0
   0
LINE
   8
LEVEL001
   6
CONTINUOUS
  62
7
  10
 212.519
  20
 206.853
  30
0.0
  11
 212.584
  21
 206.812
  31
0.0
   0
LINE
   8
LEVEL001
   6
CONTINUOUS
  62
7
  10
 212.584
  20
 206.812
  30
0.0
  11
 212.654
  21
 206.772
  31
0.0
   0
LINE
   8
LEVEL001
   6
CONTINUOUS
  62
7
  10
 212.654
  20
 206.772
  30
0.0
  11
 212.728
  21
 206.733
  31
0.0
   0
LINE
   8
LEVEL001
   6
CONTINUOUS
  62
7
  10
 212.728
  20
 206.733
  30
0.0
  11
 212.807
  21
 206.696
  31
0.0
   0
LINE
   8
LEVEL001
   6
CONTINUOUS
  62
7
  10
 212.807
  20
 206.696
  30
0.0
  11
 212.890
  21
 206.660
  31
0.0
   0
LINE
   8
LEVEL001
   6
CONTINUOUS
  62
7
  10
 212.890
  20
 206.660
  30
0.0
  11
 212.976
  21
 206.625
  31
0.0
   0
LINE
   8
LEVEL001
   6
CONTINUOUS
  62
7
  10
 212.976
  20
 206.625
  30
0.0
  11
 213.067
  21
 206.592
  31
0.0
   0
LINE
   8
LEVEL001
   6
CONTINUOUS
  62
7
  10
 213.067
  20
 206.592
  30
0.0
  11
 213.162
  21
 206.560
  31
0.0
   0
LINE
   8
LEVEL001
   6
CONTINUOUS
  62
7
  10
 213.162
  20
 206.560
  30
0.0
  11
 213.260
  21
 206.530
  31
0.0
   0
LINE
   8
LEVEL001
   6
CONTINUOUS
  62
7
  10
 213.260
  20
 206.530
  30
0.0
  11
 213.361
  21
 206.501
  31
0.0
   0
LINE
   8
LEVEL001
   6
CONTINUOUS
  62
7
  10
 213.361
  20
 206.501
  30
0.0
  11
 213.466
  21
 206.475
  31
0.0
   0
LINE
   8
LEVEL001
   6
CONTINUOUS
  62
7
  10
 213.466
  20
 206.475
  30
0.0
  11
 213.573
  21
 206.450
  31
0.0
   0
LINE
   8
LEVEL001
   6
CONTINUOUS
  62
7
  10
 213.573
  20
 206.450
  30
0.0
  11
 213.683
  21
 206.427
  31
0.0
   0
LINE
   8
LEVEL001
   6
CONTINUOUS
  62
7
  10
 213.683
  20
 206.427
  30
0.0
  11
 213.796
  21
 206.405
  31
0.0
   0
LINE
   8
LEVEL001
   6
CONTINUOUS
  62
7
  10
 213.796
  20
 206.405
  30
0.0
  11
 213.911
  21
 206.386
  31
0.0
   0
LINE
   8
LEVEL001
   6
CONTINUOUS
  62
7
  10
 213.911
  20
 206.386
  30
0.0
  11
 214.028
  21
 206.369
  31
0.0
   0
LINE
   8
LEVEL001
   6
CONTINUOUS
  62
7
  10
 214.028
  20
 206.369
  30
0.0
  11
 214.147
  21
 206.353
  31
0.0
   0
LINE
   8
LEVEL001
   6
CONTINUOUS
  62
7
  10
 214.147
  20
 206.353
  30
0.0
  11
 214.268
  21
 206.340
  31
0.0
   0
LINE
   8
LEVEL001
   6
CONTINUOUS
  62
7
  10
 214.268
  20
 206.340
  30
0.0
  11
 214.390
  21
 206.328
  31
0.0
   0
LINE
   8
LEVEL001
   6
CONTINUOUS
  62
7
  10
 214.390
  20
 206.328
  30
0.0
  11
 214.513
  21
 206.319
  31
0.0
   0
LINE
   8
LEVEL001
   6
CONTINUOUS
  62
7
  10
 214.513
  20
 206.319
  30
0.0
  11
 214.637
  21
 206.312
  31
0.0
   0
LINE
   8
LEVEL001
   6
CONTINUOUS
  62
7
  10
 214.637
  20
 206.312
  30
0.0
  11
 214.762
  21
 206.306
  31
0.0
   0
LINE
   8
LEVEL001
   6
CONTINUOUS
  62
7
  10
 214.762
  20
 206.306
  30
0.0
  11
 214.887
  21
 206.303
  31
0.0
   0
LINE
   8
LEVEL001
   6
CONTINUOUS
  62
7
  10
 214.887
  20
 206.303
  30
0.0
  11
 215.013
  21
 206.302
  31
0.0
   0
LINE
   8
LEVEL001
   6
CONTINUOUS
  62
7
  10
 215.013
  20
 206.302
  30
0.0
  11
 215.139
  21
 206.303
  31
0.0
   0
LINE
   8
LEVEL001
   6
CONTINUOUS
  62
7
  10
 215.139
  20
 206.303
  30
0.0
  11
 215.264
  21
 206.306
  31
0.0
   0
LINE
   8
LEVEL001
   6
CONTINUOUS
  62
7
  10
 215.264
  20
 206.306
  30
0.0
  11
 215.389
  21
 206.312
  31
0.0
   0
LINE
   8
LEVEL001
   6
CONTINUOUS
  62
7
  10
 215.389
  20
 206.312
  30
0.0
  11
 215.513
  21
 206.319
  31
0.0
   0
LINE
   8
LEVEL001
   6
CONTINUOUS
  62
7
  10
 215.513
  20
 206.319
  30
0.0
  11
 215.636
  21
 206.328
  31
0.0
   0
LINE
   8
LEVEL001
   6
CONTINUOUS
  62
7
  10
 215.636
  20
 206.328
  30
0.0
  11
 215.758
  21
 206.340
  31
0.0
   0
LINE
   8
LEVEL001
   6
CONTINUOUS
  62
7
  10
 215.758
  20
 206.340
  30
0.0
  11
 215.879
  21
 206.353
  31
0.0
   0
LINE
   8
LEVEL001
   6
CONTINUOUS
  62
7
  10
 215.879
  20
 206.353
  30
0.0
  11
 215.998
  21
 206.369
  31
0.0
   0
LINE
   8
LEVEL001
   6
CONTINUOUS
  62
7
  10
 215.998
  20
 206.369
  30
0.0
  11
 216.115
  21
 206.386
  31
0.0
   0
LINE
   8
LEVEL001
   6
CONTINUOUS
  62
7
  10
 216.115
  20
 206.386
  30
0.0
  11
 216.230
  21
 206.405
  31
0.0
   0
LINE
   8
LEVEL001
   6
CONTINUOUS
  62
7
  10
 216.230
  20
 206.405
  30
0.0
  11
 216.343
  21
 206.427
  31
0.0
   0
LINE
   8
LEVEL001
   6
CONTINUOUS
  62
7
  10
 216.343
  20
 206.427
  30
0.0
  11
 216.453
  21
 206.450
  31
0.0
   0
LINE
   8
LEVEL001
   6
CONTINUOUS
  62
7
  10
 216.453
  20
 206.450
  30
0.0
  11
 216.560
  21
 206.475
  31
0.0
   0
LINE
   8
LEVEL001
   6
CONTINUOUS
  62
7
  10
 216.560
  20
 206.475
  30
0.0
  11
 216.665
  21
 206.501
  31
0.0
   0
LINE
   8
LEVEL001
   6
CONTINUOUS
  62
7
  10
 216.665
  20
 206.501
  30
0.0
  11
 216.766
  21
 206.530
  31
0.0
   0
LINE
   8
LEVEL001
   6
CONTINUOUS
  62
7
  10
 216.766
  20
 206.530
  30
0.0
  11
 216.864
  21
 206.560
  31
0.0
   0
LINE
   8
LEVEL001
   6
CONTINUOUS
  62
7
  10
 216.864
  20
 206.560
  30
0.0
  11
 216.959
  21
 206.592
  31
0.0
   0
LINE
   8
LEVEL001
   6
CONTINUOUS
  62
7
  10
 216.959
  20
 206.592
  30
0.0
  11
 217.049
  21
 206.625
  31
0.0
   0
LINE
   8
LEVEL001
   6
CONTINUOUS
  62
7
  10
 217.049
  20
 206.625
  30
0.0
  11
 217.136
  21
 206.660
  31
0.0
   0
LINE
   8
LEVEL001
   6
CONTINUOUS
  62
7
  10
 217.136
  20
 206.660
  30
0.0
  11
 217.219
  21
 206.696
  31
0.0
   0
LINE
   8
LEVEL001
   6
CONTINUOUS
  62
7
  10
 217.219
  20
 206.696
  30
0.0
  11
 217.298
  21
 206.733
  31
0.0
   0
LINE
   8
LEVEL001
   6
CONTINUOUS
  62
7
  10
 217.298
  20
 206.733
  30
0.0
  11
 217.372
  21
 206.772
  31
0.0
   0
LINE
   8
LEVEL001
   6
CONTINUOUS
  62
7
  10
 217.372
  20
 206.772
  30
0.0
  11
 217.442
  21
 206.812
  31
0.0
   0
LINE
   8
LEVEL001
   6
CONTINUOUS
  62
7
  10
 217.442
  20
 206.812
  30
0.0
  11
 217.507
  21
 206.853
  31
0.0
   0
LINE
   8
LEVEL001
   6
CONTINUOUS
  62
7
  10
 217.507
  20
 206.853
  30
0.0
  11
 217.568
  21
 206.895
  31
0.0
   0
LINE
   8
LEVEL001
   6
CONTINUOUS
  62
7
  10
 217.568
  20
 206.895
  30
0.0
  11
 217.623
  21
 206.938
  31
0.0
   0
LINE
   8
LEVEL001
   6
CONTINUOUS
  62
7
  10
 217.623
  20
 206.938
  30
0.0
  11
 217.674
  21
 206.982
  31
0.0
   0
LINE
   8
LEVEL001
   6
CONTINUOUS
  62
7
  10
 217.674
  20
 206.982
  30
0.0
  11
 217.719
  21
 207.027
  31
0.0
   0
LINE
   8
LEVEL001
   6
CONTINUOUS
  62
7
  10
 217.719
  20
 207.027
  30
0.0
  11
 217.760
  21
 207.073
  31
0.0
   0
LINE
   8
LEVEL001
   6
CONTINUOUS
  62
7
  10
 217.760
  20
 207.073
  30
0.0
  11
 217.795
  21
 207.119
  31
0.0
   0
LINE
   8
LEVEL001
   6
CONTINUOUS
  62
7
  10
 217.795
  20
 207.119
  30
0.0
  11
 217.825
  21
 207.166
  31
0.0
   0
LINE
   8
LEVEL001
   6
CONTINUOUS
  62
7
  10
 217.825
  20
 207.166
  30
0.0
  11
 217.849
  21
 207.213
  31
0.0
   0
LINE
   8
LEVEL001
   6
CONTINUOUS
  62
7
  10
 217.849
  20
 207.213
  30
0.0
  11
 217.868
  21
 207.260
  31
0.0
   0
LINE
   8
LEVEL001
   6
CONTINUOUS
  62
7
  10
 217.868
  20
 207.260
  30
0.0
  11
 217.882
  21
 207.308
  31
0.0
   0
LINE
   8
LEVEL001
   6
CONTINUOUS
  62
7
  10
 217.882
  20
 207.308
  30
0.0
  11
 217.890
  21
 207.356
  31
0.0
   0
LINE
   8
LEVEL001
   6
CONTINUOUS
  62
7
  10
 217.890
  20
 207.356
  30
0.0
  11
 217.893
  21
 207.404
  31
0.0
   0
LINE
   8
LEVEL001
   6
CONTINUOUS
  62
7
  10
 211.553
  20
 206.282
  30
0.0
  11
 211.556
  21
 206.225
  31
0.0
   0
LINE
   8
LEVEL001
   6
CONTINUOUS
  62
7
  10
 211.556
  20
 206.225
  30
0.0
  11
 211.566
  21
 206.167
  31
0.0
   0
LINE
   8
LEVEL001
   6
CONTINUOUS
  62
7
  10
 211.566
  20
 206.167
  30
0.0
  11
 211.583
  21
 206.110
  31
0.0
   0
LINE
   8
LEVEL001
   6
CONTINUOUS
  62
7
  10
 211.583
  20
 206.110
  30
0.0
  11
 211.606
  21
 206.053
  31
0.0
   0
LINE
   8
LEVEL001
   6
CONTINUOUS
  62
7
  10
 211.606
  20
 206.053
  30
0.0
  11
 211.635
  21
 205.996
  31
0.0
   0
LINE
   8
LEVEL001
   6
CONTINUOUS
  62
7
  10
 211.635
  20
 205.996
  30
0.0
  11
 211.671
  21
 205.940
  31
0.0
   0
LINE
   8
LEVEL001
   6
CONTINUOUS
  62
7
  10
 211.671
  20
 205.940
  30
0.0
  11
 211.713
  21
 205.884
  31
0.0
   0
LINE
   8
LEVEL001
   6
CONTINUOUS
  62
7
  10
 211.713
  20
 205.884
  30
0.0
  11
 211.762
  21
 205.830
  31
0.0
   0
LINE
   8
LEVEL001
   6
CONTINUOUS
  62
7
  10
 211.762
  20
 205.830
  30
0.0
  11
 211.816
  21
 205.776
  31
0.0
   0
LINE
   8
LEVEL001
   6
CONTINUOUS
  62
7
  10
 211.816
  20
 205.776
  30
0.0
  11
 211.877
  21
 205.723
  31
0.0
   0
LINE
   8
LEVEL001
   6
CONTINUOUS
  62
7
  10
 211.877
  20
 205.723
  30
0.0
  11
 211.944
  21
 205.671
  31
0.0
   0
LINE
   8
LEVEL001
   6
CONTINUOUS
  62
7
  10
 211.944
  20
 205.671
  30
0.0
  11
 212.017
  21
 205.620
  31
0.0
   0
LINE
   8
LEVEL001
   6
CONTINUOUS
  62
7
  10
 212.017
  20
 205.620
  30
0.0
  11
 212.095
  21
 205.571
  31
0.0
   0
LINE
   8
LEVEL001
   6
CONTINUOUS
  62
7
  10
 212.095
  20
 205.571
  30
0.0
  11
 212.179
  21
 205.523
  31
0.0
   0
LINE
   8
LEVEL001
   6
CONTINUOUS
  62
7
  10
 212.179
  20
 205.523
  30
0.0
  11
 212.268
  21
 205.476
  31
0.0
   0
LINE
   8
LEVEL001
   6
CONTINUOUS
  62
7
  10
 212.268
  20
 205.476
  30
0.0
  11
 212.362
  21
 205.431
  31
0.0
   0
LINE
   8
LEVEL001
   6
CONTINUOUS
  62
7
  10
 212.362
  20
 205.431
  30
0.0
  11
 212.462
  21
 205.388
  31
0.0
   0
LINE
   8
LEVEL001
   6
CONTINUOUS
  62
7
  10
 212.462
  20
 205.388
  30
0.0
  11
 212.566
  21
 205.346
  31
0.0
   0
LINE
   8
LEVEL001
   6
CONTINUOUS
  62
7
  10
 212.566
  20
 205.346
  30
0.0
  11
 212.675
  21
 205.306
  31
0.0
   0
LINE
   8
LEVEL001
   6
CONTINUOUS
  62
7
  10
 212.675
  20
 205.306
  30
0.0
  11
 212.789
  21
 205.268
  31
0.0
   0
LINE
   8
LEVEL001
   6
CONTINUOUS
  62
7
  10
 212.789
  20
 205.268
  30
0.0
  11
 212.907
  21
 205.232
  31
0.0
   0
LINE
   8
LEVEL001
   6
CONTINUOUS
  62
7
  10
 212.907
  20
 205.232
  30
0.0
  11
 213.028
  21
 205.198
  31
0.0
   0
LINE
   8
LEVEL001
   6
CONTINUOUS
  62
7
  10
 213.028
  20
 205.198
  30
0.0
  11
 213.154
  21
 205.166
  31
0.0
   0
LINE
   8
LEVEL001
   6
CONTINUOUS
  62
7
  10
 213.154
  20
 205.166
  30
0.0
  11
 213.283
  21
 205.136
  31
0.0
   0
LINE
   8
LEVEL001
   6
CONTINUOUS
  62
7
  10
 213.283
  20
 205.136
  30
0.0
  11
 213.415
  21
 205.108
  31
0.0
   0
LINE
   8
LEVEL001
   6
CONTINUOUS
  62
7
  10
 213.415
  20
 205.108
  30
0.0
  11
 213.551
  21
 205.082
  31
0.0
   0
LINE
   8
LEVEL001
   6
CONTINUOUS
  62
7
  10
 213.551
  20
 205.082
  30
0.0
  11
 213.689
  21
 205.059
  31
0.0
   0
LINE
   8
LEVEL001
   6
CONTINUOUS
  62
7
  10
 213.689
  20
 205.059
  30
0.0
  11
 213.830
  21
 205.038
  31
0.0
   0
LINE
   8
LEVEL001
   6
CONTINUOUS
  62
7
  10
 213.830
  20
 205.038
  30
0.0
  11
 213.973
  21
 205.020
  31
0.0
   0
LINE
   8
LEVEL001
   6
CONTINUOUS
  62
7
  10
 213.973
  20
 205.020
  30
0.0
  11
 214.117
  21
 205.004
  31
0.0
   0
LINE
   8
LEVEL001
   6
CONTINUOUS
  62
7
  10
 214.117
  20
 205.004
  30
0.0
  11
 214.264
  21
 204.990
  31
0.0
   0
LINE
   8
LEVEL001
   6
CONTINUOUS
  62
7
  10
 214.264
  20
 204.990
  30
0.0
  11
 214.412
  21
 204.979
  31
0.0
   0
LINE
   8
LEVEL001
   6
CONTINUOUS
  62
7
  10
 214.412
  20
 204.979
  30
0.0
  11
 214.561
  21
 204.970
  31
0.0
   0
LINE
   8
LEVEL001
   6
CONTINUOUS
  62
7
  10
 214.561
  20
 204.970
  30
0.0
  11
 214.711
  21
 204.963
  31
0.0
   0
LINE
   8
LEVEL001
   6
CONTINUOUS
  62
7
  10
 214.711
  20
 204.963
  30
0.0
  11
 214.862
  21
 204.960
  31
0.0
   0
LINE
   8
LEVEL001
   6
CONTINUOUS
  62
7
  10
 214.862
  20
 204.960
  30
0.0
  11
 215.013
  21
 204.958
  31
0.0
   0
LINE
   8
LEVEL001
   6
CONTINUOUS
  62
7
  10
 215.013
  20
 204.958
  30
0.0
  11
 215.164
  21
 204.960
  31
0.0
   0
LINE
   8
LEVEL001
   6
CONTINUOUS
  62
7
  10
 215.164
  20
 204.960
  30
0.0
  11
 215.315
  21
 204.963
  31
0.0
   0
LINE
   8
LEVEL001
   6
CONTINUOUS
  62
7
  10
 215.315
  20
 204.963
  30
0.0
  11
 215.465
  21
 204.970
  31
0.0
   0
LINE
   8
LEVEL001
   6
CONTINUOUS
  62
7
  10
 215.465
  20
 204.970
  30
0.0
  11
 215.614
  21
 204.979
  31
0.0
   0
LINE
   8
LEVEL001
   6
CONTINUOUS
  62
7
  10
 215.614
  20
 204.979
  30
0.0
  11
 215.762
  21
 204.990
  31
0.0
   0
LINE
   8
LEVEL001
   6
CONTINUOUS
  62
7
  10
 215.762
  20
 204.990
  30
0.0
  11
 215.908
  21
 205.004
  31
0.0
   0
LINE
   8
LEVEL001
   6
CONTINUOUS
  62
7
  10
 215.908
  20
 205.004
  30
0.0
  11
 216.053
  21
 205.020
  31
0.0
   0
LINE
   8
LEVEL001
   6
CONTINUOUS
  62
7
  10
 216.053
  20
 205.020
  30
0.0
  11
 216.196
  21
 205.038
  31
0.0
   0
LINE
   8
LEVEL001
   6
CONTINUOUS
  62
7
  10
 216.196
  20
 205.038
  30
0.0
  11
 216.337
  21
 205.059
  31
0.0
   0
LINE
   8
LEVEL001
   6
CONTINUOUS
  62
7
  10
 216.337
  20
 205.059
  30
0.0
  11
 216.475
  21
 205.082
  31
0.0
   0
LINE
   8
LEVEL001
   6
CONTINUOUS
  62
7
  10
 216.475
  20
 205.082
  30
0.0
  11
 216.611
  21
 205.108
  31
0.0
   0
LINE
   8
LEVEL001
   6
CONTINUOUS
  62
7
  10
 216.611
  20
 205.108
  30
0.0
  11
 216.743
  21
 205.136
  31
0.0
   0
LINE
   8
LEVEL001
   6
CONTINUOUS
  62
7
  10
 216.743
  20
 205.136
  30
0.0
  11
 216.872
  21
 205.166
  31
0.0
   0
LINE
   8
LEVEL001
   6
CONTINUOUS
  62
7
  10
 216.872
  20
 205.166
  30
0.0
  11
 216.998
  21
 205.198
  31
0.0
   0
LINE
   8
LEVEL001
   6
CONTINUOUS
  62
7
  10
 216.998
  20
 205.198
  30
0.0
  11
 217.119
  21
 205.232
  31
0.0
   0
LINE
   8
LEVEL001
   6
CONTINUOUS
  62
7
  10
 217.119
  20
 205.232
  30
0.0
  11
 217.237
  21
 205.268
  31
0.0
   0
LINE
   8
LEVEL001
   6
CONTINUOUS
  62
7
  10
 217.237
  20
 205.268
  30
0.0
  11
 217.350
  21
 205.306
  31
0.0
   0
LINE
   8
LEVEL001
   6
CONTINUOUS
  62
7
  10
 217.350
  20
 205.306
  30
0.0
  11
 217.460
  21
 205.346
  31
0.0
   0
LINE
   8
LEVEL001
   6
CONTINUOUS
  62
7
  10
 217.460
  20
 205.346
  30
0.0
  11
 217.564
  21
 205.388
  31
0.0
   0
LINE
   8
LEVEL001
   6
CONTINUOUS
  62
7
  10
 217.564
  20
 205.388
  30
0.0
  11
 217.663
  21
 205.431
  31
0.0
   0
LINE
   8
LEVEL001
   6
CONTINUOUS
  62
7
  10
 217.663
  20
 205.431
  30
0.0
  11
 217.758
  21
 205.476
  31
0.0
   0
LINE
   8
LEVEL001
   6
CONTINUOUS
  62
7
  10
 217.758
  20
 205.476
  30
0.0
  11
 217.847
  21
 205.523
  31
0.0
   0
LINE
   8
LEVEL001
   6
CONTINUOUS
  62
7
  10
 217.847
  20
 205.523
  30
0.0
  11
 217.931
  21
 205.571
  31
0.0
   0
LINE
   8
LEVEL001
   6
CONTINUOUS
  62
7
  10
 217.931
  20
 205.571
  30
0.0
  11
 218.009
  21
 205.620
  31
0.0
   0
LINE
   8
LEVEL001
   6
CONTINUOUS
  62
7
  10
 218.009
  20
 205.620
  30
0.0
  11
 218.082
  21
 205.671
  31
0.0
   0
LINE
   8
LEVEL001
   6
CONTINUOUS
  62
7
  10
 218.082
  20
 205.671
  30
0.0
  11
 218.149
  21
 205.723
  31
0.0
   0
LINE
   8
LEVEL001
   6
CONTINUOUS
  62
7
  10
 218.149
  20
 205.723
  30
0.0
  11
 218.210
  21
 205.776
  31
0.0
   0
LINE
   8
LEVEL001
   6
CONTINUOUS
  62
7
  10
 218.210
  20
 205.776
  30
0.0
  11
 218.264
  21
 205.830
  31
0.0
   0
LINE
   8
LEVEL001
   6
CONTINUOUS
  62
7
  10
 218.264
  20
 205.830
  30
0.0
  11
 218.313
  21
 205.884
  31
0.0
   0
LINE
   8
LEVEL001
   6
CONTINUOUS
  62
7
  10
 218.313
  20
 205.884
  30
0.0
  11
 218.355
  21
 205.940
  31
0.0
   0
LINE
   8
LEVEL001
   6
CONTINUOUS
  62
7
  10
 218.355
  20
 205.940
  30
0.0
  11
 218.391
  21
 205.996
  31
0.0
   0
LINE
   8
LEVEL001
   6
CONTINUOUS
  62
7
  10
 218.391
  20
 205.996
  30
0.0
  11
 218.420
  21
 206.053
  31
0.0
   0
LINE
   8
LEVEL001
   6
CONTINUOUS
  62
7
  10
 218.420
  20
 206.053
  30
0.0
  11
 218.443
  21
 206.110
  31
0.0
   0
LINE
   8
LEVEL001
   6
CONTINUOUS
  62
7
  10
 218.443
  20
 206.110
  30
0.0
  11
 218.460
  21
 206.167
  31
0.0
   0
LINE
   8
LEVEL001
   6
CONTINUOUS
  62
7
  10
 218.460
  20
 206.167
  30
0.0
  11
 218.470
  21
 206.225
  31
0.0
   0
LINE
   8
LEVEL001
   6
CONTINUOUS
  62
7
  10
 218.470
  20
 206.225
  30
0.0
  11
 218.473
  21
 206.282
  31
0.0
   0
ARC
   8
LEVEL001
   6
CONTINUOUS
  62
7
  10
 212.074
  20
 209.768
  30
0.0
  40
 6.28019
  50
 337.893
  51
 352.464
   0
ARC
   8
LEVEL001
   6
CONTINUOUS
  62
7
  10
 219.026
  20
 207.279
  30
0.0
  40
 1.13965
  50
 173.696
  51
 240.986
   0
ARC
   8
LEVEL001
   6
CONTINUOUS
  62
7
  10
 217.951
  20
 209.768
  30
0.0
  40
 6.28019
  50
 187.536
  51
 202.107
   0
ARC
   8
LEVEL001
   6
CONTINUOUS
  62
7
  10
 211.000
  20
 207.279
  30
0.0
  40
 1.13965
  50
 299.014
  51
 6.30441
   0
LINE
   8
LEVEL001
   6
CONTINUOUS
  62
7
  10
 218.477
  20
 205.509
  30
0.0
  11
 215.013
  21
 204.736
  31
0.0
   0
LINE
   8
LEVEL001
   6
CONTINUOUS
  62
7
  10
 215.013
  20
 204.736
  30
0.0
  11
 211.549
  21
 205.509
  31
0.0
   0
LINE
   8
LEVEL001
   6
CONTINUOUS
  62
7
  10
 211.549
  20
 207.056
  30
0.0
  11
 212.136
  21
 207.187
  31
0.0
   0
LINE
   8
LEVEL001
   6
CONTINUOUS
  62
7
  10
 217.890
  20
 207.187
  30
0.0
  11
 218.477
  21
 207.056
  31
0.0
   0
LINE
   8
LEVEL001
   6
CONTINUOUS
  62
7
  10
 211.549
  20
 207.056
  30
0.0
  11
 211.549
  21
 203.292
  31
0.0
   0
LINE
   8
LEVEL001
   6
CONTINUOUS
  62
7
  10
 218.477
  20
 203.292
  30
0.0
  11
 218.477
  21
 207.056
  31
0.0
   0
LINE
   8
LEVEL001
   6
CONTINUOUS
  62
7
  10
 211.549
  20
 203.292
  30
0.0
  11
 215.013
  21
 202.519
  31
0.0
   0
LINE
   8
LEVEL001
   6
CONTINUOUS
  62
7
  10
 215.013
  20
 202.519
  30
0.0
  11
 218.477
  21
 203.292
  31
0.0
   0
ARC
   8
LEVEL001
   6
CONTINUOUS
  62
7
  10
 215.013
  20
 200.000
  30
0.0
  40
 5.00000
  50
 133.854
  51
 46.1462
   0
LINE
   8
LEVEL001
   6
CONTINUOUS
  62
7
  10
 220.786
  20
 200.000
  30
0.0
  11
 218.477
  21
 204.000
  31
0.0
   0
LINE
   8
LEVEL001
   6
CONTINUOUS
  62
7
  10
 211.549
  20
 204.000
  30
0.0
  11
 209.239
  21
 200.000
  31
0.0
   0
ARC
   8
LEVEL001
   6
CONTINUOUS
  62
7
  10
 446.000
  20
 200.000
  30
0.0
  40
 10.0000
  50
 107.460
  51
 72.5398
   0
ARC
   8
LEVEL001
   6
CONTINUOUS
  62
7
  10
 457.000
  20
 243.223
  30
0.0
  40
 12.0000
  50
 97.8370
  51
 168.513
   0
ARC
   8
LEVEL001
   6
CONTINUOUS
  62
7
  10
 543.000
  20
 243.223
  30
0.0
  40
 12.0000
  50
0.0
  51
 82.1630
   0
LINE
   8
LEVEL001
   6
CONTINUOUS
  62
7
  10
 543.000
  20
 255.223
  30
0.0
  11
 457.000
  21
 255.223
  31
0.0
   0
ARC
   8
LEVEL001
   6
CONTINUOUS
  62
7
  10
 539.000
  20
 143.000
  30
0.0
  40
 3.00000
  50
 138.191
  51
 180.001
   0
LINE
   8
LEVEL001
   6
CONTINUOUS
  62
7
  10
 591.500
  20
 145.000
  30
0.0
  11
 591.500
  21
 158.000
  31
0.0
   0
ARC
   8
LEVEL001
   6
CONTINUOUS
  62
7
  10
 589.500
  20
 158.000
  30
0.0
  40
 2.00000
  50
 0.900000E-3
  51
 89.9990
   0
LINE
   8
LEVEL001
   6
CONTINUOUS
  62
7
  10
 576.549
  20
 167.882
  30
0.0
  11
 590.509
  21
 159.727
  31
0.0
   0
ARC
   8
LEVEL001
   6
CONTINUOUS
  62
7
  10
 586.637
  20
 185.151
  30
0.0
  40
 20.0000
  50
 195.301
  51
 239.707
   0
LINE
   8
LEVEL001
   6
CONTINUOUS
  62
7
  10
 536.000
  20
 135.000
  30
0.0
  11
 464.000
  21
 135.000
  31
0.0
   0
LINE
   8
LEVEL001
   6
CONTINUOUS
  62
7
  10
 466.000
  20
 132.171
  30
0.0
  11
 466.000
  21
 104.500
  31
0.0
   0
ARC
   8
LEVEL001
   6
CONTINUOUS
  62
7
  10
 463.000
  20
 132.171
  30
0.0
  40
 3.00000
  50
 359.998
  51
 70.5280
   0
LINE
   8
LEVEL001
   6
CONTINUOUS
  62
7
  10
 464.000
  20
 143.000
  30
0.0
  11
 464.000
  21
 135.000
  31
0.0
   0
ARC
   8
LEVEL001
   6
CONTINUOUS
  62
7
  10
 537.000
  20
 132.171
  30
0.0
  40
 3.00000
  50
 109.472
  51
 180.002
   0
LINE
   8
LEVEL001
   6
CONTINUOUS
  62
7
  10
 536.000
  20
 143.000
  30
0.0
  11
 536.000
  21
 135.000
  31
0.0
   0
LINE
   8
LEVEL001
   6
CONTINUOUS
  62
7
  10
 398.372
  20
 195.000
  30
0.0
  11
 409.339
  21
 195.000
  31
0.0
   0
LINE
   8
LEVEL001
   6
CONTINUOUS
  62
7
  10
 409.339
  20
 205.000
  30
0.0
  11
 402.191
  21
 205.000
  31
0.0
   0
ARC
   8
LEVEL001
   6
CONTINUOUS
  62
7
  10
 402.179
  20
 197.500
  30
0.0
  40
 7.22093
  50
 339.744
  51
 347.370
   0
ARC
   8
LEVEL001
   6
CONTINUOUS
  62
7
  10
 402.222
  20
 202.500
  30
0.0
  40
 7.22093
  50
 13.6440
  51
 20.2560
   0
LINE
   8
LEVEL001
   6
CONTINUOUS
  62
7
  10
 402.867
  20
 181.807
  30
0.0
  11
 406.866
  21
 195.000
  31
0.0
   0
ARC
   8
LEVEL001
   6
CONTINUOUS
  62
7
  10
 404.803
  20
 212.639
  30
0.0
  40
 6.00000
  50
 227.432
  51
 237.018
   0
ARC
   8
LEVEL001
   6
CONTINUOUS
  62
7
  10
 389.277
  20
 206.208
  30
0.0
  40
 6.00000
  50
 347.981
  51
 357.567
   0
ARC
   8
LEVEL001
   6
CONTINUOUS
  62
7
  10
 400.943
  20
 200.000
  30
0.0
  40
 5.62228
  50
 151.001
  51
 242.788
   0
ARC
   8
LEVEL001
   6
CONTINUOUS
  62
7
  10
 397.193
  20
 209.054
  30
0.0
  40
 6.43506
  50
 259.551
  51
 325.449
   0
ARC
   8
LEVEL001
   6
CONTINUOUS
  62
7
  10
 397.193
  20
 209.054
  30
0.0
  40
 3.30000
  50
 202.500
  51
 228.418
   0
ARC
   8
LEVEL001
   6
CONTINUOUS
  62
7
  10
 397.193
  20
 209.054
  30
0.0
  40
 3.30000
  50
 356.582
  51
 22.5000
   0
LINE
   8
LEVEL001
   6
CONTINUOUS
  62
7
  10
 397.273
  20
 203.580
  30
0.0
  11
 396.594
  21
 205.220
  31
0.0
   0
LINE
   8
LEVEL001
   6
CONTINUOUS
  62
7
  10
 401.007
  20
 205.127
  30
0.0
  11
 400.328
  21
 206.767
  31
0.0
   0
ARC
   8
LEVEL001
   6
CONTINUOUS
  62
7
  10
 400.900
  20
 200.104
  30
0.0
  40
 6.68738
  50
 94.9120
  51
 130.088
   0
ARC
   8
LEVEL001
   6
CONTINUOUS
  62
7
  10
 396.700
  20
 210.243
  30
0.0
  40
 6.68738
  50
 274.912
  51
 310.088
   0
ARC
   8
LEVEL001
   6
CONTINUOUS
  62
7
  10
 402.709
  20
 204.630
  30
0.0
  40
 3.20000
  50
 110.768
  51
 138.098
   0
ARC
   8
LEVEL001
   6
CONTINUOUS
  62
7
  10
 396.421
  20
 202.025
  30
0.0
  40
 3.20000
  50
 86.9030
  51
 114.232
   0
ARC
   8
LEVEL001
   6
CONTINUOUS
  62
7
  10
 394.891
  20
 205.718
  30
0.0
  40
 3.20000
  50
 290.767
  51
 318.097
   0
ARC
   8
LEVEL001
   6
CONTINUOUS
  62
7
  10
 401.180
  20
 208.322
  30
0.0
  40
 3.20000
  50
 266.903
  51
 294.232
   0
LINE
   8
LEVEL001
   6
CONTINUOUS
  62
7
  10
 400.544
  20
 208.509
  30
0.0
  11
 395.220
  21
 206.304
  31
0.0
   0
ARC
   8
LEVEL001
   6
CONTINUOUS
  62
7
  10
 396.255
  20
 211.317
  30
0.0
  40
 1.00000
  50
 36.9770
  51
 188.021
   0
ARC
   8
LEVEL001
   6
CONTINUOUS
  62
7
  10
 401.286
  20
 208.809
  30
0.0
  40
 0.800000
  50
 176.573
  51
 227.428
   0
ARC
   8
LEVEL001
   6
CONTINUOUS
  62
7
  10
 394.472
  20
 205.987
  30
0.0
  40
 0.800000
  50
 357.573
  51
 48.4260
   0
LINE
   8
LEVEL001
   6
CONTINUOUS
  62
7
  10
 405.800
  20
 205.000
  30
0.0
  11
 405.800
  21
 195.000
  31
0.0
   0
LINE
   8
LEVEL001
   6
CONTINUOUS
  62
7
  10
 408.954
  20
 200.000
  30
0.0
  11
 406.247
  21
 200.000
  31
0.0
   0
ARC
   8
LEVEL001
   6
CONTINUOUS
  62
7
  10
 413.021
  20
 202.500
  30
0.0
  40
 7.22070
  50
 159.743
  51
 200.257
   0
ARC
   8
LEVEL001
   6
CONTINUOUS
  62
7
  10
 413.021
  20
 197.500
  30
0.0
  40
 7.22070
  50
 159.743
  51
 200.257
   0
CIRCLE
   8
LEVEL001
   6
CONTINUOUS
  62
7
  10
 446.000
  20
 200.000
  30
0.0
  40
 37.0000
   0
CIRCLE
   8
LEVEL001
   6
CONTINUOUS
  62
7
  10
 416.000
  20
 200.000
  30
0.0
  40
 3.00000
   0
CIRCLE
   8
LEVEL001
   6
CONTINUOUS
  62
7
  10
 416.000
  20
 200.000
  30
0.0
  40
 2.50000
   0
CIRCLE
   8
LEVEL001
   6
CONTINUOUS
  62
7
  10
 476.000
  20
 200.000
  30
0.0
  40
 3.00000
   0
CIRCLE
   8
LEVEL001
   6
CONTINUOUS
  62
7
  10
 476.000
  20
 200.000
  30
0.0
  40
 2.50000
   0
CIRCLE
   8
LEVEL001
   6
CONTINUOUS
  62
7
  10
 446.000
  20
 200.000
  30
0.0
  40
 19.0000
   0
ARC
   8
LEVEL001
   6
CONTINUOUS
  62
7
  10
 446.000
  20
 200.000
  30
0.0
  40
 12.5000
  50
 103.887
  51
 76.1130
   0
ARC
   8
LEVEL001
   6
CONTINUOUS
  62
7
  10
 446.000
  20
 200.000
  30
0.0
  40
 11.0000
  50
 105.827
  51
 74.1730
   0
LINE
   8
LEVEL001
   6
CONTINUOUS
  62
7
  10
 449.000
  20
 213.500
  30
0.0
  11
 449.000
  21
 207.500
  31
0.0
   0
LINE
   8
LEVEL001
   6
CONTINUOUS
  62
7
  10
 443.000
  20
 213.500
  30
0.0
  11
 443.000
  21
 207.500
  31
0.0
   0
LINE
   8
LEVEL001
   6
CONTINUOUS
  62
7
  10
 443.000
  20
 213.500
  30
0.0
  11
 449.000
  21
 213.500
  31
0.0
   0
LINE
   8
LEVEL001
   6
CONTINUOUS
  62
7
  10
 449.000
  20
 207.500
  30
0.0
  11
 443.000
  21
 207.500
  31
0.0
   0
CIRCLE
   8
LEVEL001
   6
CONTINUOUS
  62
7
  10
 467.213
  20
 178.787
  30
0.0
  40
 4.48038
   0
CIRCLE
   8
LEVEL001
   6
CONTINUOUS
  62
7
  10
 467.213
  20
 178.787
  30
0.0
  40
 5.00000
   0
CIRCLE
   8
LEVEL001
   6
CONTINUOUS
  62
7
  10
 424.787
  20
 178.787
  30
0.0
  40
 4.48038
   0
CIRCLE
   8
LEVEL001
   6
CONTINUOUS
  62
7
  10
 424.787
  20
 178.787
  30
0.0
  40
 5.00000
   0
CIRCLE
   8
LEVEL001
   6
CONTINUOUS
  62
7
  10
 424.787
  20
 221.213
  30
0.0
  40
 4.48038
   0
CIRCLE
   8
LEVEL001
   6
CONTINUOUS
  62
7
  10
 424.787
  20
 221.213
  30
0.0
  40
 5.00000
   0
CIRCLE
   8
LEVEL001
   6
CONTINUOUS
  62
7
  10
 467.213
  20
 221.213
  30
0.0
  40
 4.48038
   0
CIRCLE
   8
LEVEL001
   6
CONTINUOUS
  62
7
  10
 467.213
  20
 221.213
  30
0.0
  40
 5.00000
   0
LINE
   8
LEVEL001
   6
CONTINUOUS
  62
7
  10
 500.000
  20
 160.000
  30
0.0
  11
 589.500
  21
 160.000
  31
0.0
   0
LINE
   8
LEVEL001
   6
CONTINUOUS
  62
7
  10
 500.000
  20
 160.000
  30
0.0
  11
 375.500
  21
 160.000
  31
0.0
   0
ARC
   8
LEVEL001
   6
CONTINUOUS
  62
7
  10
 430.541
  20
 248.600
  30
0.0
  40
 15.0000
  50
 305.415
  51
 348.512
   0
ARC
   8
LEVEL001
   6
CONTINUOUS
  62
7
  10
 415.801
  20
 168.000
  30
0.0
  40
 8.00000
  50
 270.000
  51
 20.3350
   0
ARC
   8
LEVEL001
   6
CONTINUOUS
  62
7
  10
 461.000
  20
 143.000
  30
0.0
  40
 3.00000
  50
 0.537387E-10
  51
 41.8090
   0
LINE
   8
LEVEL001
   6
CONTINUOUS
  62
7
  10
 373.500
  20
 145.000
  30
0.0
  11
 500.000
  21
 145.000
  31
0.0
   0
LINE
   8
LEVEL001
   6
CONTINUOUS
  62
7
  10
 591.500
  20
 145.000
  30
0.0
  11
 500.000
  21
 145.000
  31
0.0
   0
LINE
   8
LEVEL001
   6
CONTINUOUS
  62
7
  10
 500.000
  20
 102.500
  30
0.0
  11
 468.000
  21
 102.500
  31
0.0
   0
LINE
   8
LEVEL001
   6
CONTINUOUS
  62
7
  10
 500.000
  20
 102.500
  30
0.0
  11
 532.000
  21
 102.500
  31
0.0
   0
LINE
   8
LEVEL001
   6
CONTINUOUS
  62
7
  10
 471.000
  20
 270.018
  30
0.0
  11
 471.000
  21
 274.750
  31
0.0
   0
LINE
   8
LEVEL001
   6
CONTINUOUS
  62
7
  10
 529.000
  20
 270.018
  30
0.0
  11
 529.000
  21
 274.750
  31
0.0
   0
LINE
   8
LEVEL001
   6
CONTINUOUS
  62
7
  10
 519.000
  20
 35.0000
  30
0.0
  11
 519.000
  21
 73.0000
  31
0.0
   0
LINE
   8
LEVEL001
   6
CONTINUOUS
  62
7
  10
 481.000
  20
 35.0000
  30
0.0
  11
 481.000
  21
 73.0000
  31
0.0
   0
LINE
   8
LEVEL001
   6
CONTINUOUS
  62
7
  10
 520.000
  20
 36.0000
  30
0.0
  11
 480.000
  21
 36.0000
  31
0.0
   0
LINE
   8
LEVEL001
   6
CONTINUOUS
  62
7
  10
 519.000
  20
 35.0000
  30
0.0
  11
 481.000
  21
 35.0000
  31
0.0
   0
LINE
   8
LEVEL001
   6
CONTINUOUS
  62
7
  10
 520.000
  20
 36.0000
  30
0.0
  11
 520.000
  21
 37.0000
  31
0.0
   0
LINE
   8
LEVEL001
   6
CONTINUOUS
  62
7
  10
 519.000
  20
 73.0000
  30
0.0
  11
 519.000
  21
 74.0000
  31
0.0
   0
ARC
   8
LEVEL001
   6
CONTINUOUS
  62
7
  10
 520.000
  20
 74.0000
  30
0.0
  40
 1.00000
  50
 90.0010
  51
 179.999
   0
ARC
   8
LEVEL001
   6
CONTINUOUS
  62
7
  10
 520.000
  20
 73.0000
  30
0.0
  40
 1.00000
  50
 179.997
  51
 270.000
   0
LINE
   8
LEVEL001
   6
CONTINUOUS
  62
7
  10
 480.000
  20
 36.0000
  30
0.0
  11
 480.000
  21
 37.0000
  31
0.0
   0
LINE
   8
LEVEL001
   6
CONTINUOUS
  62
7
  10
 481.000
  20
 73.0000
  30
0.0
  11
 481.000
  21
 74.0000
  31
0.0
   0
ARC
   8
LEVEL001
   6
CONTINUOUS
  62
7
  10
 480.000
  20
 74.0000
  30
0.0
  40
 1.00000
  50
 0.900000E-3
  51
 89.9990
   0
ARC
   8
LEVEL001
   6
CONTINUOUS
  62
7
  10
 480.000
  20
 73.0000
  30
0.0
  40
 1.00000
  50
 270.001
  51
 0.350000E-2
   0
LINE
   8
LEVEL001
   6
CONTINUOUS
  62
7
  10
 555.532
  20
 223.056
  30
0.0
  11
 567.346
  21
 179.874
  31
0.0
   0
ARC
   8
LEVEL001
   6
CONTINUOUS
  62
7
  10
 570.000
  20
 227.015
  30
0.0
  40
 15.0000
  50
 179.999
  51
 195.301
   0
LINE
   8
LEVEL001
   6
CONTINUOUS
  62
7
  10
 555.000
  20
 243.223
  30
0.0
  11
 555.000
  21
 168.000
  31
0.0
   0
ARC
   8
LEVEL001
   6
CONTINUOUS
  62
7
  10
 563.000
  20
 168.000
  30
0.0
  40
 8.00000
  50
 180.000
  51
 270.000
   0
LINE
   8
LEVEL001
   6
CONTINUOUS
  62
7
  10
 393.348
  20
 170.075
  30
0.0
  11
 374.538
  21
 159.753
  31
0.0
   0
ARC
   8
LEVEL001
   6
CONTINUOUS
  62
7
  10
 383.727
  20
 187.609
  30
0.0
  40
 20.0000
  50
 298.755
  51
 343.135
   0
ARC
   8
LEVEL001
   6
CONTINUOUS
  62
7
  10
 454.000
  20
 265.018
  30
0.0
  40
 10.0000
  50
 277.837
  51
 0.100000E-3
   0
LINE
   8
LEVEL001
   6
CONTINUOUS
  62
7
  10
 464.000
  20
 268.018
  30
0.0
  11
 464.000
  21
 265.018
  31
0.0
   0
ARC
   8
LEVEL001
   6
CONTINUOUS
  62
7
  10
 466.000
  20
 268.018
  30
0.0
  40
 2.00000
  50
 90.0010
  51
 180.003
   0
ARC
   8
LEVEL001
   6
CONTINUOUS
  62
7
  10
 546.000
  20
 265.018
  30
0.0
  40
 10.0000
  50
 180.000
  51
 262.162
   0
LINE
   8
LEVEL001
   6
CONTINUOUS
  62
7
  10
 536.000
  20
 268.018
  30
0.0
  11
 536.000
  21
 265.018
  31
0.0
   0
ARC
   8
LEVEL001
   6
CONTINUOUS
  62
7
  10
 534.000
  20
 268.018
  30
0.0
  40
 2.00000
  50
 359.997
  51
 89.9990
   0
ARC
   8
LEVEL001
   6
CONTINUOUS
  62
7
  10
 468.000
  20
 104.500
  30
0.0
  40
 2.00000
  50
 180.001
  51
 270.000
   0
LINE
   8
LEVEL001
   6
CONTINUOUS
  62
7
  10
 534.000
  20
 132.421
  30
0.0
  11
 534.000
  21
 104.500
  31
0.0
   0
LINE
   8
LEVEL001
   6
CONTINUOUS
  62
7
  10
 373.500
  20
 145.000
  30
0.0
  11
 373.500
  21
 158.000
  31
0.0
   0
ARC
   8
LEVEL001
   6
CONTINUOUS
  62
7
  10
 375.500
  20
 158.000
  30
0.0
  40
 2.00000
  50
 90.0010
  51
 179.999
   0
ARC
   8
LEVEL001
   6
CONTINUOUS
  62
7
  10
 532.000
  20
 104.500
  30
0.0
  40
 2.00000
  50
 269.999
  51
0.0
   0
LINE
   8
LEVEL001
   6
CONTINUOUS
  62
7
  10
 479.000
  20
 75.5000
  30
0.0
  11
 479.000
  21
 99.5000
  31
0.0
   0
ARC
   8
LEVEL001
   6
CONTINUOUS
  62
7
  10
 479.500
  20
 75.5000
  30
0.0
  40
 0.500000
  50
 179.997
  51
 269.995
   0
LINE
   8
LEVEL001
   6
CONTINUOUS
  62
7
  10
 521.000
  20
 75.5000
  30
0.0
  11
 521.000
  21
 99.5000
  31
0.0
   0
ARC
   8
LEVEL001
   6
CONTINUOUS
  62
7
  10
 520.500
  20
 75.5000
  30
0.0
  40
 0.500000
  50
 269.997
  51
 0.350000E-2
   0
LINE
   8
LEVEL001
   6
CONTINUOUS
  62
7
  10
 479.250
  20
 99.5000
  30
0.0
  11
 479.250
  21
 102.500
  31
0.0
   0
LINE
   8
LEVEL001
   6
CONTINUOUS
  62
7
  10
 520.750
  20
 99.5000
  30
0.0
  11
 520.750
  21
 102.500
  31
0.0
   0
LINE
   8
LEVEL001
   6
CONTINUOUS
  62
7
  10
 472.000
  20
 271.018
  30
0.0
  11
 471.000
  21
 274.750
  31
0.0
   0
LINE
   8
LEVEL001
   6
CONTINUOUS
  62
7
  10
 528.000
  20
 271.018
  30
0.0
  11
 529.000
  21
 274.750
  31
0.0
   0
LINE
   8
LEVEL001
   6
CONTINUOUS
  62
7
  10
 402.874
  20
 205.900
  30
0.0
  11
 402.493
  21
 205.404
  31
0.0
   0
LINE
   8
LEVEL001
   6
CONTINUOUS
  62
7
  10
 402.493
  20
 205.404
  30
0.0
  11
 396.026
  21
 202.726
  31
0.0
   0
LINE
   8
LEVEL001
   6
CONTINUOUS
  62
7
  10
 396.026
  20
 202.726
  30
0.0
  11
 395.406
  21
 202.807
  31
0.0
   0
LINE
   8
LEVEL001
   6
CONTINUOUS
  62
7
  10
 395.406
  20
 202.807
  30
0.0
  11
 394.727
  21
 204.447
  31
0.0
   0
LINE
   8
LEVEL001
   6
CONTINUOUS
  62
7
  10
 394.727
  20
 204.447
  30
0.0
  11
 395.108
  21
 204.943
  31
0.0
   0
LINE
   8
LEVEL001
   6
CONTINUOUS
  62
7
  10
 395.108
  20
 204.943
  30
0.0
  11
 401.575
  21
 207.622
  31
0.0
   0
LINE
   8
LEVEL001
   6
CONTINUOUS
  62
7
  10
 401.575
  20
 207.622
  30
0.0
  11
 402.195
  21
 207.540
  31
0.0
   0
LINE
   8
LEVEL001
   6
CONTINUOUS
  62
7
  10
 402.195
  20
 207.540
  30
0.0
  11
 402.874
  21
 205.900
  31
0.0
   0
LINE
   8
LEVEL001
   6
CONTINUOUS
  62
7
  10
 396.160
  20
 211.548
  30
0.0
  11
 398.377
  21
 212.467
  31
0.0
   0
LINE
   8
LEVEL001
   6
CONTINUOUS
  62
7
  10
 398.377
  20
 212.467
  30
0.0
  11
 400.242
  21
 210.317
  31
0.0
   0
LINE
   8
LEVEL001
   6
CONTINUOUS
  62
7
  10
 400.242
  20
 210.317
  30
0.0
  11
 397.193
  21
 209.054
  31
0.0
   0
LINE
   8
LEVEL001
   6
CONTINUOUS
  62
7
  10
 397.193
  20
 209.054
  30
0.0
  11
 394.144
  21
 207.791
  31
0.0
   0
LINE
   8
LEVEL001
   6
CONTINUOUS
  62
7
  10
 394.144
  20
 207.791
  30
0.0
  11
 393.942
  21
 210.630
  31
0.0
   0
LINE
   8
LEVEL001
   6
CONTINUOUS
  62
7
  10
 393.942
  20
 210.630
  30
0.0
  11
 396.160
  21
 211.548
  31
0.0
   0
LINE
   8
LEVEL001
   6
CONTINUOUS
  62
7
  10
 469.254
  20
 176.745
  30
0.0
  11
 470.002
  21
 179.534
  31
0.0
   0
LINE
   8
LEVEL001
   6
CONTINUOUS
  62
7
  10
 470.002
  20
 179.534
  30
0.0
  11
 467.960
  21
 181.575
  31
0.0
   0
LINE
   8
LEVEL001
   6
CONTINUOUS
  62
7
  10
 467.960
  20
 181.575
  30
0.0
  11
 465.172
  21
 180.828
  31
0.0
   0
LINE
   8
LEVEL001
   6
CONTINUOUS
  62
7
  10
 465.172
  20
 180.828
  30
0.0
  11
 464.425
  21
 178.039
  31
0.0
   0
LINE
   8
LEVEL001
   6
CONTINUOUS
  62
7
  10
 464.425
  20
 178.039
  30
0.0
  11
 466.466
  21
 175.998
  31
0.0
   0
LINE
   8
LEVEL001
   6
CONTINUOUS
  62
7
  10
 466.466
  20
 175.998
  30
0.0
  11
 469.254
  21
 176.745
  31
0.0
   0
LINE
   8
LEVEL001
   6
CONTINUOUS
  62
7
  10
 422.746
  20
 176.745
  30
0.0
  11
 425.534
  21
 175.998
  31
0.0
   0
LINE
   8
LEVEL001
   6
CONTINUOUS
  62
7
  10
 425.534
  20
 175.998
  30
0.0
  11
 427.575
  21
 178.039
  31
0.0
   0
LINE
   8
LEVEL001
   6
CONTINUOUS
  62
7
  10
 427.575
  20
 178.039
  30
0.0
  11
 426.828
  21
 180.828
  31
0.0
   0
LINE
   8
LEVEL001
   6
CONTINUOUS
  62
7
  10
 426.828
  20
 180.828
  30
0.0
  11
 424.040
  21
 181.575
  31
0.0
   0
LINE
   8
LEVEL001
   6
CONTINUOUS
  62
7
  10
 424.040
  20
 181.575
  30
0.0
  11
 421.998
  21
 179.534
  31
0.0
   0
LINE
   8
LEVEL001
   6
CONTINUOUS
  62
7
  10
 421.998
  20
 179.534
  30
0.0
  11
 422.746
  21
 176.745
  31
0.0
   0
LINE
   8
LEVEL001
   6
CONTINUOUS
  62
7
  10
 422.746
  20
 223.254
  30
0.0
  11
 421.998
  21
 220.466
  31
0.0
   0
LINE
   8
LEVEL001
   6
CONTINUOUS
  62
7
  10
 421.998
  20
 220.466
  30
0.0
  11
 424.040
  21
 218.425
  31
0.0
   0
LINE
   8
LEVEL001
   6
CONTINUOUS
  62
7
  10
 424.040
  20
 218.425
  30
0.0
  11
 426.828
  21
 219.172
  31
0.0
   0
LINE
   8
LEVEL001
   6
CONTINUOUS
  62
7
  10
 426.828
  20
 219.172
  30
0.0
  11
 427.575
  21
 221.960
  31
0.0
   0
LINE
   8
LEVEL001
   6
CONTINUOUS
  62
7
  10
 427.575
  20
 221.960
  30
0.0
  11
 425.534
  21
 224.001
  31
0.0
   0
LINE
   8
LEVEL001
   6
CONTINUOUS
  62
7
  10
 425.534
  20
 224.001
  30
0.0
  11
 422.746
  21
 223.254
  31
0.0
   0
LINE
   8
LEVEL001
   6
CONTINUOUS
  62
7
  10
 469.254
  20
 223.254
  30
0.0
  11
 466.466
  21
 224.001
  31
0.0
   0
LINE
   8
LEVEL001
   6
CONTINUOUS
  62
7
  10
 466.466
  20
 224.001
  30
0.0
  11
 464.425
  21
 221.960
  31
0.0
   0
LINE
   8
LEVEL001
   6
CONTINUOUS
  62
7
  10
 464.425
  20
 221.960
  30
0.0
  11
 465.172
  21
 219.172
  31
0.0
   0
LINE
   8
LEVEL001
   6
CONTINUOUS
  62
7
  10
 465.172
  20
 219.172
  30
0.0
  11
 467.960
  21
 218.425
  31
0.0
   0
LINE
   8
LEVEL001
   6
CONTINUOUS
  62
7
  10
 467.960
  20
 218.425
  30
0.0
  11
 470.002
  21
 220.466
  31
0.0
   0
LINE
   8
LEVEL001
   6
CONTINUOUS
  62
7
  10
 470.002
  20
 220.466
  30
0.0
  11
 469.254
  21
 223.254
  31
0.0
   0
LINE
   8
LEVEL001
   6
CONTINUOUS
  62
7
  10
 472.000
  20
 270.018
  30
0.0
  11
 472.000
  21
 271.018
  31
0.0
   0
LINE
   8
LEVEL001
   6
CONTINUOUS
  62
7
  10
 528.000
  20
 270.018
  30
0.0
  11
 528.000
  21
 271.018
  31
0.0
   0
LINE
   8
LEVEL001
   6
CONTINUOUS
  62
7
  10
 519.000
  20
 35.0000
  30
0.0
  11
 520.000
  21
 36.0000
  31
0.0
   0
LINE
   8
LEVEL001
   6
CONTINUOUS
  62
7
  10
 520.000
  20
 36.0000
  30
0.0
  11
 520.000
  21
 72.0000
  31
0.0
   0
LINE
   8
LEVEL001
   6
CONTINUOUS
  62
7
  10
 481.000
  20
 35.0000
  30
0.0
  11
 480.000
  21
 36.0000
  31
0.0
   0
LINE
   8
LEVEL001
   6
CONTINUOUS
  62
7
  10
 480.000
  20
 36.0000
  30
0.0
  11
 480.000
  21
 72.0000
  31
0.0
   0
LINE
   8
LEVEL001
   6
CONTINUOUS
  62
7
  10
 472.000
  20
 645.000
  30
0.0
  11
 528.000
  21
 645.000
  31
0.0
   0
LINE
   8
LEVEL001
   6
CONTINUOUS
  62
7
  10
 469.750
  20
 641.000
  30
0.0
  11
 472.000
  21
 645.000
  31
0.0
   0
LINE
   8
LEVEL001
   6
CONTINUOUS
  62
7
  10
 530.250
  20
 641.000
  30
0.0
  11
 528.000
  21
 645.000
  31
0.0
   0
LINE
   8
LEVEL001
   6
CONTINUOUS
  62
7
  10
 530.250
  20
 641.000
  30
0.0
  11
 469.750
  21
 641.000
  31
0.0
   0
LINE
   8
LEVEL001
   6
CONTINUOUS
  62
7
  10
 530.250
  20
 274.750
  30
0.0
  11
 530.250
  21
 641.000
  31
0.0
   0
LINE
   8
LEVEL001
   6
CONTINUOUS
  62
7
  10
 479.000
  20
 99.5000
  30
0.0
  11
 495.000
  21
 99.5000
  31
0.0
   0
LINE
   8
LEVEL001
   6
CONTINUOUS
  62
7
  10
 521.000
  20
 99.5000
  30
0.0
  11
 505.000
  21
 99.5000
  31
0.0
   0
LINE
   8
LEVEL001
   6
CONTINUOUS
  62
7
  10
 495.000
  20
 95.5000
  30
0.0
  11
 505.000
  21
 95.5000
  31
0.0
   0
LINE
   8
LEVEL001
   6
CONTINUOUS
  62
7
  10
 495.000
  20
 71.8000
  30
0.0
  11
 495.000
  21
 102.500
  31
0.0
   0
LINE
   8
LEVEL001
   6
CONTINUOUS
  62
7
  10
 505.000
  20
 71.8000
  30
0.0
  11
 505.000
  21
 102.500
  31
0.0
   0
LINE
   8
LEVEL001
   6
CONTINUOUS
  62
7
  10
 495.000
  20
 71.8000
  30
0.0
  11
 505.000
  21
 71.8000
  31
0.0
   0
LINE
   8
LEVEL001
   6
CONTINUOUS
  62
7
  10
 520.500
  20
 75.0000
  30
0.0
  11
 505.000
  21
 75.0000
  31
0.0
   0
LINE
   8
LEVEL001
   6
CONTINUOUS
  62
7
  10
 495.000
  20
 75.0000
  30
0.0
  11
 479.500
  21
 75.0000
  31
0.0
   0
LINE
   8
LEVEL001
   6
CONTINUOUS
  62
7
  10
 520.000
  20
 72.0000
  30
0.0
  11
 505.000
  21
 72.0000
  31
0.0
   0
LINE
   8
LEVEL001
   6
CONTINUOUS
  62
7
  10
 495.000
  20
 72.0000
  30
0.0
  11
 480.000
  21
 72.0000
  31
0.0
   0
CIRCLE
   8
LEVEL001
   6
CONTINUOUS
  62
7
  10
 500.000
  20
 112.500
  30
0.0
  40
 5.00000
   0
CIRCLE
   8
LEVEL001
   6
CONTINUOUS
  62
7
  10
 500.000
  20
 127.500
  30
0.0
  40
 5.00000
   0
LINE
   8
LEVEL001
   6
CONTINUOUS
  62
7
  10
 497.500
  20
 128.943
  30
0.0
  11
 500.000
  21
 130.387
  31
0.0
   0
LINE
   8
LEVEL001
   6
CONTINUOUS
  62
7
  10
 497.500
  20
 126.057
  30
0.0
  11
 497.500
  21
 128.943
  31
0.0
   0
LINE
   8
LEVEL001
   6
CONTINUOUS
  62
7
  10
 500.000
  20
 124.613
  30
0.0
  11
 497.500
  21
 126.057
  31
0.0
   0
LINE
   8
LEVEL001
   6
CONTINUOUS
  62
7
  10
 502.500
  20
 126.057
  30
0.0
  11
 500.000
  21
 124.613
  31
0.0
   0
LINE
   8
LEVEL001
   6
CONTINUOUS
  62
7
  10
 502.500
  20
 128.943
  30
0.0
  11
 502.500
  21
 126.057
  31
0.0
   0
LINE
   8
LEVEL001
   6
CONTINUOUS
  62
7
  10
 500.000
  20
 130.387
  30
0.0
  11
 502.500
  21
 128.943
  31
0.0
   0
LINE
   8
LEVEL001
   6
CONTINUOUS
  62
7
  10
 497.500
  20
 113.943
  30
0.0
  11
 500.000
  21
 115.387
  31
0.0
   0
LINE
   8
LEVEL001
   6
CONTINUOUS
  62
7
  10
 497.500
  20
 111.057
  30
0.0
  11
 497.500
  21
 113.943
  31
0.0
   0
LINE
   8
LEVEL001
   6
CONTINUOUS
  62
7
  10
 500.000
  20
 109.613
  30
0.0
  11
 497.500
  21
 111.057
  31
0.0
   0
LINE
   8
LEVEL001
   6
CONTINUOUS
  62
7
  10
 502.500
  20
 111.057
  30
0.0
  11
 500.000
  21
 109.613
  31
0.0
   0
LINE
   8
LEVEL001
   6
CONTINUOUS
  62
7
  10
 502.500
  20
 113.943
  30
0.0
  11
 502.500
  21
 111.057
  31
0.0
   0
LINE
   8
LEVEL001
   6
CONTINUOUS
  62
7
  10
 500.000
  20
 115.387
  30
0.0
  11
 502.500
  21
 113.943
  31
0.0
   0
CIRCLE
   8
LEVEL001
   6
CONTINUOUS
  62
7
  10
 500.000
  20
 127.500
  30
0.0
  40
 5.50000
   0
CIRCLE
   8
LEVEL001
   6
CONTINUOUS
  62
7
  10
 500.000
  20
 112.500
  30
0.0
  40
 5.50000
   0
LINE
   8
LEVEL001
   6
CONTINUOUS
  62
7
  10
 469.750
  20
 274.750
  30
0.0
  11
 469.750
  21
 641.000
  31
0.0
   0
LINE
   8
LEVEL001
   6
CONTINUOUS
  62
7
  10
 469.750
  20
 274.750
  30
0.0
  11
 530.250
  21
 274.750
  31
0.0
   0
LINE
   8
LEVEL001
   6
CONTINUOUS
  62
7
  10
 534.000
  20
 270.018
  30
0.0
  11
 466.000
  21
 270.018
  31
0.0
   0
LINE
   8
LEVEL001
   6
CONTINUOUS
  62
7
  10
 471.000
  20
 271.018
  30
0.0
  11
 529.000
  21
 271.018
  31
0.0
   0
LINE
   8
LEVEL001
   6
DASHDOT
  62
1
  10
 446.000
  20
 158.500
  30
0.0
  11
 446.000
  21
 241.500
  31
0.0
   0
LINE
   8
LEVEL001
   6
DASHDOT
  62
1
  10
 406.247
  20
 200.000
  30
0.0
  11
 487.500
  21
 200.000
  31
0.0
   0
LINE
   8
LEVEL001
   6
DASHDOT
  62
1
  10
 395.000
  20
 164.000
  30
0.0
  11
 395.000
  21
 139.750
  31
0.0
   0
LINE
   8
LEVEL001
   6
DASHDOT
  62
1
  10
 570.000
  20
 164.000
  30
0.0
  11
 570.000
  21
 139.750
  31
0.0
   0
LINE
   8
LEVEL001
   6
DASHDOT
  62
1
  10
 78.6876
  20
 200.000
  30
0.0
  11
 320.000
  21
 200.000
  31
0.0
   0
LINE
   8
LEVEL001
   6
DASHDOT
  62
1
  10
 167.500
  20
 164.000
  30
0.0
  11
 167.500
  21
 139.750
  31
0.0
   0
LINE
   8
LEVEL001
   6
DASHDOT
  62
1
  10
 232.500
  20
 164.000
  30
0.0
  11
 232.500
  21
 139.750
  31
0.0
   0
ARC
   8
LEVEL001
   6
CONTINUOUS
  62
7
  10
 232.500
  20
 765.000
  30
0.0
  40
 17.5000
  50
 185.913
  51
 56.7943
   0
ARC
   8
LEVEL001
   6
CONTINUOUS
  62
7
  10
 232.500
  20
 765.000
  30
0.0
  40
 17.5000
  50
 124.815
  51
 132.074
   0
LINE
   8
LEVEL001
   6
CONTINUOUS
  62
7
  10
 215.000
  20
 779.245
  30
0.0
  11
 219.283
  21
 779.245
  31
0.0
   0
LINE
   8
LEVEL001
   6
CONTINUOUS
  62
7
  10
 210.117
  20
 778.645
  30
0.0
  11
 210.316
  21
 778.844
  31
0.0
   0
LINE
   8
LEVEL001
   6
CONTINUOUS
  62
7
  10
 219.862
  20
 779.324
  30
0.0
  11
 219.883
  21
 778.645
  31
0.0
   0
LINE
   8
LEVEL001
   6
CONTINUOUS
  62
7
  10
 210.117
  20
 778.645
  30
0.0
  11
 210.121
  21
 778.762
  31
0.0
   0
ARC
   8
LEVEL001
   6
CONTINUOUS
  62
7
  10
 215.000
  20
 770.188
  30
0.0
  40
 5.62228
  50
 207.212
  51
 231.499
   0
ARC
   8
LEVEL001
   6
CONTINUOUS
  62
7
  10
 215.000
  20
 770.188
  30
0.0
  40
 5.62228
  50
 308.501
  51
 332.788
   0
LINE
   8
LEVEL001
   6
CONTINUOUS
  62
7
  10
 210.000
  20
 775.045
  30
0.0
  11
 210.000
  21
 767.617
  31
0.0
   0
LINE
   8
LEVEL001
   6
CONTINUOUS
  62
7
  10
 220.000
  20
 767.617
  30
0.0
  11
 220.000
  21
 775.045
  31
0.0
   0
LINE
   8
LEVEL001
   6
CONTINUOUS
  62
7
  10
 215.000
  20
 771.320
  30
0.0
  11
 215.000
  21
 772.238
  31
0.0
   0
LINE
   8
LEVEL001
   6
CONTINUOUS
  62
7
  10
 217.887
  20
 778.199
  30
0.0
  11
 217.887
  21
 775.492
  31
0.0
   0
LINE
   8
LEVEL001
   6
CONTINUOUS
  62
7
  10
 212.113
  20
 778.199
  30
0.0
  11
 212.113
  21
 775.492
  31
0.0
   0
ARC
   8
LEVEL001
   6
CONTINUOUS
  62
7
  10
 215.000
  20
 784.598
  30
0.0
  40
 9.55313
  50
 252.412
  51
 287.588
   0
ARC
   8
LEVEL001
   6
CONTINUOUS
  62
7
  10
 215.000
  20
 769.092
  30
0.0
  40
 9.55316
  50
 72.4116
  51
 107.588
   0
ARC
   8
LEVEL001
   6
CONTINUOUS
  62
7
  10
 210.090
  20
 779.844
  30
0.0
  40
 4.80000
  50
 268.930
  51
 294.935
   0
ARC
   8
LEVEL001
   6
CONTINUOUS
  62
7
  10
 219.910
  20
 779.844
  30
0.0
  40
 4.80000
  50
 245.065
  51
 271.070
   0
ARC
   8
LEVEL001
   6
CONTINUOUS
  62
7
  10
 219.910
  20
 773.846
  30
0.0
  40
 4.80000
  50
 88.9304
  51
 114.935
   0
ARC
   8
LEVEL001
   6
CONTINUOUS
  62
7
  10
 210.090
  20
 773.846
  30
0.0
  40
 4.80000
  50
 65.0648
  51
 91.0696
   0
ARC
   8
LEVEL001
   6
CONTINUOUS
  62
7
  10
 271.500
  20
 781.000
  30
0.0
  40
 2.00000
  50
 270.001
  51
 0.719772E-9
   0
LINE
   8
LEVEL001
   6
CONTINUOUS
  62
7
  10
 261.500
  20
 779.000
  30
0.0
  11
 271.500
  21
 779.000
  31
0.0
   0
LINE
   8
LEVEL001
   6
CONTINUOUS
  62
7
  10
 261.500
  20
 853.000
  30
0.0
  11
 271.500
  21
 853.000
  31
0.0
   0
ARC
   8
LEVEL001
   6
CONTINUOUS
  62
7
  10
 271.500
  20
 851.000
  30
0.0
  40
 2.00000
  50
 0.928000E-3
  51
 89.9992
   0
LINE
   8
LEVEL001
   6
CONTINUOUS
  62
7
  10
 273.500
  20
 828.500
  30
0.0
  11
 275.500
  21
 828.500
  31
0.0
   0
LINE
   8
LEVEL001
   6
CONTINUOUS
  62
7
  10
 314.000
  20
 827.000
  30
0.0
  11
 314.000
  21
 819.000
  31
0.0
   0
LINE
   8
LEVEL001
   6
CONTINUOUS
  62
7
  10
 279.000
  20
 827.000
  30
0.0
  11
 279.000
  21
 819.000
  31
0.0
   0
LINE
   8
LEVEL001
   6
CONTINUOUS
  62
7
  10
 315.000
  20
 819.000
  30
0.0
  11
 275.892
  21
 819.000
  31
0.0
   0
LINE
   8
LEVEL001
   6
CONTINUOUS
  62
7
  10
 275.892
  20
 819.000
  30
0.0
  11
 275.892
  21
 816.000
  31
0.0
   0
LINE
   8
LEVEL001
   6
CONTINUOUS
  62
7
  10
 285.000
  20
 819.000
  30
0.0
  11
 285.000
  21
 816.000
  31
0.0
   0
LINE
   8
LEVEL001
   6
CONTINUOUS
  62
7
  10
 275.500
  20
 828.500
  30
0.0
  11
 275.500
  21
 816.000
  31
0.0
   0
LINE
   8
LEVEL001
   6
CONTINUOUS
  62
7
  10
 315.000
  20
 826.000
  30
0.0
  11
 315.000
  21
 816.000
  31
0.0
   0
LINE
   8
LEVEL001
   6
CONTINUOUS
  62
7
  10
 279.000
  20
 827.000
  30
0.0
  11
 314.000
  21
 827.000
  31
0.0
   0
LINE
   8
LEVEL001
   6
CONTINUOUS
  62
7
  10
 314.000
  20
 827.000
  30
0.0
  11
 315.000
  21
 826.000
  31
0.0
   0
LINE
   8
LEVEL001
   6
CONTINUOUS
  62
7
  10
 279.000
  20
 827.000
  30
0.0
  11
 275.500
  21
 828.500
  31
0.0
   0
LINE
   8
LEVEL001
   6
CONTINUOUS
  62
7
  10
 261.250
  20
 780.000
  30
0.0
  11
 261.250
  21
 852.000
  31
0.0
   0
LINE
   8
LEVEL001
   6
CONTINUOUS
  62
7
  10
 273.500
  20
 803.500
  30
0.0
  11
 275.500
  21
 803.500
  31
0.0
   0
LINE
   8
LEVEL001
   6
CONTINUOUS
  62
7
  10
 261.500
  20
 853.000
  30
0.0
  11
 261.500
  21
 779.000
  31
0.0
   0
LINE
   8
LEVEL001
   6
CONTINUOUS
  62
7
  10
 273.500
  20
 781.000
  30
0.0
  11
 273.500
  21
 851.000
  31
0.0
   0
LINE
   8
LEVEL001
   6
CONTINUOUS
  62
7
  10
 314.000
  20
 805.000
  30
0.0
  11
 314.000
  21
 813.000
  31
0.0
   0
LINE
   8
LEVEL001
   6
CONTINUOUS
  62
7
  10
 279.000
  20
 805.000
  30
0.0
  11
 279.000
  21
 813.000
  31
0.0
   0
LINE
   8
LEVEL001
   6
CONTINUOUS
  62
7
  10
 315.000
  20
 813.000
  30
0.0
  11
 275.892
  21
 813.000
  31
0.0
   0
LINE
   8
LEVEL001
   6
CONTINUOUS
  62
7
  10
 275.892
  20
 813.000
  30
0.0
  11
 275.892
  21
 816.000
  31
0.0
   0
LINE
   8
LEVEL001
   6
CONTINUOUS
  62
7
  10
 285.000
  20
 813.000
  30
0.0
  11
 285.000
  21
 816.000
  31
0.0
   0
LINE
   8
LEVEL001
   6
CONTINUOUS
  62
7
  10
 275.500
  20
 803.500
  30
0.0
  11
 275.500
  21
 816.000
  31
0.0
   0
LINE
   8
LEVEL001
   6
CONTINUOUS
  62
7
  10
 315.000
  20
 806.000
  30
0.0
  11
 315.000
  21
 816.000
  31
0.0
   0
LINE
   8
LEVEL001
   6
CONTINUOUS
  62
7
  10
 279.000
  20
 805.000
  30
0.0
  11
 314.000
  21
 805.000
  31
0.0
   0
LINE
   8
LEVEL001
   6
CONTINUOUS
  62
7
  10
 314.000
  20
 805.000
  30
0.0
  11
 315.000
  21
 806.000
  31
0.0
   0
LINE
   8
LEVEL001
   6
CONTINUOUS
  62
7
  10
 279.000
  20
 805.000
  30
0.0
  11
 275.500
  21
 803.500
  31
0.0
   0
CIRCLE
   8
LEVEL001
   6
CONTINUOUS
  62
7
  10
 200.000
  20
 870.000
  30
0.0
  40
 36.0000
   0
CIRCLE
   8
LEVEL001
   6
CONTINUOUS
  62
7
  10
 200.000
  20
 870.000
  30
0.0
  40
 30.2500
   0
CIRCLE
   8
LEVEL001
   6
CONTINUOUS
  62
7
  10
 200.000
  20
 870.000
  30
0.0
  40
 28.0000
   0
LINE
   8
LEVEL001
   6
CONTINUOUS
  62
7
  10
 138.750
  20
 780.000
  30
0.0
  11
 138.750
  21
 852.000
  31
0.0
   0
LINE
   8
LEVEL001
   6
CONTINUOUS
  62
7
  10
 126.500
  20
 803.500
  30
0.0
  11
 124.500
  21
 803.500
  31
0.0
   0
LINE
   8
LEVEL001
   6
CONTINUOUS
  62
7
  10
 126.500
  20
 828.500
  30
0.0
  11
 124.500
  21
 828.500
  31
0.0
   0
LINE
   8
LEVEL001
   6
CONTINUOUS
  62
7
  10
 138.500
  20
 853.000
  30
0.0
  11
 138.500
  21
 779.000
  31
0.0
   0
LINE
   8
LEVEL001
   6
CONTINUOUS
  62
7
  10
 138.500
  20
 853.000
  30
0.0
  11
 128.500
  21
 853.000
  31
0.0
   0
ARC
   8
LEVEL001
   6
CONTINUOUS
  62
7
  10
 128.500
  20
 851.000
  30
0.0
  40
 2.00000
  50
 90.0009
  51
 179.999
   0
LINE
   8
LEVEL001
   6
CONTINUOUS
  62
7
  10
 126.500
  20
 781.000
  30
0.0
  11
 126.500
  21
 851.000
  31
0.0
   0
ARC
   8
LEVEL001
   6
CONTINUOUS
  62
7
  10
 128.500
  20
 781.000
  30
0.0
  40
 2.00000
  50
 180.001
  51
 269.999
   0
LINE
   8
LEVEL001
   6
CONTINUOUS
  62
7
  10
 138.500
  20
 779.000
  30
0.0
  11
 128.500
  21
 779.000
  31
0.0
   0
CIRCLE
   8
LEVEL001
   6
CONTINUOUS
  62
7
  10
 200.000
  20
 870.000
  30
0.0
  40
 55.0000
   0
LINE
   8
LEVEL001
   6
CONTINUOUS
  62
7
  10
 200.000
  20
 961.500
  30
0.0
  11
 166.591
  21
 959.979
  31
0.0
   0
LINE
   8
LEVEL001
   6
CONTINUOUS
  62
7
  10
 200.000
  20
 961.500
  30
0.0
  11
 233.409
  21
 959.979
  31
0.0
   0
LINE
   8
LEVEL001
   6
CONTINUOUS
  62
7
  10
 254.655
  20
 854.926
  30
0.0
  11
 254.984
  21
 868.685
  31
0.0
   0
LINE
   8
LEVEL001
   6
CONTINUOUS
  62
7
  10
 145.345
  20
 854.926
  30
0.0
  11
 145.016
  21
 868.685
  31
0.0
   0
LINE
   8
LEVEL001
   6
CONTINUOUS
  62
7
  10
 140.192
  20
 852.000
  30
0.0
  11
 138.750
  21
 852.000
  31
0.0
   0
ARC
   8
LEVEL001
   6
CONTINUOUS
  62
7
  10
 140.192
  20
 858.000
  30
0.0
  40
 6.00000
  50
 270.000
  51
 11.3457
   0
LINE
   8
LEVEL001
   6
CONTINUOUS
  62
7
  10
 212.081
  20
 779.197
  30
0.0
  11
 261.250
  21
 780.000
  31
0.0
   0
LINE
   8
LEVEL001
   6
CONTINUOUS
  62
7
  10
 187.919
  20
 779.197
  30
0.0
  11
 138.750
  21
 780.000
  31
0.0
   0
ARC
   8
LEVEL001
   6
CONTINUOUS
  62
7
  10
 187.837
  20
 774.198
  30
0.0
  40
 5.00000
  50
 4.04707
  51
 89.0649
   0
ARC
   8
LEVEL001
   6
CONTINUOUS
  62
7
  10
 212.163
  20
 774.198
  30
0.0
  40
 5.00000
  50
 90.9355
  51
 175.952
   0
LINE
   8
LEVEL001
   6
CONTINUOUS
  62
7
  10
 194.609
  20
 749.330
  30
0.0
  11
 192.501
  21
 779.122
  31
0.0
   0
LINE
   8
LEVEL001
   6
CONTINUOUS
  62
7
  10
 205.391
  20
 749.331
  30
0.0
  11
 207.499
  21
 779.122
  31
0.0
   0
ARC
   8
LEVEL001
   6
CONTINUOUS
  62
7
  10
 187.513
  20
 778.770
  30
0.0
  40
 5.00000
  50
 4.04707
  51
 89.0646
   0
ARC
   8
LEVEL001
   6
CONTINUOUS
  62
7
  10
 212.487
  20
 778.770
  30
0.0
  40
 5.00000
  50
 90.9354
  51
 175.953
   0
ARC
   8
LEVEL001
   6
CONTINUOUS
  62
7
  10
 189.621
  20
 748.978
  30
0.0
  40
 5.00000
  50
 267.394
  51
 4.04664
   0
ARC
   8
LEVEL001
   6
CONTINUOUS
  62
7
  10
 210.379
  20
 748.978
  30
0.0
  40
 5.00000
  50
 175.953
  51
 272.606
   0
LINE
   8
LEVEL001
   6
CONTINUOUS
  62
7
  10
 192.783
  20
 928.408
  30
0.0
  11
 194.627
  21
 955.686
  31
0.0
   0
LINE
   8
LEVEL001
   6
CONTINUOUS
  62
7
  10
 207.217
  20
 928.408
  30
0.0
  11
 205.373
  21
 955.686
  31
0.0
   0
ARC
   8
LEVEL001
   6
CONTINUOUS
  62
7
  10
 189.639
  20
 956.023
  30
0.0
  40
 5.00000
  50
 356.132
  51
 92.6065
   0
ARC
   8
LEVEL001
   6
CONTINUOUS
  62
7
  10
 187.794
  20
 928.745
  30
0.0
  40
 5.00000
  50
 281.738
  51
 356.131
   0
ARC
   8
LEVEL001
   6
CONTINUOUS
  62
7
  10
 212.206
  20
 928.745
  30
0.0
  40
 5.00000
  50
 183.869
  51
 258.262
   0
ARC
   8
LEVEL001
   6
CONTINUOUS
  62
7
  10
 210.361
  20
 956.023
  30
0.0
  40
 5.00000
  50
 87.3937
  51
 183.869
   0
LINE
   8
LEVEL001
   6
CONTINUOUS
  62
7
  10
 252.487
  20
 940.720
  30
0.0
  11
 254.964
  21
 871.981
  31
0.0
   0
LINE
   8
LEVEL001
   6
CONTINUOUS
  62
7
  10
 147.513
  20
 940.720
  30
0.0
  11
 145.036
  21
 871.981
  31
0.0
   0
CIRCLE
   8
LEVEL001
   6
CONTINUOUS
  62
7
  10
 167.500
  20
 940.000
  30
0.0
  40
 17.5000
   0
CIRCLE
   8
LEVEL001
   6
CONTINUOUS
  62
7
  10
 232.500
  20
 940.000
  30
0.0
  40
 17.5000
   0
CIRCLE
   8
LEVEL001
   6
CONTINUOUS
  62
7
  10
 232.500
  20
 940.000
  30
0.0
  40
 9.00000
   0
CIRCLE
   8
LEVEL001
   6
CONTINUOUS
  62
7
  10
 167.500
  20
 940.000
  30
0.0
  40
 9.00000
   0
LINE
   8
LEVEL001
   6
CONTINUOUS
  62
7
  10
 259.808
  20
 852.000
  30
0.0
  11
 261.250
  21
 852.000
  31
0.0
   0
ARC
   8
LEVEL001
   6
CONTINUOUS
  62
7
  10
 259.808
  20
 858.000
  30
0.0
  40
 6.00000
  50
 168.654
  51
 270.000
   0
LINE
   8
LEVEL001
   6
CONTINUOUS
  62
7
  10
 86.0000
  20
 805.000
  30
0.0
  11
 86.0000
  21
 813.000
  31
0.0
   0
LINE
   8
LEVEL001
   6
CONTINUOUS
  62
7
  10
 121.000
  20
 805.000
  30
0.0
  11
 121.000
  21
 813.000
  31
0.0
   0
LINE
   8
LEVEL001
   6
CONTINUOUS
  62
7
  10
 85.0000
  20
 813.000
  30
0.0
  11
 124.108
  21
 813.000
  31
0.0
   0
LINE
   8
LEVEL001
   6
CONTINUOUS
  62
7
  10
 124.108
  20
 813.000
  30
0.0
  11
 124.108
  21
 816.000
  31
0.0
   0
LINE
   8
LEVEL001
   6
CONTINUOUS
  62
7
  10
 115.000
  20
 813.000
  30
0.0
  11
 115.000
  21
 816.000
  31
0.0
   0
LINE
   8
LEVEL001
   6
CONTINUOUS
  62
7
  10
 124.500
  20
 803.500
  30
0.0
  11
 124.500
  21
 816.000
  31
0.0
   0
LINE
   8
LEVEL001
   6
CONTINUOUS
  62
7
  10
 85.0000
  20
 806.000
  30
0.0
  11
 85.0000
  21
 816.000
  31
0.0
   0
LINE
   8
LEVEL001
   6
CONTINUOUS
  62
7
  10
 121.000
  20
 805.000
  30
0.0
  11
 86.0000
  21
 805.000
  31
0.0
   0
LINE
   8
LEVEL001
   6
CONTINUOUS
  62
7
  10
 86.0000
  20
 805.000
  30
0.0
  11
 85.0000
  21
 806.000
  31
0.0
   0
LINE
   8
LEVEL001
   6
CONTINUOUS
  62
7
  10
 121.000
  20
 805.000
  30
0.0
  11
 124.500
  21
 803.500
  31
0.0
   0
LINE
   8
LEVEL001
   6
CONTINUOUS
  62
7
  10
 86.0000
  20
 827.000
  30
0.0
  11
 86.0000
  21
 819.000
  31
0.0
   0
LINE
   8
LEVEL001
   6
CONTINUOUS
  62
7
  10
 121.000
  20
 827.000
  30
0.0
  11
 121.000
  21
 819.000
  31
0.0
   0
LINE
   8
LEVEL001
   6
CONTINUOUS
  62
7
  10
 85.0000
  20
 819.000
  30
0.0
  11
 124.108
  21
 819.000
  31
0.0
   0
LINE
   8
LEVEL001
   6
CONTINUOUS
  62
7
  10
 124.108
  20
 819.000
  30
0.0
  11
 124.108
  21
 816.000
  31
0.0
   0
LINE
   8
LEVEL001
   6
CONTINUOUS
  62
7
  10
 115.000
  20
 819.000
  30
0.0
  11
 115.000
  21
 816.000
  31
0.0
   0
LINE
   8
LEVEL001
   6
CONTINUOUS
  62
7
  10
 124.500
  20
 828.500
  30
0.0
  11
 124.500
  21
 816.000
  31
0.0
   0
LINE
   8
LEVEL001
   6
CONTINUOUS
  62
7
  10
 85.0000
  20
 826.000
  30
0.0
  11
 85.0000
  21
 816.000
  31
0.0
   0
LINE
   8
LEVEL001
   6
CONTINUOUS
  62
7
  10
 121.000
  20
 827.000
  30
0.0
  11
 86.0000
  21
 827.000
  31
0.0
   0
LINE
   8
LEVEL001
   6
CONTINUOUS
  62
7
  10
 86.0000
  20
 827.000
  30
0.0
  11
 85.0000
  21
 826.000
  31
0.0
   0
LINE
   8
LEVEL001
   6
CONTINUOUS
  62
7
  10
 121.000
  20
 827.000
  30
0.0
  11
 124.500
  21
 828.500
  31
0.0
   0
LINE
   8
LEVEL001
   6
CONTINUOUS
  62
7
  10
 147.139
  20
 779.863
  30
0.0
  11
 147.506
  21
 764.522
  31
0.0
   0
ARC
   8
LEVEL001
   6
CONTINUOUS
  62
7
  10
 167.500
  20
 765.000
  30
0.0
  40
 17.5000
  50
 123.206
  51
 55.1850
   0
ARC
   8
LEVEL001
   6
CONTINUOUS
  62
7
  10
 167.500
  20
 765.000
  30
0.0
  40
 20.0000
  50
 181.369
  51
 267.394
   0
LINE
   8
LEVEL001
   6
CONTINUOUS
  62
7
  10
 200.000
  20
 743.500
  30
0.0
  11
 166.591
  21
 745.021
  31
0.0
   0
CIRCLE
   8
LEVEL001
   6
CONTINUOUS
  62
7
  10
 167.500
  20
 765.000
  30
0.0
  40
 9.00000
   0
LINE
   8
LEVEL001
   6
CONTINUOUS
  62
7
  10
 252.861
  20
 779.863
  30
0.0
  11
 252.494
  21
 764.522
  31
0.0
   0
ARC
   8
LEVEL001
   6
CONTINUOUS
  62
7
  10
 232.500
  20
 765.000
  30
0.0
  40
 20.0000
  50
 272.606
  51
 358.631
   0
LINE
   8
LEVEL001
   6
CONTINUOUS
  62
7
  10
 200.000
  20
 743.500
  30
0.0
  11
 233.409
  21
 745.021
  31
0.0
   0
CIRCLE
   8
LEVEL001
   6
CONTINUOUS
  62
7
  10
 232.500
  20
 765.000
  30
0.0
  40
 9.00000
   0
ARC
   8
LEVEL001
   6
CONTINUOUS
  62
7
  10
 167.500
  20
 940.000
  30
0.0
  40
 20.0000
  50
 92.6063
  51
 177.936
   0
ARC
   8
LEVEL001
   6
CONTINUOUS
  62
7
  10
 232.500
  20
 940.000
  30
0.0
  40
 20.0000
  50
 2.06357
  51
 87.3937
   0
LINE
   8
LEVEL001
   6
CONTINUOUS
  62
7
  10
 219.883
  20
 778.645
  30
0.0
  11
 219.283
  21
 779.245
  31
0.0
   0
LINE
   8
LEVEL001
   6
CONTINUOUS
  62
7
  10
 219.283
  20
 779.245
  30
0.0
  11
 219.281
  21
 779.315
  31
0.0
   0
LINE
   8
LEVEL001
   6
CONTINUOUS
  62
7
  10
 216.658
  20
 763.802
  30
0.0
  11
 217.001
  21
 764.013
  31
0.0
   0
LINE
   8
LEVEL001
   6
CONTINUOUS
  62
7
  10
 217.001
  20
 764.013
  30
0.0
  11
 217.312
  21
 764.263
  31
0.0
   0
LINE
   8
LEVEL001
   6
CONTINUOUS
  62
7
  10
 217.312
  20
 764.263
  30
0.0
  11
 217.588
  21
 764.546
  31
0.0
   0
LINE
   8
LEVEL001
   6
CONTINUOUS
  62
7
  10
 217.588
  20
 764.546
  30
0.0
  11
 217.823
  21
 764.859
  31
0.0
   0
LINE
   8
LEVEL001
   6
CONTINUOUS
  62
7
  10
 217.823
  20
 764.859
  30
0.0
  11
 218.014
  21
 765.196
  31
0.0
   0
LINE
   8
LEVEL001
   6
CONTINUOUS
  62
7
  10
 218.014
  20
 765.196
  30
0.0
  11
 218.158
  21
 765.553
  31
0.0
   0
LINE
   8
LEVEL001
   6
CONTINUOUS
  62
7
  10
 218.158
  20
 765.553
  30
0.0
  11
 218.253
  21
 765.924
  31
0.0
   0
LINE
   8
LEVEL001
   6
CONTINUOUS
  62
7
  10
 218.253
  20
 765.924
  30
0.0
  11
 218.297
  21
 766.302
  31
0.0
   0
LINE
   8
LEVEL001
   6
CONTINUOUS
  62
7
  10
 218.297
  20
 766.302
  30
0.0
  11
 218.289
  21
 766.683
  31
0.0
   0
LINE
   8
LEVEL001
   6
CONTINUOUS
  62
7
  10
 218.289
  20
 766.683
  30
0.0
  11
 218.231
  21
 767.060
  31
0.0
   0
LINE
   8
LEVEL001
   6
CONTINUOUS
  62
7
  10
 218.231
  20
 767.060
  30
0.0
  11
 218.121
  21
 767.427
  31
0.0
   0
LINE
   8
LEVEL001
   6
CONTINUOUS
  62
7
  10
 218.121
  20
 767.427
  30
0.0
  11
 217.964
  21
 767.779
  31
0.0
   0
LINE
   8
LEVEL001
   6
CONTINUOUS
  62
7
  10
 217.964
  20
 767.779
  30
0.0
  11
 217.759
  21
 768.110
  31
0.0
   0
LINE
   8
LEVEL001
   6
CONTINUOUS
  62
7
  10
 217.759
  20
 768.110
  30
0.0
  11
 217.512
  21
 768.415
  31
0.0
   0
LINE
   8
LEVEL001
   6
CONTINUOUS
  62
7
  10
 217.512
  20
 768.415
  30
0.0
  11
 217.226
  21
 768.689
  31
0.0
   0
LINE
   8
LEVEL001
   6
CONTINUOUS
  62
7
  10
 217.226
  20
 768.689
  30
0.0
  11
 216.905
  21
 768.928
  31
0.0
   0
LINE
   8
LEVEL001
   6
CONTINUOUS
  62
7
  10
 216.905
  20
 768.928
  30
0.0
  11
 216.554
  21
 769.128
  31
0.0
   0
LINE
   8
LEVEL001
   6
CONTINUOUS
  62
7
  10
 216.554
  20
 769.128
  30
0.0
  11
 216.179
  21
 769.286
  31
0.0
   0
LINE
   8
LEVEL001
   6
CONTINUOUS
  62
7
  10
 216.179
  20
 769.286
  30
0.0
  11
 215.785
  21
 769.399
  31
0.0
   0
LINE
   8
LEVEL001
   6
CONTINUOUS
  62
7
  10
 215.785
  20
 769.399
  30
0.0
  11
 215.380
  21
 769.467
  31
0.0
   0
LINE
   8
LEVEL001
   6
CONTINUOUS
  62
7
  10
 215.380
  20
 769.467
  30
0.0
  11
 214.968
  21
 769.487
  31
0.0
   0
LINE
   8
LEVEL001
   6
CONTINUOUS
  62
7
  10
 214.968
  20
 769.487
  30
0.0
  11
 214.557
  21
 769.459
  31
0.0
   0
LINE
   8
LEVEL001
   6
CONTINUOUS
  62
7
  10
 214.557
  20
 769.459
  30
0.0
  11
 214.153
  21
 769.385
  31
0.0
   0
LINE
   8
LEVEL001
   6
CONTINUOUS
  62
7
  10
 214.153
  20
 769.385
  30
0.0
  11
 213.762
  21
 769.264
  31
0.0
   0
LINE
   8
LEVEL001
   6
CONTINUOUS
  62
7
  10
 213.762
  20
 769.264
  30
0.0
  11
 213.390
  21
 769.099
  31
0.0
   0
LINE
   8
LEVEL001
   6
CONTINUOUS
  62
7
  10
 213.390
  20
 769.099
  30
0.0
  11
 213.043
  21
 768.893
  31
0.0
   0
LINE
   8
LEVEL001
   6
CONTINUOUS
  62
7
  10
 213.043
  20
 768.893
  30
0.0
  11
 212.727
  21
 768.648
  31
0.0
   0
LINE
   8
LEVEL001
   6
CONTINUOUS
  62
7
  10
 212.727
  20
 768.648
  30
0.0
  11
 212.447
  21
 768.369
  31
0.0
   0
LINE
   8
LEVEL001
   6
CONTINUOUS
  62
7
  10
 212.447
  20
 768.369
  30
0.0
  11
 212.206
  21
 768.060
  31
0.0
   0
LINE
   8
LEVEL001
   6
CONTINUOUS
  62
7
  10
 212.206
  20
 768.060
  30
0.0
  11
 212.009
  21
 767.726
  31
0.0
   0
LINE
   8
LEVEL001
   6
CONTINUOUS
  62
7
  10
 212.009
  20
 767.726
  30
0.0
  11
 211.858
  21
 767.371
  31
0.0
   0
LINE
   8
LEVEL001
   6
CONTINUOUS
  62
7
  10
 211.858
  20
 767.371
  30
0.0
  11
 211.757
  21
 767.002
  31
0.0
   0
LINE
   8
LEVEL001
   6
CONTINUOUS
  62
7
  10
 211.757
  20
 767.002
  30
0.0
  11
 211.706
  21
 766.624
  31
0.0
   0
LINE
   8
LEVEL001
   6
CONTINUOUS
  62
7
  10
 211.706
  20
 766.624
  30
0.0
  11
 211.707
  21
 766.243
  31
0.0
   0
LINE
   8
LEVEL001
   6
CONTINUOUS
  62
7
  10
 211.707
  20
 766.243
  30
0.0
  11
 211.759
  21
 765.865
  31
0.0
   0
LINE
   8
LEVEL001
   6
CONTINUOUS
  62
7
  10
 211.759
  20
 765.865
  30
0.0
  11
 211.861
  21
 765.497
  31
0.0
   0
LINE
   8
LEVEL001
   6
CONTINUOUS
  62
7
  10
 211.861
  20
 765.497
  30
0.0
  11
 212.013
  21
 765.142
  31
0.0
   0
LINE
   8
LEVEL001
   6
CONTINUOUS
  62
7
  10
 212.013
  20
 765.142
  30
0.0
  11
 212.211
  21
 764.808
  31
0.0
   0
LINE
   8
LEVEL001
   6
CONTINUOUS
  62
7
  10
 212.211
  20
 764.808
  30
0.0
  11
 212.453
  21
 764.500
  31
0.0
   0
LINE
   8
LEVEL001
   6
CONTINUOUS
  62
7
  10
 212.453
  20
 764.500
  30
0.0
  11
 212.734
  21
 764.222
  31
0.0
   0
LINE
   8
LEVEL001
   6
CONTINUOUS
  62
7
  10
 212.734
  20
 764.222
  30
0.0
  11
 213.051
  21
 763.978
  31
0.0
   0
LINE
   8
LEVEL001
   6
CONTINUOUS
  62
7
  10
 213.051
  20
 763.978
  30
0.0
  11
 213.342
  21
 763.802
  31
0.0
   0
LINE
   8
LEVEL001
   6
CONTINUOUS
  62
7
  10
 211.849
  20
 765.533
  30
0.0
  11
 211.500
  21
 765.719
  31
0.0
   0
LINE
   8
LEVEL001
   6
CONTINUOUS
  62
7
  10
 211.500
  20
 765.719
  30
0.0
  11
 211.500
  21
 769.453
  31
0.0
   0
LINE
   8
LEVEL001
   6
CONTINUOUS
  62
7
  10
 211.500
  20
 769.453
  30
0.0
  11
 215.000
  21
 771.320
  31
0.0
   0
LINE
   8
LEVEL001
   6
CONTINUOUS
  62
7
  10
 215.000
  20
 771.320
  30
0.0
  11
 218.500
  21
 769.453
  31
0.0
   0
LINE
   8
LEVEL001
   6
CONTINUOUS
  62
7
  10
 218.500
  20
 769.453
  30
0.0
  11
 218.500
  21
 765.719
  31
0.0
   0
LINE
   8
LEVEL001
   6
CONTINUOUS
  62
7
  10
 218.500
  20
 765.719
  30
0.0
  11
 218.151
  21
 765.533
  31
0.0
   0
LINE
   8
LEVEL001
   6
CONTINUOUS
  62
7
  10
 217.400
  20
 765.405
  30
0.0
  11
 217.381
  21
 765.681
  31
0.0
   0
LINE
   8
LEVEL001
   6
CONTINUOUS
  62
7
  10
 217.381
  20
 765.681
  30
0.0
  11
 217.325
  21
 765.953
  31
0.0
   0
LINE
   8
LEVEL001
   6
CONTINUOUS
  62
7
  10
 217.325
  20
 765.953
  30
0.0
  11
 217.233
  21
 766.217
  31
0.0
   0
LINE
   8
LEVEL001
   6
CONTINUOUS
  62
7
  10
 217.233
  20
 766.217
  30
0.0
  11
 217.106
  21
 766.468
  31
0.0
   0
LINE
   8
LEVEL001
   6
CONTINUOUS
  62
7
  10
 217.106
  20
 766.468
  30
0.0
  11
 216.946
  21
 766.702
  31
0.0
   0
LINE
   8
LEVEL001
   6
CONTINUOUS
  62
7
  10
 216.946
  20
 766.702
  30
0.0
  11
 216.756
  21
 766.916
  31
0.0
   0
LINE
   8
LEVEL001
   6
CONTINUOUS
  62
7
  10
 216.756
  20
 766.916
  30
0.0
  11
 216.538
  21
 767.107
  31
0.0
   0
LINE
   8
LEVEL001
   6
CONTINUOUS
  62
7
  10
 216.538
  20
 767.107
  30
0.0
  11
 216.297
  21
 767.271
  31
0.0
   0
LINE
   8
LEVEL001
   6
CONTINUOUS
  62
7
  10
 216.297
  20
 767.271
  30
0.0
  11
 216.035
  21
 767.405
  31
0.0
   0
LINE
   8
LEVEL001
   6
CONTINUOUS
  62
7
  10
 216.035
  20
 767.405
  30
0.0
  11
 215.757
  21
 767.509
  31
0.0
   0
LINE
   8
LEVEL001
   6
CONTINUOUS
  62
7
  10
 215.757
  20
 767.509
  30
0.0
  11
 215.467
  21
 767.580
  31
0.0
   0
LINE
   8
LEVEL001
   6
CONTINUOUS
  62
7
  10
 215.467
  20
 767.580
  30
0.0
  11
 215.170
  21
 767.616
  31
0.0
   0
LINE
   8
LEVEL001
   6
CONTINUOUS
  62
7
  10
 215.170
  20
 767.616
  30
0.0
  11
 214.870
  21
 767.619
  31
0.0
   0
LINE
   8
LEVEL001
   6
CONTINUOUS
  62
7
  10
 214.870
  20
 767.619
  30
0.0
  11
 214.572
  21
 767.587
  31
0.0
   0
LINE
   8
LEVEL001
   6
CONTINUOUS
  62
7
  10
 214.572
  20
 767.587
  30
0.0
  11
 214.281
  21
 767.520
  31
0.0
   0
LINE
   8
LEVEL001
   6
CONTINUOUS
  62
7
  10
 214.281
  20
 767.520
  30
0.0
  11
 214.001
  21
 767.421
  31
0.0
   0
LINE
   8
LEVEL001
   6
CONTINUOUS
  62
7
  10
 214.001
  20
 767.421
  30
0.0
  11
 213.737
  21
 767.290
  31
0.0
   0
LINE
   8
LEVEL001
   6
CONTINUOUS
  62
7
  10
 213.737
  20
 767.290
  30
0.0
  11
 213.492
  21
 767.130
  31
0.0
   0
LINE
   8
LEVEL001
   6
CONTINUOUS
  62
7
  10
 213.492
  20
 767.130
  30
0.0
  11
 213.271
  21
 766.943
  31
0.0
   0
LINE
   8
LEVEL001
   6
CONTINUOUS
  62
7
  10
 213.271
  20
 766.943
  30
0.0
  11
 213.077
  21
 766.732
  31
0.0
   0
LINE
   8
LEVEL001
   6
CONTINUOUS
  62
7
  10
 213.077
  20
 766.732
  30
0.0
  11
 212.913
  21
 766.500
  31
0.0
   0
LINE
   8
LEVEL001
   6
CONTINUOUS
  62
7
  10
 212.913
  20
 766.500
  30
0.0
  11
 212.782
  21
 766.251
  31
0.0
   0
LINE
   8
LEVEL001
   6
CONTINUOUS
  62
7
  10
 212.782
  20
 766.251
  30
0.0
  11
 212.685
  21
 765.989
  31
0.0
   0
LINE
   8
LEVEL001
   6
CONTINUOUS
  62
7
  10
 212.685
  20
 765.989
  30
0.0
  11
 212.624
  21
 765.718
  31
0.0
   0
LINE
   8
LEVEL001
   6
CONTINUOUS
  62
7
  10
 212.624
  20
 765.718
  30
0.0
  11
 212.600
  21
 765.442
  31
0.0
   0
LINE
   8
LEVEL001
   6
CONTINUOUS
  62
7
  10
 212.600
  20
 765.442
  30
0.0
  11
 212.614
  21
 765.165
  31
0.0
   0
LINE
   8
LEVEL001
   6
CONTINUOUS
  62
7
  10
 212.614
  20
 765.165
  30
0.0
  11
 212.665
  21
 764.892
  31
0.0
   0
LINE
   8
LEVEL001
   6
CONTINUOUS
  62
7
  10
 212.665
  20
 764.892
  30
0.0
  11
 212.753
  21
 764.627
  31
0.0
   0
LINE
   8
LEVEL001
   6
CONTINUOUS
  62
7
  10
 212.753
  20
 764.627
  30
0.0
  11
 212.875
  21
 764.374
  31
0.0
   0
LINE
   8
LEVEL001
   6
CONTINUOUS
  62
7
  10
 212.875
  20
 764.374
  30
0.0
  11
 213.031
  21
 764.137
  31
0.0
   0
LINE
   8
LEVEL001
   6
CONTINUOUS
  62
7
  10
 213.031
  20
 764.137
  30
0.0
  11
 213.217
  21
 763.920
  31
0.0
   0
LINE
   8
LEVEL001
   6
CONTINUOUS
  62
7
  10
 213.217
  20
 763.920
  30
0.0
  11
 213.431
  21
 763.727
  31
0.0
   0
LINE
   8
LEVEL001
   6
CONTINUOUS
  62
7
  10
 213.431
  20
 763.727
  30
0.0
  11
 213.670
  21
 763.559
  31
0.0
   0
LINE
   8
LEVEL001
   6
CONTINUOUS
  62
7
  10
 213.670
  20
 763.559
  30
0.0
  11
 213.929
  21
 763.420
  31
0.0
   0
LINE
   8
LEVEL001
   6
CONTINUOUS
  62
7
  10
 213.929
  20
 763.420
  30
0.0
  11
 214.206
  21
 763.312
  31
0.0
   0
LINE
   8
LEVEL001
   6
CONTINUOUS
  62
7
  10
 214.206
  20
 763.312
  30
0.0
  11
 214.494
  21
 763.237
  31
0.0
   0
LINE
   8
LEVEL001
   6
CONTINUOUS
  62
7
  10
 214.494
  20
 763.237
  30
0.0
  11
 214.791
  21
 763.196
  31
0.0
   0
LINE
   8
LEVEL001
   6
CONTINUOUS
  62
7
  10
 214.791
  20
 763.196
  30
0.0
  11
 215.090
  21
 763.189
  31
0.0
   0
LINE
   8
LEVEL001
   6
CONTINUOUS
  62
7
  10
 215.090
  20
 763.189
  30
0.0
  11
 215.389
  21
 763.217
  31
0.0
   0
LINE
   8
LEVEL001
   6
CONTINUOUS
  62
7
  10
 215.389
  20
 763.217
  30
0.0
  11
 215.681
  21
 763.279
  31
0.0
   0
LINE
   8
LEVEL001
   6
CONTINUOUS
  62
7
  10
 215.681
  20
 763.279
  30
0.0
  11
 215.962
  21
 763.374
  31
0.0
   0
LINE
   8
LEVEL001
   6
CONTINUOUS
  62
7
  10
 215.962
  20
 763.374
  30
0.0
  11
 216.229
  21
 763.500
  31
0.0
   0
LINE
   8
LEVEL001
   6
CONTINUOUS
  62
7
  10
 216.229
  20
 763.500
  30
0.0
  11
 216.476
  21
 763.657
  31
0.0
   0
LINE
   8
LEVEL001
   6
CONTINUOUS
  62
7
  10
 216.476
  20
 763.657
  30
0.0
  11
 216.701
  21
 763.840
  31
0.0
   0
LINE
   8
LEVEL001
   6
CONTINUOUS
  62
7
  10
 216.701
  20
 763.840
  30
0.0
  11
 216.899
  21
 764.048
  31
0.0
   0
LINE
   8
LEVEL001
   6
CONTINUOUS
  62
7
  10
 216.899
  20
 764.048
  30
0.0
  11
 217.067
  21
 764.278
  31
0.0
   0
LINE
   8
LEVEL001
   6
CONTINUOUS
  62
7
  10
 217.067
  20
 764.278
  30
0.0
  11
 217.203
  21
 764.525
  31
0.0
   0
LINE
   8
LEVEL001
   6
CONTINUOUS
  62
7
  10
 217.203
  20
 764.525
  30
0.0
  11
 217.304
  21
 764.785
  31
0.0
   0
LINE
   8
LEVEL001
   6
CONTINUOUS
  62
7
  10
 217.304
  20
 764.785
  30
0.0
  11
 217.370
  21
 765.055
  31
0.0
   0
LINE
   8
LEVEL001
   6
CONTINUOUS
  62
7
  10
 217.370
  20
 765.055
  30
0.0
  11
 217.399
  21
 765.331
  31
0.0
   0
LINE
   8
LEVEL001
   6
CONTINUOUS
  62
7
  10
 217.399
  20
 765.331
  30
0.0
  11
 217.400
  21
 765.405
  31
0.0
   0
LINE
   8
LEVEL001
   6
CONTINUOUS
  62
7
  10
 211.500
  20
 769.453
  30
0.0
  11
 211.500
  21
 770.371
  31
0.0
   0
LINE
   8
LEVEL001
   6
CONTINUOUS
  62
7
  10
 211.500
  20
 770.371
  30
0.0
  11
 215.000
  21
 772.238
  31
0.0
   0
LINE
   8
LEVEL001
   6
CONTINUOUS
  62
7
  10
 215.000
  20
 772.238
  30
0.0
  11
 218.500
  21
 770.371
  31
0.0
   0
LINE
   8
LEVEL001
   6
CONTINUOUS
  62
7
  10
 218.500
  20
 770.371
  30
0.0
  11
 218.500
  21
 769.453
  31
0.0
   0
LINE
   8
LEVEL001
   6
CONTINUOUS
  62
7
  10
 209.226
  20
 778.199
  30
0.0
  11
 210.000
  21
 778.645
  31
0.0
   0
LINE
   8
LEVEL001
   6
CONTINUOUS
  62
7
  10
 210.000
  20
 778.645
  30
0.0
  11
 220.000
  21
 778.645
  31
0.0
   0
LINE
   8
LEVEL001
   6
CONTINUOUS
  62
7
  10
 220.000
  20
 778.645
  30
0.0
  11
 220.773
  21
 778.199
  31
0.0
   0
LINE
   8
LEVEL001
   6
CONTINUOUS
  62
7
  10
 220.773
  20
 778.199
  30
0.0
  11
 220.773
  21
 775.492
  31
0.0
   0
LINE
   8
LEVEL001
   6
CONTINUOUS
  62
7
  10
 220.773
  20
 775.492
  30
0.0
  11
 220.000
  21
 775.045
  31
0.0
   0
LINE
   8
LEVEL001
   6
CONTINUOUS
  62
7
  10
 220.000
  20
 775.045
  30
0.0
  11
 210.000
  21
 775.045
  31
0.0
   0
LINE
   8
LEVEL001
   6
CONTINUOUS
  62
7
  10
 210.000
  20
 775.045
  30
0.0
  11
 209.226
  21
 775.492
  31
0.0
   0
LINE
   8
LEVEL001
   6
CONTINUOUS
  62
7
  10
 209.226
  20
 775.492
  30
0.0
  11
 209.226
  21
 778.199
  31
0.0
   0
ARC
   8
LEVEL001
   6
CONTINUOUS
  62
7
  10
 215.001
  20
 765.405
  30
0.0
  40
 1.00000
  50
 180.020
  51
 0.201250E-1
   0
LINE
   8
LEVEL001
   6
CONTINUOUS
  62
7
  10
 216.000
  20
 765.405
  30
0.0
  11
 215.999
  21
 765.445
  31
0.0
   0
LINE
   8
LEVEL001
   6
CONTINUOUS
  62
7
  10
 215.999
  20
 765.445
  30
0.0
  11
 215.996
  21
 765.486
  31
0.0
   0
LINE
   8
LEVEL001
   6
CONTINUOUS
  62
7
  10
 215.996
  20
 765.486
  30
0.0
  11
 215.991
  21
 765.526
  31
0.0
   0
LINE
   8
LEVEL001
   6
CONTINUOUS
  62
7
  10
 215.991
  20
 765.526
  30
0.0
  11
 215.985
  21
 765.565
  31
0.0
   0
LINE
   8
LEVEL001
   6
CONTINUOUS
  62
7
  10
 215.985
  20
 765.565
  30
0.0
  11
 215.976
  21
 765.605
  31
0.0
   0
LINE
   8
LEVEL001
   6
CONTINUOUS
  62
7
  10
 215.976
  20
 765.605
  30
0.0
  11
 215.966
  21
 765.644
  31
0.0
   0
LINE
   8
LEVEL001
   6
CONTINUOUS
  62
7
  10
 215.966
  20
 765.644
  30
0.0
  11
 215.954
  21
 765.683
  31
0.0
   0
LINE
   8
LEVEL001
   6
CONTINUOUS
  62
7
  10
 215.954
  20
 765.683
  30
0.0
  11
 215.940
  21
 765.721
  31
0.0
   0
LINE
   8
LEVEL001
   6
CONTINUOUS
  62
7
  10
 215.940
  20
 765.721
  30
0.0
  11
 215.924
  21
 765.758
  31
0.0
   0
LINE
   8
LEVEL001
   6
CONTINUOUS
  62
7
  10
 215.924
  20
 765.758
  30
0.0
  11
 215.906
  21
 765.795
  31
0.0
   0
LINE
   8
LEVEL001
   6
CONTINUOUS
  62
7
  10
 215.906
  20
 765.795
  30
0.0
  11
 215.887
  21
 765.832
  31
0.0
   0
LINE
   8
LEVEL001
   6
CONTINUOUS
  62
7
  10
 215.887
  20
 765.832
  30
0.0
  11
 215.866
  21
 765.867
  31
0.0
   0
LINE
   8
LEVEL001
   6
CONTINUOUS
  62
7
  10
 215.866
  20
 765.867
  30
0.0
  11
 215.843
  21
 765.901
  31
0.0
   0
LINE
   8
LEVEL001
   6
CONTINUOUS
  62
7
  10
 215.843
  20
 765.901
  30
0.0
  11
 215.819
  21
 765.935
  31
0.0
   0
LINE
   8
LEVEL001
   6
CONTINUOUS
  62
7
  10
 215.819
  20
 765.935
  30
0.0
  11
 215.793
  21
 765.967
  31
0.0
   0
LINE
   8
LEVEL001
   6
CONTINUOUS
  62
7
  10
 215.793
  20
 765.967
  30
0.0
  11
 215.766
  21
 765.999
  31
0.0
   0
LINE
   8
LEVEL001
   6
CONTINUOUS
  62
7
  10
 215.766
  20
 765.999
  30
0.0
  11
 215.737
  21
 766.029
  31
0.0
   0
LINE
   8
LEVEL001
   6
CONTINUOUS
  62
7
  10
 215.737
  20
 766.029
  30
0.0
  11
 215.707
  21
 766.058
  31
0.0
   0
LINE
   8
LEVEL001
   6
CONTINUOUS
  62
7
  10
 215.707
  20
 766.058
  30
0.0
  11
 215.675
  21
 766.086
  31
0.0
   0
LINE
   8
LEVEL001
   6
CONTINUOUS
  62
7
  10
 215.675
  20
 766.086
  30
0.0
  11
 215.643
  21
 766.113
  31
0.0
   0
LINE
   8
LEVEL001
   6
CONTINUOUS
  62
7
  10
 215.643
  20
 766.113
  30
0.0
  11
 215.609
  21
 766.138
  31
0.0
   0
LINE
   8
LEVEL001
   6
CONTINUOUS
  62
7
  10
 215.609
  20
 766.138
  30
0.0
  11
 215.573
  21
 766.162
  31
0.0
   0
LINE
   8
LEVEL001
   6
CONTINUOUS
  62
7
  10
 215.573
  20
 766.162
  30
0.0
  11
 215.537
  21
 766.184
  31
0.0
   0
LINE
   8
LEVEL001
   6
CONTINUOUS
  62
7
  10
 215.537
  20
 766.184
  30
0.0
  11
 215.500
  21
 766.205
  31
0.0
   0
LINE
   8
LEVEL001
   6
CONTINUOUS
  62
7
  10
 215.500
  20
 766.205
  30
0.0
  11
 215.462
  21
 766.224
  31
0.0
   0
LINE
   8
LEVEL001
   6
CONTINUOUS
  62
7
  10
 215.462
  20
 766.224
  30
0.0
  11
 215.422
  21
 766.242
  31
0.0
   0
LINE
   8
LEVEL001
   6
CONTINUOUS
  62
7
  10
 215.422
  20
 766.242
  30
0.0
  11
 215.382
  21
 766.258
  31
0.0
   0
LINE
   8
LEVEL001
   6
CONTINUOUS
  62
7
  10
 215.382
  20
 766.258
  30
0.0
  11
 215.342
  21
 766.273
  31
0.0
   0
LINE
   8
LEVEL001
   6
CONTINUOUS
  62
7
  10
 215.342
  20
 766.273
  30
0.0
  11
 215.300
  21
 766.286
  31
0.0
   0
LINE
   8
LEVEL001
   6
CONTINUOUS
  62
7
  10
 215.300
  20
 766.286
  30
0.0
  11
 215.259
  21
 766.297
  31
0.0
   0
LINE
   8
LEVEL001
   6
CONTINUOUS
  62
7
  10
 215.259
  20
 766.297
  30
0.0
  11
 215.216
  21
 766.307
  31
0.0
   0
LINE
   8
LEVEL001
   6
CONTINUOUS
  62
7
  10
 215.216
  20
 766.307
  30
0.0
  11
 215.173
  21
 766.315
  31
0.0
   0
LINE
   8
LEVEL001
   6
CONTINUOUS
  62
7
  10
 215.173
  20
 766.315
  30
0.0
  11
 215.130
  21
 766.321
  31
0.0
   0
LINE
   8
LEVEL001
   6
CONTINUOUS
  62
7
  10
 215.130
  20
 766.321
  30
0.0
  11
 215.087
  21
 766.325
  31
0.0
   0
LINE
   8
LEVEL001
   6
CONTINUOUS
  62
7
  10
 215.087
  20
 766.325
  30
0.0
  11
 215.043
  21
 766.328
  31
0.0
   0
LINE
   8
LEVEL001
   6
CONTINUOUS
  62
7
  10
 215.043
  20
 766.328
  30
0.0
  11
 215.000
  21
 766.329
  31
0.0
   0
LINE
   8
LEVEL001
   6
CONTINUOUS
  62
7
  10
 215.000
  20
 766.329
  30
0.0
  11
 214.956
  21
 766.328
  31
0.0
   0
LINE
   8
LEVEL001
   6
CONTINUOUS
  62
7
  10
 214.956
  20
 766.328
  30
0.0
  11
 214.913
  21
 766.325
  31
0.0
   0
LINE
   8
LEVEL001
   6
CONTINUOUS
  62
7
  10
 214.913
  20
 766.325
  30
0.0
  11
 214.869
  21
 766.321
  31
0.0
   0
LINE
   8
LEVEL001
   6
CONTINUOUS
  62
7
  10
 214.869
  20
 766.321
  30
0.0
  11
 214.826
  21
 766.314
  31
0.0
   0
LINE
   8
LEVEL001
   6
CONTINUOUS
  62
7
  10
 214.826
  20
 766.314
  30
0.0
  11
 214.783
  21
 766.307
  31
0.0
   0
LINE
   8
LEVEL001
   6
CONTINUOUS
  62
7
  10
 214.783
  20
 766.307
  30
0.0
  11
 214.741
  21
 766.297
  31
0.0
   0
LINE
   8
LEVEL001
   6
CONTINUOUS
  62
7
  10
 214.741
  20
 766.297
  30
0.0
  11
 214.699
  21
 766.286
  31
0.0
   0
LINE
   8
LEVEL001
   6
CONTINUOUS
  62
7
  10
 214.699
  20
 766.286
  30
0.0
  11
 214.658
  21
 766.273
  31
0.0
   0
LINE
   8
LEVEL001
   6
CONTINUOUS
  62
7
  10
 214.658
  20
 766.273
  30
0.0
  11
 214.617
  21
 766.258
  31
0.0
   0
LINE
   8
LEVEL001
   6
CONTINUOUS
  62
7
  10
 214.617
  20
 766.258
  30
0.0
  11
 214.577
  21
 766.242
  31
0.0
   0
LINE
   8
LEVEL001
   6
CONTINUOUS
  62
7
  10
 214.577
  20
 766.242
  30
0.0
  11
 214.538
  21
 766.224
  31
0.0
   0
LINE
   8
LEVEL001
   6
CONTINUOUS
  62
7
  10
 214.538
  20
 766.224
  30
0.0
  11
 214.500
  21
 766.205
  31
0.0
   0
LINE
   8
LEVEL001
   6
CONTINUOUS
  62
7
  10
 214.500
  20
 766.205
  30
0.0
  11
 214.463
  21
 766.184
  31
0.0
   0
LINE
   8
LEVEL001
   6
CONTINUOUS
  62
7
  10
 214.463
  20
 766.184
  30
0.0
  11
 214.426
  21
 766.161
  31
0.0
   0
LINE
   8
LEVEL001
   6
CONTINUOUS
  62
7
  10
 214.426
  20
 766.161
  30
0.0
  11
 214.391
  21
 766.138
  31
0.0
   0
LINE
   8
LEVEL001
   6
CONTINUOUS
  62
7
  10
 214.391
  20
 766.138
  30
0.0
  11
 214.357
  21
 766.112
  31
0.0
   0
LINE
   8
LEVEL001
   6
CONTINUOUS
  62
7
  10
 214.357
  20
 766.112
  30
0.0
  11
 214.324
  21
 766.086
  31
0.0
   0
LINE
   8
LEVEL001
   6
CONTINUOUS
  62
7
  10
 214.324
  20
 766.086
  30
0.0
  11
 214.293
  21
 766.058
  31
0.0
   0
LINE
   8
LEVEL001
   6
CONTINUOUS
  62
7
  10
 214.293
  20
 766.058
  30
0.0
  11
 214.263
  21
 766.029
  31
0.0
   0
LINE
   8
LEVEL001
   6
CONTINUOUS
  62
7
  10
 214.263
  20
 766.029
  30
0.0
  11
 214.234
  21
 765.998
  31
0.0
   0
LINE
   8
LEVEL001
   6
CONTINUOUS
  62
7
  10
 214.234
  20
 765.998
  30
0.0
  11
 214.207
  21
 765.967
  31
0.0
   0
LINE
   8
LEVEL001
   6
CONTINUOUS
  62
7
  10
 214.207
  20
 765.967
  30
0.0
  11
 214.181
  21
 765.935
  31
0.0
   0
LINE
   8
LEVEL001
   6
CONTINUOUS
  62
7
  10
 214.181
  20
 765.935
  30
0.0
  11
 214.157
  21
 765.901
  31
0.0
   0
LINE
   8
LEVEL001
   6
CONTINUOUS
  62
7
  10
 214.157
  20
 765.901
  30
0.0
  11
 214.134
  21
 765.867
  31
0.0
   0
LINE
   8
LEVEL001
   6
CONTINUOUS
  62
7
  10
 214.134
  20
 765.867
  30
0.0
  11
 214.113
  21
 765.831
  31
0.0
   0
LINE
   8
LEVEL001
   6
CONTINUOUS
  62
7
  10
 214.113
  20
 765.831
  30
0.0
  11
 214.094
  21
 765.795
  31
0.0
   0
LINE
   8
LEVEL001
   6
CONTINUOUS
  62
7
  10
 214.094
  20
 765.795
  30
0.0
  11
 214.076
  21
 765.758
  31
0.0
   0
LINE
   8
LEVEL001
   6
CONTINUOUS
  62
7
  10
 214.076
  20
 765.758
  30
0.0
  11
 214.060
  21
 765.721
  31
0.0
   0
LINE
   8
LEVEL001
   6
CONTINUOUS
  62
7
  10
 214.060
  20
 765.721
  30
0.0
  11
 214.046
  21
 765.682
  31
0.0
   0
LINE
   8
LEVEL001
   6
CONTINUOUS
  62
7
  10
 214.046
  20
 765.682
  30
0.0
  11
 214.034
  21
 765.644
  31
0.0
   0
LINE
   8
LEVEL001
   6
CONTINUOUS
  62
7
  10
 214.034
  20
 765.644
  30
0.0
  11
 214.024
  21
 765.605
  31
0.0
   0
LINE
   8
LEVEL001
   6
CONTINUOUS
  62
7
  10
 214.024
  20
 765.605
  30
0.0
  11
 214.015
  21
 765.565
  31
0.0
   0
LINE
   8
LEVEL001
   6
CONTINUOUS
  62
7
  10
 214.015
  20
 765.565
  30
0.0
  11
 214.009
  21
 765.525
  31
0.0
   0
LINE
   8
LEVEL001
   6
CONTINUOUS
  62
7
  10
 214.009
  20
 765.525
  30
0.0
  11
 214.004
  21
 765.485
  31
0.0
   0
LINE
   8
LEVEL001
   6
CONTINUOUS
  62
7
  10
 214.004
  20
 765.485
  30
0.0
  11
 214.001
  21
 765.445
  31
0.0
   0
LINE
   8
LEVEL001
   6
CONTINUOUS
  62
7
  10
 214.001
  20
 765.445
  30
0.0
  11
 214.000
  21
 765.405
  31
0.0
   0
LINE
   8
LEVEL001
   6
DASHDOT
  62
1
  10
 189.181
  20
 940.000
  30
0.0
  11
 142.716
  21
 940.000
  31
0.0
   0
LINE
   8
LEVEL001
   6
DASHDOT
  62
1
  10
 167.500
  20
 963.011
  30
0.0
  11
 167.500
  21
 919.392
  31
0.0
   0
LINE
   8
LEVEL001
   6
DASHDOT
  62
1
  10
 210.473
  20
 940.000
  30
0.0
  11
 257.284
  21
 940.000
  31
0.0
   0
LINE
   8
LEVEL001
   6
DASHDOT
  62
1
  10
 232.500
  20
 963.455
  30
0.0
  11
 232.500
  21
 918.800
  31
0.0
   0
LINE
   8
LEVEL001
   6
DASHDOT
  62
1
  10
 251.261
  20
 870.000
  30
0.0
  11
 150.017
  21
 870.000
  31
0.0
   0
LINE
   8
LEVEL001
   6
DASHDOT
  62
1
  10
 167.500
  20
 785.945
  30
0.0
  11
 167.500
  21
 738.898
  31
0.0
   0
LINE
   8
LEVEL001
   6
DASHDOT
  62
1
  10
 189.115
  20
 765.000
  30
0.0
  11
 144.242
  21
 765.000
  31
0.0
   0
LINE
   8
LEVEL001
   6
DASHDOT
  62
1
  10
 210.101
  20
 765.000
  30
0.0
  11
 255.301
  21
 765.000
  31
0.0
   0
LINE
   8
LEVEL001
   6
DASHDOT
  62
1
  10
 232.500
  20
 784.869
  30
0.0
  11
 232.500
  21
 738.898
  31
0.0
   0
LINE
   8
LEVEL001
   6
DASHDOT
  62
1
  10
 315.000
  20
 816.000
  30
0.0
  11
 80.0000
  21
 816.000
  31
0.0
   0
LINE
   8
LEVEL001
   6
DASHDOT
  62
1
  10
 200.000
  20
 973.455
  30
0.0
  11
 200.000
  21
 725.673
  31
0.0
   0
LINE
   8
LEVEL001
   6
DASHDOT
  62
1
  10
 500.000
  20
 660.000
  30
0.0
  11
 500.000
  21
 30.0000
  31
0.0
   0
LINE
   8
LEVEL001
   6
DASHDOT
  62
1
  10
 200.000
  20
 660.000
  30
0.0
  11
 200.000
  21
 26.0000
  31
0.0
   0
TEXT
   8
LEVEL003
  62
7
  10
 755.070
  20
 20.6598
  30
0.0
  40
 30.0000
   1
ＯＳＡＫＡ ＪＡＣＫ
   7
STANDARD
   0
CIRCLE
   8
LEVEL003
   6
CONTINUOUS
  62
7
  10
 719.160
  20
 41.8119
  30
0.0
  40
 9.00000
   0
LINE
   8
LEVEL003
   6
CONTINUOUS
  62
7
  10
 736.815
  20
 50.8119
  30
0.0
  11
 725.385
  21
 31.0119
  31
0.0
   0
LINE
   8
LEVEL003
   6
CONTINUOUS
  62
7
  10
 725.385
  20
 31.0119
  30
0.0
  11
 702.525
  21
 31.0119
  31
0.0
   0
LINE
   8
LEVEL003
   6
CONTINUOUS
  62
7
  10
 699.930
  20
 26.5119
  30
0.0
  11
 740.790
  21
 26.5119
  31
0.0
   0
LINE
   8
LEVEL003
   6
CONTINUOUS
  62
7
  10
 740.790
  20
 26.5119
  30
0.0
  11
 754.815
  21
 50.8119
  31
0.0
   0
LINE
   8
LEVEL003
   6
CONTINUOUS
  62
7
  10
 754.815
  20
 50.8119
  30
0.0
  11
 736.815
  21
 50.8119
  31
0.0
   0
LINE
   8
LEVEL003
   6
CONTINUOUS
  62
7
  10
 702.525
  20
 31.0119
  30
0.0
  11
 699.930
  21
 26.5119
  31
0.0
   0
TEXT
   8
LEVEL003
  62
7
  10
 763.800
  20
 71.3402
  30
0.0
  40
 18.0000
   1
Model : ＰＲ０５Ｄ
   7
STANDARD
   0
LINE
   8
LEVEL001
   6
CONTINUOUS
  62
3
  10
 520.000
  20
 35.0000
  30
0.0
  11
 572.000
  21
 35.0000
  31
0.0
   0
LINE
   8
LEVEL001
   6
CONTINUOUS
  62
3
  10
 521.500
  20
 75.0000
  30
0.0
  11
 572.000
  21
 75.0000
  31
0.0
   0
LINE
   8
LEVEL001
   6
CONTINUOUS
  62
3
  10
 570.000
  20
 35.0000
  30
0.0
  11
 570.000
  21
 75.0000
  31
0.0
   0
LINE
   8
LEVEL001
   6
CONTINUOUS
  62
3
  10
 570.000
  20
 35.0000
  30
0.0
  11
 570.804
  21
 38.0000
  31
0.0
   0
LINE
   8
LEVEL001
   6
CONTINUOUS
  62
3
  10
 570.000
  20
 35.0000
  30
0.0
  11
 569.196
  21
 38.0000
  31
0.0
   0
LINE
   8
LEVEL001
   6
CONTINUOUS
  62
3
  10
 570.000
  20
 75.0000
  30
0.0
  11
 569.196
  21
 72.0000
  31
0.0
   0
LINE
   8
LEVEL001
   6
CONTINUOUS
  62
3
  10
 570.000
  20
 75.0000
  30
0.0
  11
 570.804
  21
 72.0000
  31
0.0
   0
TEXT
   8
LEVEL001
  62
3
  10
 568.286
  20
 53.0000
  30
0.0
  40
 4.00000
   1
40
  50
 90.0000
  41
 0.500000
   7
STANDARD
  72
1
  11
 568.286
  21
 55.0000
  31
0.0
   0
LINE
   8
LEVEL001
   6
CONTINUOUS
  62
3
  10
 520.000
  20
 35.0000
  30
0.0
  11
 652.000
  21
 35.0000
  31
0.0
   0
LINE
   8
LEVEL001
   6
CONTINUOUS
  62
3
  10
 592.500
  20
 145.000
  30
0.0
  11
 652.000
  21
 145.000
  31
0.0
   0
LINE
   8
LEVEL001
   6
CONTINUOUS
  62
3
  10
 650.000
  20
 35.0000
  30
0.0
  11
 650.000
  21
 145.000
  31
0.0
   0
LINE
   8
LEVEL001
   6
CONTINUOUS
  62
3
  10
 650.000
  20
 35.0000
  30
0.0
  11
 650.804
  21
 38.0000
  31
0.0
   0
LINE
   8
LEVEL001
   6
CONTINUOUS
  62
3
  10
 650.000
  20
 35.0000
  30
0.0
  11
 649.196
  21
 38.0000
  31
0.0
   0
LINE
   8
LEVEL001
   6
CONTINUOUS
  62
3
  10
 650.000
  20
 145.000
  30
0.0
  11
 649.196
  21
 142.000
  31
0.0
   0
LINE
   8
LEVEL001
   6
CONTINUOUS
  62
3
  10
 650.000
  20
 145.000
  30
0.0
  11
 650.804
  21
 142.000
  31
0.0
   0
TEXT
   8
LEVEL001
  62
3
  10
 648.286
  20
 87.0000
  30
0.0
  40
 4.00000
   1
110
  50
 90.0000
  41
 0.500000
   7
STANDARD
  72
1
  11
 648.286
  21
 90.0000
  31
0.0
   0
LINE
   8
LEVEL001
   6
CONTINUOUS
  62
3
  10
 592.500
  20
 145.000
  30
0.0
  11
 632.000
  21
 145.000
  31
0.0
   0
LINE
   8
LEVEL001
   6
CONTINUOUS
  62
3
  10
 588.500
  20
 159.000
  30
0.0
  11
 632.000
  21
 159.000
  31
0.0
   0
LINE
   8
LEVEL001
   6
CONTINUOUS
  62
3
  10
 630.000
  20
 145.000
  30
0.0
  11
 630.000
  21
 159.000
  31
0.0
   0
LINE
   8
LEVEL001
   6
CONTINUOUS
  62
3
  10
 630.000
  20
 145.000
  30
0.0
  11
 630.804
  21
 148.000
  31
0.0
   0
LINE
   8
LEVEL001
   6
CONTINUOUS
  62
3
  10
 630.000
  20
 145.000
  30
0.0
  11
 629.196
  21
 148.000
  31
0.0
   0
LINE
   8
LEVEL001
   6
CONTINUOUS
  62
3
  10
 630.000
  20
 159.000
  30
0.0
  11
 629.196
  21
 156.000
  31
0.0
   0
LINE
   8
LEVEL001
   6
CONTINUOUS
  62
3
  10
 630.000
  20
 159.000
  30
0.0
  11
 630.804
  21
 156.000
  31
0.0
   0
TEXT
   8
LEVEL001
  62
3
  10
 628.286
  20
 150.000
  30
0.0
  40
 4.00000
   1
14
  50
 90.0000
  41
 0.500000
   7
STANDARD
  72
1
  11
 628.286
  21
 152.000
  31
0.0
   0
LINE
   8
LEVEL001
   6
CONTINUOUS
  62
3
  10
 592.500
  20
 145.000
  30
0.0
  11
 652.000
  21
 145.000
  31
0.0
   0
LINE
   8
LEVEL001
   6
CONTINUOUS
  62
3
  10
 488.500
  20
 200.000
  30
0.0
  11
 652.000
  21
 200.000
  31
0.0
   0
LINE
   8
LEVEL001
   6
CONTINUOUS
  62
3
  10
 650.000
  20
 145.000
  30
0.0
  11
 650.000
  21
 200.000
  31
0.0
   0
LINE
   8
LEVEL001
   6
CONTINUOUS
  62
3
  10
 650.000
  20
 145.000
  30
0.0
  11
 650.804
  21
 148.000
  31
0.0
   0
LINE
   8
LEVEL001
   6
CONTINUOUS
  62
3
  10
 650.000
  20
 145.000
  30
0.0
  11
 649.196
  21
 148.000
  31
0.0
   0
LINE
   8
LEVEL001
   6
CONTINUOUS
  62
3
  10
 650.000
  20
 200.000
  30
0.0
  11
 649.196
  21
 197.000
  31
0.0
   0
LINE
   8
LEVEL001
   6
CONTINUOUS
  62
3
  10
 650.000
  20
 200.000
  30
0.0
  11
 650.804
  21
 197.000
  31
0.0
   0
TEXT
   8
LEVEL001
  62
3
  10
 648.286
  20
 170.500
  30
0.0
  40
 4.00000
   1
55
  50
 90.0000
  41
 0.500000
   7
STANDARD
  72
1
  11
 648.286
  21
 172.500
  31
0.0
   0
LINE
   8
LEVEL001
   6
CONTINUOUS
  62
3
  10
 285.000
  20
 214.500
  30
0.0
  11
 285.000
  21
 252.000
  31
0.0
   0
LINE
   8
LEVEL001
   6
CONTINUOUS
  62
3
  10
 315.000
  20
 214.500
  30
0.0
  11
 315.000
  21
 252.000
  31
0.0
   0
LINE
   8
LEVEL001
   6
CONTINUOUS
  62
3
  10
 285.000
  20
 250.000
  30
0.0
  11
 315.000
  21
 250.000
  31
0.0
   0
LINE
   8
LEVEL001
   6
CONTINUOUS
  62
3
  10
 285.000
  20
 250.000
  30
0.0
  11
 288.000
  21
 249.196
  31
0.0
   0
LINE
   8
LEVEL001
   6
CONTINUOUS
  62
3
  10
 285.000
  20
 250.000
  30
0.0
  11
 288.000
  21
 250.804
  31
0.0
   0
LINE
   8
LEVEL001
   6
CONTINUOUS
  62
3
  10
 315.000
  20
 250.000
  30
0.0
  11
 312.000
  21
 250.804
  31
0.0
   0
LINE
   8
LEVEL001
   6
CONTINUOUS
  62
3
  10
 315.000
  20
 250.000
  30
0.0
  11
 312.000
  21
 249.196
  31
0.0
   0
TEXT
   8
LEVEL001
  62
3
  10
 298.000
  20
 251.714
  30
0.0
  40
 4.00000
   1
30
  41
 0.500000
   7
STANDARD
  72
1
  11
 300.000
  21
 251.714
  31
0.0
   0
LINE
   8
LEVEL001
   6
CONTINUOUS
  62
3
  10
 279.000
  20
 211.583
  30
0.0
  11
 279.000
  21
 282.000
  31
0.0
   0
LINE
   8
LEVEL001
   6
CONTINUOUS
  62
3
  10
 315.000
  20
 214.500
  30
0.0
  11
 315.000
  21
 282.000
  31
0.0
   0
LINE
   8
LEVEL001
   6
CONTINUOUS
  62
3
  10
 279.000
  20
 280.000
  30
0.0
  11
 315.000
  21
 280.000
  31
0.0
   0
LINE
   8
LEVEL001
   6
CONTINUOUS
  62
3
  10
 279.000
  20
 280.000
  30
0.0
  11
 282.000
  21
 279.196
  31
0.0
   0
LINE
   8
LEVEL001
   6
CONTINUOUS
  62
3
  10
 279.000
  20
 280.000
  30
0.0
  11
 282.000
  21
 280.804
  31
0.0
   0
LINE
   8
LEVEL001
   6
CONTINUOUS
  62
3
  10
 315.000
  20
 280.000
  30
0.0
  11
 312.000
  21
 280.804
  31
0.0
   0
LINE
   8
LEVEL001
   6
CONTINUOUS
  62
3
  10
 315.000
  20
 280.000
  30
0.0
  11
 312.000
  21
 279.196
  31
0.0
   0
TEXT
   8
LEVEL001
  62
3
  10
 295.000
  20
 281.714
  30
0.0
  40
 4.00000
   1
36
  41
 0.500000
   7
STANDARD
  72
1
  11
 297.000
  21
 281.714
  31
0.0
   0
LINE
   8
LEVEL001
   6
CONTINUOUS
  62
3
  10
 85.0000
  20
 805.000
  30
0.0
  11
 85.0000
  21
 708.000
  31
0.0
   0
LINE
   8
LEVEL001
   6
CONTINUOUS
  62
3
  10
 315.000
  20
 805.000
  30
0.0
  11
 315.000
  21
 708.000
  31
0.0
   0
LINE
   8
LEVEL001
   6
CONTINUOUS
  62
3
  10
 85.0000
  20
 710.000
  30
0.0
  11
 315.000
  21
 710.000
  31
0.0
   0
LINE
   8
LEVEL001
   6
CONTINUOUS
  62
3
  10
 85.0000
  20
 710.000
  30
0.0
  11
 88.0000
  21
 709.196
  31
0.0
   0
LINE
   8
LEVEL001
   6
CONTINUOUS
  62
3
  10
 85.0000
  20
 710.000
  30
0.0
  11
 88.0000
  21
 710.804
  31
0.0
   0
LINE
   8
LEVEL001
   6
CONTINUOUS
  62
3
  10
 315.000
  20
 710.000
  30
0.0
  11
 312.000
  21
 710.804
  31
0.0
   0
LINE
   8
LEVEL001
   6
CONTINUOUS
  62
3
  10
 315.000
  20
 710.000
  30
0.0
  11
 312.000
  21
 709.196
  31
0.0
   0
TEXT
   8
LEVEL001
  62
3
  10
 197.000
  20
 711.714
  30
0.0
  40
 4.00000
   1
230
  41
 0.500000
   7
STANDARD
  72
1
  11
 200.000
  21
 711.714
  31
0.0
   0
LINE
   8
LEVEL001
   6
CONTINUOUS
  62
3
  10
 252.261
  20
 870.000
  30
0.0
  11
 352.000
  21
 870.000
  31
0.0
   0
LINE
   8
LEVEL001
   6
CONTINUOUS
  62
3
  10
 256.301
  20
 765.000
  30
0.0
  11
 352.000
  21
 765.000
  31
0.0
   0
LINE
   8
LEVEL001
   6
CONTINUOUS
  62
3
  10
 350.000
  20
 870.000
  30
0.0
  11
 350.000
  21
 765.000
  31
0.0
   0
LINE
   8
LEVEL001
   6
CONTINUOUS
  62
3
  10
 350.000
  20
 870.000
  30
0.0
  11
 349.196
  21
 867.000
  31
0.0
   0
LINE
   8
LEVEL001
   6
CONTINUOUS
  62
3
  10
 350.000
  20
 870.000
  30
0.0
  11
 350.804
  21
 867.000
  31
0.0
   0
LINE
   8
LEVEL001
   6
CONTINUOUS
  62
3
  10
 350.000
  20
 765.000
  30
0.0
  11
 350.804
  21
 768.000
  31
0.0
   0
LINE
   8
LEVEL001
   6
CONTINUOUS
  62
3
  10
 350.000
  20
 765.000
  30
0.0
  11
 349.196
  21
 768.000
  31
0.0
   0
TEXT
   8
LEVEL001
  62
3
  10
 348.286
  20
 814.500
  30
0.0
  40
 4.00000
   1
105
  50
 90.0000
  41
 0.500000
   7
STANDARD
  72
1
  11
 348.286
  21
 817.500
  31
0.0
   0
LINE
   8
LEVEL001
   6
CONTINUOUS
  62
3
  10
 252.261
  20
 870.000
  30
0.0
  11
 352.000
  21
 870.000
  31
0.0
   0
LINE
   8
LEVEL001
   6
CONTINUOUS
  62
3
  10
 258.284
  20
 940.000
  30
0.0
  11
 352.000
  21
 940.000
  31
0.0
   0
LINE
   8
LEVEL001
   6
CONTINUOUS
  62
3
  10
 350.000
  20
 870.000
  30
0.0
  11
 350.000
  21
 940.000
  31
0.0
   0
LINE
   8
LEVEL001
   6
CONTINUOUS
  62
3
  10
 350.000
  20
 870.000
  30
0.0
  11
 350.804
  21
 873.000
  31
0.0
   0
LINE
   8
LEVEL001
   6
CONTINUOUS
  62
3
  10
 350.000
  20
 870.000
  30
0.0
  11
 349.196
  21
 873.000
  31
0.0
   0
LINE
   8
LEVEL001
   6
CONTINUOUS
  62
3
  10
 350.000
  20
 940.000
  30
0.0
  11
 349.196
  21
 937.000
  31
0.0
   0
LINE
   8
LEVEL001
   6
CONTINUOUS
  62
3
  10
 350.000
  20
 940.000
  30
0.0
  11
 350.804
  21
 937.000
  31
0.0
   0
TEXT
   8
LEVEL001
  62
3
  10
 348.286
  20
 903.000
  30
0.0
  40
 4.00000
   1
70
  50
 90.0000
  41
 0.500000
   7
STANDARD
  72
1
  11
 348.286
  21
 905.000
  31
0.0
   0
LINE
   8
LEVEL001
   6
CONTINUOUS
  62
3
  10
 256.000
  20
 145.000
  30
0.0
  11
 342.000
  21
 145.000
  31
0.0
   0
LINE
   8
LEVEL001
   6
CONTINUOUS
  62
3
  10
 229.000
  20
 645.000
  30
0.0
  11
 342.000
  21
 645.000
  31
0.0
   0
LINE
   8
LEVEL001
   6
CONTINUOUS
  62
3
  10
 340.000
  20
 145.000
  30
0.0
  11
 340.000
  21
 645.000
  31
0.0
   0
LINE
   8
LEVEL001
   6
CONTINUOUS
  62
3
  10
 340.000
  20
 145.000
  30
0.0
  11
 340.804
  21
 148.000
  31
0.0
   0
LINE
   8
LEVEL001
   6
CONTINUOUS
  62
3
  10
 340.000
  20
 145.000
  30
0.0
  11
 339.196
  21
 148.000
  31
0.0
   0
LINE
   8
LEVEL001
   6
CONTINUOUS
  62
3
  10
 340.000
  20
 645.000
  30
0.0
  11
 339.196
  21
 642.000
  31
0.0
   0
LINE
   8
LEVEL001
   6
CONTINUOUS
  62
3
  10
 340.000
  20
 645.000
  30
0.0
  11
 340.804
  21
 642.000
  31
0.0
   0
TEXT
   8
LEVEL001
  62
3
  10
 338.286
  20
 381.000
  30
0.0
  40
 4.00000
   1
150+ストローク
  50
 90.0000
   7
STANDARD
  72
1
  11
 338.286
  21
 395.000
  31
0.0
   0
LINE
   8
LEVEL001
   6
CONTINUOUS
  62
3
  10
 480.000
  20
 35.0000
  30
0.0
  11
 480.000
  21
 8.00000
  31
0.0
   0
LINE
   8
LEVEL001
   6
CONTINUOUS
  62
3
  10
 520.000
  20
 35.0000
  30
0.0
  11
 520.000
  21
 8.00000
  31
0.0
   0
LINE
   8
LEVEL001
   6
CONTINUOUS
  62
3
  10
 480.000
  20
 10.0000
  30
0.0
  11
 520.000
  21
 10.0000
  31
0.0
   0
LINE
   8
LEVEL001
   6
CONTINUOUS
  62
3
  10
 480.000
  20
 10.0000
  30
0.0
  11
 483.000
  21
 9.19615
  31
0.0
   0
LINE
   8
LEVEL001
   6
CONTINUOUS
  62
3
  10
 480.000
  20
 10.0000
  30
0.0
  11
 483.000
  21
 10.8038
  31
0.0
   0
LINE
   8
LEVEL001
   6
CONTINUOUS
  62
3
  10
 520.000
  20
 10.0000
  30
0.0
  11
 517.000
  21
 10.8038
  31
0.0
   0
LINE
   8
LEVEL001
   6
CONTINUOUS
  62
3
  10
 520.000
  20
 10.0000
  30
0.0
  11
 517.000
  21
 9.19615
  31
0.0
   0
TEXT
   8
LEVEL001
  62
3
  10
 494.000
  20
 11.7143
  30
0.0
  40
 4.00000
   1
M40×2
   7
STANDARD
  72
1
  11
 500.000
  21
 11.7143
  31
0.0
   0
LINE
   8
LEVEL004
   6
DOT
  62
3
  10
 552.500
  20
 160.000
  30
0.0
  11
 552.500
  21
 159.000
  31
0.0
   0
LINE
   8
LEVEL004
   6
DOT
  62
3
  10
 552.500
  20
 159.000
  30
0.0
  11
 587.500
  21
 159.000
  31
0.0
   0
LINE
   8
LEVEL004
   6
DOT
  62
3
  10
 587.500
  20
 160.000
  30
0.0
  11
 587.500
  21
 159.000
  31
0.0
   0
ENDSEC
   0
EOF
