   0
SECTION
   2
HEADER
   9
$LIMMIN
  10
0.0
  20
0.0
   9
$LIMMAX
  10
 1782.00
  20
 1260.00
   9
$EXTMIN
  10
0.0
  20
0.0
   9
$EXTMAX
  10
 1782.00
  20
 1260.00
   9
$LTSCALE
  40
 35.6400
   0
ENDSEC
   0
SECTION
   2
TABLES
  0
TABLE
  2
LTYPE
 70
    25
  0
LTYPE
  2
CONTINUOUS
 70
    64
  3
Solid line
 72
    65
 73
     0
 40
0.0
  0
LTYPE
  2
BORDER
 70
    64
  3
__ __ . __ __ . __ __ . __ __ . __ __ . __ __ .
 72
    65
 73
     6
 40
1.75
 49
0.5
 49
-0.25
 49
0.5
 49
-0.25
 49
0.0
 49
-0.25
  0
LTYPE
  2
BORDER2
 70
    64
  3
__.__.__.__.__.__.__.__.__.__.__.__.__.__.__.__
 72
    65
 73
     6
 40
0.875
 49
0.25
 49
-0.125
 49
0.25
 49
-0.125
 49
0.0
 49
-0.125
  0
LTYPE
  2
BORDERX2
 70
    64
  3
____  ____  .  ____  ____  .  ____  ____  .  __
 72
    65
 73
     6
 40
3.5
 49
1.0
 49
-0.5
 49
1.0
 49
-0.5
 49
0.0
 49
-0.5
  0
LTYPE
  2
CENTER
 70
    64
  3
____ _ ____ _ ____ _ ____ _ ____ _ ____ _ ____ 
 72
    65
 73
     4
 40
2.0
 49
1.25
 49
-0.25
 49
0.25
 49
-0.25
  0
LTYPE
  2
CENTER2
 70
    64
  3
___ _ ___ _ ___ _ ___ _ ___ _ ___ _ ___ _ ___ _
 72
    65
 73
     4
 40
1.125
 49
0.75
 49
-0.125
 49
0.125
 49
-0.125
  0
LTYPE
  2
CENTERX2
 70
    64
  3
________  __  ________  __  ________  __  _____
 72
    65
 73
     4
 40
4.0
 49
2.5
 49
-0.5
 49
0.5
 49
-0.5
  0
LTYPE
  2
DASHDOT
 70
    64
  3
__ . __ . __ . __ . __ . __ . __ . __ . __ . __
 72
    65
 73
     4
 40
1.0
 49
0.5
 49
-0.25
 49
0.0
 49
-0.25
  0
LTYPE
  2
DASHDOT2
 70
    64
  3
_._._._._._._._._._._._._._._._._._._._._._._._
 72
    65
 73
     4
 40
0.5
 49
0.25
 49
-0.125
 49
0.0
 49
-0.125
  0
LTYPE
  2
DASHDOTX2
 70
    64
  3
____  .  ____  .  ____  .  ____  .  ____  .  __
 72
    65
 73
     4
 40
2.0
 49
1.0
 49
-0.5
 49
0.0
 49
-0.5
  0
LTYPE
  2
DASHED
 70
    64
  3
__ __ __ __ __ __ __ __ __ __ __ __ __ __ __ __
 72
    65
 73
     2
 40
0.75
 49
0.5
 49
-0.25
  0
LTYPE
  2
DASHED2
 70
    64
  3
_ _ _ _ _ _ _ _ _ _ _ _ _ _ _ _ _ _ _ _ _ _ _ _
 72
    65
 73
     2
 40
0.375
 49
0.25
 49
-0.125
  0
LTYPE
  2
DASHEDX2
 70
    64
  3
____  ____  ____  ____  ____  ____  ____  ____ 
 72
    65
 73
     2
 40
1.5
 49
1.0
 49
-0.5
  0
LTYPE
  2
DIVIDE
 70
    64
  3
____ . . ____ . . ____ . . ____ . . ____ . . __
 72
    65
 73
     6
 40
1.25
 49
0.5
 49
-0.25
 49
0.0
 49
-0.25
 49
0.0
 49
-0.25
  0
LTYPE
  2
DIVIDE2
 70
    64
  3
__..__..__..__..__..__..__..__..__..__..__..__.
 72
    65
 73
     6
 40
0.625
 49
0.25
 49
-0.125
 49
0.0
 49
-0.125
 49
0.0
 49
-0.125
  0
LTYPE
  2
DIVIDEX2
 70
    64
  3
________  .  .  ________  .  .  ________  .  . 
 72
    65
 73
     6
 40
2.5
 49
1.0
 49
-0.5
 49
0.0
 49
-0.5
 49
0.0
 49
-0.5
  0
LTYPE
  2
DOT
 70
    64
  3
. . . . . . . . . . . . . . . . . . . . . . . .
 72
    65
 73
     2
 40
0.25
 49
0.0
 49
-0.25
  0
LTYPE
  2
DOT2
 70
    64
  3
...............................................
 72
    65
 73
     2
 40
0.125
 49
0.0
 49
-0.125
  0
LTYPE
  2
DOTX2
 70
    64
  3
.  .  .  .  .  .  .  .  .  .  .  .  .  .  .  . 
 72
    65
 73
     2
 40
0.5
 49
0.0
 49
-0.5
  0
LTYPE
  2
HIDDEN
 70
    64
  3
__ __ __ __ __ __ __ __ __ __ __ __ __ __ __ __
 72
    65
 73
     2
 40
0.375
 49
0.25
 49
-0.125
  0
LTYPE
  2
HIDDEN2
 70
    64
  3
_ _ _ _ _ _ _ _ _ _ _ _ _ _ _ _ _ _ _ _ _ _ _ _
 72
    65
 73
     2
 40
0.1875
 49
0.125
 49
-0.0625
  0
LTYPE
  2
HIDDENX2
 70
    64
  3
____ ____ ____ ____ ____ ____ ____ ____ ____ __
 72
    65
 73
     2
 40
0.75
 49
0.5
 49
-0.25
  0
LTYPE
  2
PHANTOM
 70
    64
  3
______  __  __  ______  __  __  ______  __  __ 
 72
    65
 73
     6
 40
2.5
 49
1.25
 49
-0.25
 49
0.25
 49
-0.25
 49
0.25
 49
-0.25
  0
LTYPE
  2
PHANTOM2
 70
    64
  3
___ _ _ ___ _ _ ___ _ _ ___ _ _ ___ _ _ ___ _ _
 72
    65
 73
     6
 40
1.25
 49
0.625
 49
-0.125
 49
0.125
 49
-0.125
 49
0.125
 49
-0.125
  0
LTYPE
  2
PHANTOMX2
 70
    64
  3
____________    ____    ____    ____________   
 72
    65
 73
     6
 40
5.0
 49
2.5
 49
-0.5
 49
0.5
 49
-0.5
 49
0.5
 49
-0.5
  0
ENDTAB
  0
TABLE
  2
STYLE
 70
     2
  0
STYLE
  2
STANDARD
 70
0
 40
0.0
 41
1.0
 50
0.0
 71
0
 42
0.2
  3
TXT
  4
BIGFONT
  0
STYLE
  2
STANDARD1
 70
     4
 40
0.0
 41
1.0
 50
0.0
 71
     0
 42
0.2
  3
TXT
  4
BIGFONT
  0
ENDTAB
   0
TABLE
   2
LAYER
  70
4
   0
LAYER
   2
0
  70
0
  62
7
   6
CONTINUOUS
   0
LAYER
   2
LEVEL001
  70
0
  62
7
   6
CONTINUOUS
   0
LAYER
   2
LEVEL003
  70
0
  62
7
   6
CONTINUOUS
   0
LAYER
   2
LEVEL004
  70
0
  62
7
   6
CONTINUOUS
   0
ENDTAB
   0
ENDSEC
   0
SECTION
   2
ENTITIES
   0
LINE
   8
LEVEL001
   6
CONTINUOUS
  62
7
  10
 655.450
  20
 399.732
  30
0.0
  11
 655.450
  21
 775.500
  31
0.0
   0
LINE
   8
LEVEL001
   6
CONTINUOUS
  62
7
  10
 655.450
  20
 775.500
  30
0.0
  11
 744.550
  21
 775.500
  31
0.0
   0
LINE
   8
LEVEL001
   6
CONTINUOUS
  62
7
  10
 744.550
  20
 399.732
  30
0.0
  11
 744.550
  21
 775.500
  31
0.0
   0
ARC
   8
LEVEL001
   6
CONTINUOUS
  62
7
  10
 611.500
  20
 290.000
  30
0.0
  40
 48.5000
  50
 107.090
  51
 210.435
   0
ARC
   8
LEVEL001
   6
CONTINUOUS
  62
7
  10
 640.260
  20
 345.000
  30
0.0
  40
 30.0000
  50
 106.277
  51
 167.907
   0
ARC
   8
LEVEL001
   6
CONTINUOUS
  62
7
  10
 759.740
  20
 345.000
  30
0.0
  40
 30.0000
  50
 2.69430
  51
 73.7230
   0
LINE
   8
LEVEL001
   6
CONTINUOUS
  62
7
  10
 759.740
  20
 375.000
  30
0.0
  11
 640.260
  21
 375.000
  31
0.0
   0
ARC
   8
LEVEL001
   6
CONTINUOUS
  62
7
  10
 644.500
  20
 208.000
  30
0.0
  40
 3.00000
  50
0.0
  51
 41.8100
   0
ARC
   8
LEVEL001
   6
CONTINUOUS
  62
7
  10
 755.500
  20
 208.000
  30
0.0
  40
 3.00000
  50
 138.190
  51
 180.000
   0
LINE
   8
LEVEL001
   6
CONTINUOUS
  62
7
  10
 555.487
  20
 265.192
  30
0.0
  11
 559.850
  21
 283.000
  31
0.0
   0
LINE
   8
LEVEL001
   6
CONTINUOUS
  62
7
  10
 563.000
  20
 295.723
  30
0.0
  11
 563.338
  21
 295.712
  31
0.0
   0
LINE
   8
LEVEL001
   6
CONTINUOUS
  62
7
  10
 562.116
  20
 296.606
  30
0.0
  11
 563.000
  21
 295.723
  31
0.0
   0
LINE
   8
LEVEL001
   6
CONTINUOUS
  62
7
  10
 563.000
  20
 284.277
  30
0.0
  11
 563.338
  21
 284.288
  31
0.0
   0
LINE
   8
LEVEL001
   6
CONTINUOUS
  62
7
  10
 562.116
  20
 283.394
  30
0.0
  11
 563.000
  21
 284.277
  31
0.0
   0
LINE
   8
LEVEL001
   6
CONTINUOUS
  62
7
  10
 563.446
  20
 296.565
  30
0.0
  11
 562.116
  21
 296.606
  31
0.0
   0
LINE
   8
LEVEL001
   6
CONTINUOUS
  62
7
  10
 562.116
  20
 283.394
  30
0.0
  11
 563.446
  21
 283.435
  31
0.0
   0
ARC
   8
LEVEL001
   6
CONTINUOUS
  62
7
  10
 552.007
  20
 286.500
  30
0.0
  40
 10.1093
  50
 339.744
  51
 20.2560
   0
ARC
   8
LEVEL001
   6
CONTINUOUS
  62
7
  10
 552.007
  20
 293.500
  30
0.0
  40
 10.1093
  50
 339.744
  51
 20.2560
   0
ARC
   8
LEVEL001
   6
CONTINUOUS
  62
7
  10
 547.614
  20
 299.985
  30
0.0
  40
 3.30000
  50
 202.500
  51
 228.418
   0
ARC
   8
LEVEL001
   6
CONTINUOUS
  62
7
  10
 544.893
  20
 296.918
  30
0.0
  40
 0.800000
  50
 357.576
  51
 48.4260
   0
LINE
   8
LEVEL001
   6
CONTINUOUS
  62
7
  10
 552.914
  20
 296.335
  30
0.0
  11
 557.366
  21
 296.335
  31
0.0
   0
LINE
   8
LEVEL001
   6
CONTINUOUS
  62
7
  10
 550.965
  20
 299.440
  30
0.0
  11
 545.641
  21
 297.235
  31
0.0
   0
LINE
   8
LEVEL001
   6
CONTINUOUS
  62
7
  10
 544.364
  20
 301.561
  30
0.0
  11
 546.581
  21
 302.479
  31
0.0
   0
LINE
   8
LEVEL001
   6
CONTINUOUS
  62
7
  10
 544.565
  20
 298.722
  30
0.0
  11
 544.364
  21
 301.561
  31
0.0
   0
LINE
   8
LEVEL001
   6
CONTINUOUS
  62
7
  10
 547.614
  20
 299.985
  30
0.0
  11
 544.565
  21
 298.722
  31
0.0
   0
LINE
   8
LEVEL001
   6
CONTINUOUS
  62
7
  10
 550.663
  20
 301.248
  30
0.0
  11
 547.614
  21
 299.985
  31
0.0
   0
LINE
   8
LEVEL001
   6
CONTINUOUS
  62
7
  10
 548.798
  20
 303.398
  30
0.0
  11
 550.663
  21
 301.248
  31
0.0
   0
LINE
   8
LEVEL001
   6
CONTINUOUS
  62
7
  10
 546.581
  20
 302.479
  30
0.0
  11
 548.798
  21
 303.398
  31
0.0
   0
ARC
   8
LEVEL001
   6
CONTINUOUS
  62
7
  10
 555.225
  20
 303.570
  30
0.0
  40
 6.00000
  50
 227.431
  51
 237.017
   0
ARC
   8
LEVEL001
   6
CONTINUOUS
  62
7
  10
 547.614
  20
 299.985
  30
0.0
  40
 3.30000
  50
 356.582
  51
 22.5000
   0
ARC
   8
LEVEL001
   6
CONTINUOUS
  62
7
  10
 551.321
  20
 291.035
  30
0.0
  40
 6.68738
  50
 94.9120
  51
 130.088
   0
ARC
   8
LEVEL001
   6
CONTINUOUS
  62
7
  10
 553.131
  20
 295.560
  30
0.0
  40
 3.20000
  50
 110.768
  51
 138.098
   0
ARC
   8
LEVEL001
   6
CONTINUOUS
  62
7
  10
 546.677
  20
 302.248
  30
0.0
  40
 1.00000
  50
 36.9770
  51
 188.021
   0
ARC
   8
LEVEL001
   6
CONTINUOUS
  62
7
  10
 551.707
  20
 299.740
  30
0.0
  40
 0.800000
  50
 176.573
  51
 227.428
   0
ARC
   8
LEVEL001
   6
CONTINUOUS
  62
7
  10
 539.698
  20
 297.139
  30
0.0
  40
 6.00000
  50
 347.981
  51
 357.567
   0
LINE
   8
LEVEL001
   6
CONTINUOUS
  62
7
  10
 549.604
  20
 283.665
  30
0.0
  11
 557.366
  21
 283.665
  31
0.0
   0
LINE
   8
LEVEL001
   6
CONTINUOUS
  62
7
  10
 547.694
  20
 294.511
  30
0.0
  11
 547.015
  21
 296.151
  31
0.0
   0
LINE
   8
LEVEL001
   6
CONTINUOUS
  62
7
  10
 551.428
  20
 296.058
  30
0.0
  11
 550.749
  21
 297.698
  31
0.0
   0
LINE
   8
LEVEL001
   6
CONTINUOUS
  62
7
  10
 552.616
  20
 298.471
  30
0.0
  11
 553.295
  21
 296.831
  31
0.0
   0
LINE
   8
LEVEL001
   6
CONTINUOUS
  62
7
  10
 551.996
  20
 298.553
  30
0.0
  11
 552.616
  21
 298.471
  31
0.0
   0
LINE
   8
LEVEL001
   6
CONTINUOUS
  62
7
  10
 545.529
  20
 295.874
  30
0.0
  11
 551.996
  21
 298.553
  31
0.0
   0
LINE
   8
LEVEL001
   6
CONTINUOUS
  62
7
  10
 545.148
  20
 295.378
  30
0.0
  11
 545.529
  21
 295.874
  31
0.0
   0
LINE
   8
LEVEL001
   6
CONTINUOUS
  62
7
  10
 545.827
  20
 293.738
  30
0.0
  11
 545.148
  21
 295.378
  31
0.0
   0
LINE
   8
LEVEL001
   6
CONTINUOUS
  62
7
  10
 546.447
  20
 293.656
  30
0.0
  11
 545.827
  21
 293.738
  31
0.0
   0
LINE
   8
LEVEL001
   6
CONTINUOUS
  62
7
  10
 552.914
  20
 296.335
  30
0.0
  11
 546.447
  21
 293.656
  31
0.0
   0
LINE
   8
LEVEL001
   6
CONTINUOUS
  62
7
  10
 553.295
  20
 296.831
  30
0.0
  11
 552.914
  21
 296.335
  31
0.0
   0
ARC
   8
LEVEL001
   6
CONTINUOUS
  62
7
  10
 555.688
  20
 290.000
  30
0.0
  40
 9.93811
  50
 158.413
  51
 208.731
   0
ARC
   8
LEVEL001
   6
CONTINUOUS
  62
7
  10
 549.604
  20
 286.665
  30
0.0
  40
 3.00000
  50
 208.731
  51
 270.000
   0
ARC
   8
LEVEL001
   6
CONTINUOUS
  62
7
  10
 547.614
  20
 299.985
  30
0.0
  40
 6.43506
  50
 259.551
  51
 325.449
   0
ARC
   8
LEVEL001
   6
CONTINUOUS
  62
7
  10
 547.122
  20
 301.174
  30
0.0
  40
 6.68738
  50
 274.912
  51
 310.088
   0
ARC
   8
LEVEL001
   6
CONTINUOUS
  62
7
  10
 546.842
  20
 292.956
  30
0.0
  40
 3.20000
  50
 86.9030
  51
 114.232
   0
ARC
   8
LEVEL001
   6
CONTINUOUS
  62
7
  10
 545.312
  20
 296.648
  30
0.0
  40
 3.20000
  50
 290.768
  51
 318.098
   0
ARC
   8
LEVEL001
   6
CONTINUOUS
  62
7
  10
 551.601
  20
 299.253
  30
0.0
  40
 3.20000
  50
 266.903
  51
 294.232
   0
LINE
   8
LEVEL001
   6
CONTINUOUS
  62
7
  10
 563.000
  20
 284.277
  30
0.0
  11
 563.000
  21
 295.723
  31
0.0
   0
LINE
   8
LEVEL001
   6
CONTINUOUS
  62
7
  10
 557.750
  20
 297.000
  30
0.0
  11
 557.366
  21
 296.335
  31
0.0
   0
LINE
   8
LEVEL001
   6
CONTINUOUS
  62
7
  10
 562.116
  20
 297.000
  30
0.0
  11
 557.750
  21
 297.000
  31
0.0
   0
LINE
   8
LEVEL001
   6
CONTINUOUS
  62
7
  10
 562.116
  20
 283.000
  30
0.0
  11
 562.116
  21
 297.000
  31
0.0
   0
LINE
   8
LEVEL001
   6
CONTINUOUS
  62
7
  10
 557.750
  20
 283.000
  30
0.0
  11
 562.116
  21
 283.000
  31
0.0
   0
LINE
   8
LEVEL001
   6
CONTINUOUS
  62
7
  10
 561.491
  20
 290.000
  30
0.0
  11
 558.342
  21
 290.000
  31
0.0
   0
LINE
   8
LEVEL001
   6
CONTINUOUS
  62
7
  10
 557.366
  20
 283.665
  30
0.0
  11
 557.366
  21
 296.335
  31
0.0
   0
LINE
   8
LEVEL001
   6
CONTINUOUS
  62
7
  10
 557.750
  20
 297.000
  30
0.0
  11
 557.750
  21
 283.000
  31
0.0
   0
LINE
   8
LEVEL001
   6
CONTINUOUS
  62
7
  10
 557.750
  20
 283.000
  30
0.0
  11
 557.366
  21
 283.665
  31
0.0
   0
ARC
   8
LEVEL001
   6
CONTINUOUS
  62
7
  10
 567.826
  20
 293.500
  30
0.0
  40
 10.1093
  50
 159.744
  51
 200.256
   0
ARC
   8
LEVEL001
   6
CONTINUOUS
  62
7
  10
 567.826
  20
 286.500
  30
0.0
  40
 10.1093
  50
 159.744
  51
 200.256
   0
LINE
   8
LEVEL001
   6
CONTINUOUS
  62
7
  10
 752.500
  20
 185.000
  30
0.0
  11
 647.500
  21
 185.000
  31
0.0
   0
CIRCLE
   8
LEVEL001
   6
CONTINUOUS
  62
7
  10
 572.500
  20
 290.000
  30
0.0
  40
 4.00000
   0
CIRCLE
   8
LEVEL001
   6
CONTINUOUS
  62
7
  10
 572.500
  20
 290.000
  30
0.0
  40
 3.37500
   0
CIRCLE
   8
LEVEL001
   6
CONTINUOUS
  62
7
  10
 650.500
  20
 290.000
  30
0.0
  40
 4.00000
   0
CIRCLE
   8
LEVEL001
   6
CONTINUOUS
  62
7
  10
 650.500
  20
 290.000
  30
0.0
  40
 3.37500
   0
CIRCLE
   8
LEVEL001
   6
CONTINUOUS
  62
7
  10
 611.500
  20
 290.000
  30
0.0
  40
 22.5000
   0
ARC
   8
LEVEL001
   6
CONTINUOUS
  62
7
  10
 611.500
  20
 290.000
  30
0.0
  40
 15.0000
  50
 105.466
  51
 74.5340
   0
LINE
   8
LEVEL001
   6
CONTINUOUS
  62
7
  10
 607.500
  20
 300.000
  30
0.0
  11
 615.500
  21
 300.000
  31
0.0
   0
ARC
   8
LEVEL001
   6
CONTINUOUS
  62
7
  10
 611.500
  20
 290.000
  30
0.0
  40
 14.0000
  50
 106.602
  51
 73.3980
   0
LINE
   8
LEVEL001
   6
CONTINUOUS
  62
7
  10
 607.500
  20
 300.000
  30
0.0
  11
 607.500
  21
 307.000
  31
0.0
   0
LINE
   8
LEVEL001
   6
CONTINUOUS
  62
7
  10
 615.500
  20
 300.000
  30
0.0
  11
 615.500
  21
 307.000
  31
0.0
   0
LINE
   8
LEVEL001
   6
CONTINUOUS
  62
7
  10
 615.500
  20
 307.000
  30
0.0
  11
 607.500
  21
 307.000
  31
0.0
   0
LINE
   8
LEVEL001
   6
CONTINUOUS
  62
7
  10
 638.181
  20
 259.077
  30
0.0
  11
 641.527
  21
 259.973
  31
0.0
   0
LINE
   8
LEVEL001
   6
CONTINUOUS
  62
7
  10
 635.731
  20
 261.526
  30
0.0
  11
 638.181
  21
 259.077
  31
0.0
   0
LINE
   8
LEVEL001
   6
CONTINUOUS
  62
7
  10
 636.628
  20
 264.872
  30
0.0
  11
 635.731
  21
 261.526
  31
0.0
   0
LINE
   8
LEVEL001
   6
CONTINUOUS
  62
7
  10
 639.974
  20
 265.769
  30
0.0
  11
 636.628
  21
 264.872
  31
0.0
   0
LINE
   8
LEVEL001
   6
CONTINUOUS
  62
7
  10
 642.423
  20
 263.319
  30
0.0
  11
 639.974
  21
 265.769
  31
0.0
   0
LINE
   8
LEVEL001
   6
CONTINUOUS
  62
7
  10
 641.527
  20
 259.973
  30
0.0
  11
 642.423
  21
 263.319
  31
0.0
   0
CIRCLE
   8
LEVEL001
   6
CONTINUOUS
  62
7
  10
 639.077
  20
 262.423
  30
0.0
  40
 5.80718
   0
CIRCLE
   8
LEVEL001
   6
CONTINUOUS
  62
7
  10
 639.077
  20
 262.423
  30
0.0
  40
 6.50000
   0
LINE
   8
LEVEL001
   6
CONTINUOUS
  62
7
  10
 580.577
  20
 263.319
  30
0.0
  11
 581.473
  21
 259.973
  31
0.0
   0
LINE
   8
LEVEL001
   6
CONTINUOUS
  62
7
  10
 583.026
  20
 265.769
  30
0.0
  11
 580.577
  21
 263.319
  31
0.0
   0
LINE
   8
LEVEL001
   6
CONTINUOUS
  62
7
  10
 586.372
  20
 264.872
  30
0.0
  11
 583.026
  21
 265.769
  31
0.0
   0
LINE
   8
LEVEL001
   6
CONTINUOUS
  62
7
  10
 587.269
  20
 261.526
  30
0.0
  11
 586.372
  21
 264.872
  31
0.0
   0
LINE
   8
LEVEL001
   6
CONTINUOUS
  62
7
  10
 584.819
  20
 259.077
  30
0.0
  11
 587.269
  21
 261.526
  31
0.0
   0
LINE
   8
LEVEL001
   6
CONTINUOUS
  62
7
  10
 581.473
  20
 259.973
  30
0.0
  11
 584.819
  21
 259.077
  31
0.0
   0
CIRCLE
   8
LEVEL001
   6
CONTINUOUS
  62
7
  10
 583.923
  20
 262.423
  30
0.0
  40
 5.80718
   0
CIRCLE
   8
LEVEL001
   6
CONTINUOUS
  62
7
  10
 583.923
  20
 262.423
  30
0.0
  40
 6.50000
   0
LINE
   8
LEVEL001
   6
CONTINUOUS
  62
7
  10
 584.819
  20
 320.923
  30
0.0
  11
 581.473
  21
 320.027
  31
0.0
   0
LINE
   8
LEVEL001
   6
CONTINUOUS
  62
7
  10
 587.269
  20
 318.474
  30
0.0
  11
 584.819
  21
 320.923
  31
0.0
   0
LINE
   8
LEVEL001
   6
CONTINUOUS
  62
7
  10
 586.372
  20
 315.128
  30
0.0
  11
 587.269
  21
 318.474
  31
0.0
   0
LINE
   8
LEVEL001
   6
CONTINUOUS
  62
7
  10
 583.026
  20
 314.231
  30
0.0
  11
 586.372
  21
 315.128
  31
0.0
   0
LINE
   8
LEVEL001
   6
CONTINUOUS
  62
7
  10
 580.577
  20
 316.681
  30
0.0
  11
 583.026
  21
 314.231
  31
0.0
   0
LINE
   8
LEVEL001
   6
CONTINUOUS
  62
7
  10
 581.473
  20
 320.027
  30
0.0
  11
 580.577
  21
 316.681
  31
0.0
   0
CIRCLE
   8
LEVEL001
   6
CONTINUOUS
  62
7
  10
 583.923
  20
 317.577
  30
0.0
  40
 5.80718
   0
CIRCLE
   8
LEVEL001
   6
CONTINUOUS
  62
7
  10
 583.923
  20
 317.577
  30
0.0
  40
 6.50000
   0
LINE
   8
LEVEL001
   6
CONTINUOUS
  62
7
  10
 642.423
  20
 316.681
  30
0.0
  11
 641.527
  21
 320.027
  31
0.0
   0
LINE
   8
LEVEL001
   6
CONTINUOUS
  62
7
  10
 639.974
  20
 314.231
  30
0.0
  11
 642.423
  21
 316.681
  31
0.0
   0
LINE
   8
LEVEL001
   6
CONTINUOUS
  62
7
  10
 636.628
  20
 315.128
  30
0.0
  11
 639.974
  21
 314.231
  31
0.0
   0
LINE
   8
LEVEL001
   6
CONTINUOUS
  62
7
  10
 635.731
  20
 318.474
  30
0.0
  11
 636.628
  21
 315.128
  31
0.0
   0
LINE
   8
LEVEL001
   6
CONTINUOUS
  62
7
  10
 638.181
  20
 320.923
  30
0.0
  11
 635.731
  21
 318.474
  31
0.0
   0
LINE
   8
LEVEL001
   6
CONTINUOUS
  62
7
  10
 641.527
  20
 320.027
  30
0.0
  11
 638.181
  21
 320.923
  31
0.0
   0
CIRCLE
   8
LEVEL001
   6
CONTINUOUS
  62
7
  10
 639.077
  20
 317.577
  30
0.0
  40
 5.80718
   0
CIRCLE
   8
LEVEL001
   6
CONTINUOUS
  62
7
  10
 639.077
  20
 317.577
  30
0.0
  40
 6.50000
   0
CIRCLE
   8
LEVEL001
   6
CONTINUOUS
  62
7
  10
 611.500
  20
 290.000
  30
0.0
  40
 48.0000
   0
LINE
   8
LEVEL001
   6
CONTINUOUS
  62
7
  10
 514.500
  20
 230.000
  30
0.0
  11
 700.000
  21
 230.000
  31
0.0
   0
LINE
   8
LEVEL001
   6
CONTINUOUS
  62
7
  10
 835.500
  20
 230.000
  30
0.0
  11
 700.000
  21
 230.000
  31
0.0
   0
LINE
   8
LEVEL001
   6
CONTINUOUS
  62
7
  10
 700.000
  20
 210.000
  30
0.0
  11
 512.500
  21
 210.000
  31
0.0
   0
LINE
   8
LEVEL001
   6
CONTINUOUS
  62
7
  10
 700.000
  20
 210.000
  30
0.0
  11
 837.500
  21
 210.000
  31
0.0
   0
LINE
   8
LEVEL001
   6
CONTINUOUS
  62
7
  10
 647.302
  20
 395.000
  30
0.0
  11
 700.000
  21
 395.000
  31
0.0
   0
LINE
   8
LEVEL001
   6
CONTINUOUS
  62
7
  10
 752.698
  20
 395.000
  30
0.0
  11
 700.000
  21
 395.000
  31
0.0
   0
LINE
   8
LEVEL001
   6
CONTINUOUS
  62
7
  10
 655.450
  20
 399.732
  30
0.0
  11
 700.000
  21
 399.732
  31
0.0
   0
LINE
   8
LEVEL001
   6
CONTINUOUS
  62
7
  10
 744.550
  20
 399.732
  30
0.0
  11
 700.000
  21
 399.732
  31
0.0
   0
LINE
   8
LEVEL001
   6
CONTINUOUS
  62
7
  10
 657.000
  20
 396.000
  30
0.0
  11
 656.000
  21
 396.000
  31
0.0
   0
LINE
   8
LEVEL001
   6
CONTINUOUS
  62
7
  10
 657.000
  20
 395.000
  30
0.0
  11
 657.000
  21
 396.000
  31
0.0
   0
LINE
   8
LEVEL001
   6
CONTINUOUS
  62
7
  10
 656.000
  20
 395.000
  30
0.0
  11
 656.000
  21
 399.732
  31
0.0
   0
LINE
   8
LEVEL001
   6
CONTINUOUS
  62
7
  10
 743.000
  20
 396.000
  30
0.0
  11
 744.000
  21
 396.000
  31
0.0
   0
LINE
   8
LEVEL001
   6
CONTINUOUS
  62
7
  10
 743.000
  20
 395.000
  30
0.0
  11
 743.000
  21
 396.000
  31
0.0
   0
LINE
   8
LEVEL001
   6
CONTINUOUS
  62
7
  10
 744.000
  20
 395.000
  30
0.0
  11
 744.000
  21
 399.732
  31
0.0
   0
LINE
   8
LEVEL001
   6
CONTINUOUS
  62
7
  10
 625.000
  20
 395.500
  30
0.0
  11
 631.590
  21
 394.000
  31
0.0
   0
LINE
   8
LEVEL001
   6
CONTINUOUS
  62
7
  10
 618.410
  20
 394.000
  30
0.0
  11
 625.000
  21
 395.500
  31
0.0
   0
LINE
   8
LEVEL001
   6
CONTINUOUS
  62
7
  10
 618.410
  20
 394.000
  30
0.0
  11
 631.590
  21
 394.000
  31
0.0
   0
LINE
   8
LEVEL001
   6
CONTINUOUS
  62
7
  10
 615.000
  20
 387.000
  30
0.0
  11
 616.478
  21
 392.518
  31
0.0
   0
ARC
   8
LEVEL001
   6
CONTINUOUS
  62
7
  10
 618.410
  20
 392.000
  30
0.0
  40
 2.00000
  50
 90.0010
  51
 165.000
   0
ARC
   8
LEVEL001
   6
CONTINUOUS
  62
7
  10
 612.234
  20
 388.270
  30
0.0
  40
 3.00000
  50
 345.000
  51
 57.0970
   0
ARC
   8
LEVEL001
   6
CONTINUOUS
  62
7
  10
 591.370
  20
 355.475
  30
0.0
  40
 20.0000
  50
 287.090
  51
 347.906
   0
LINE
   8
LEVEL001
   6
CONTINUOUS
  62
7
  10
 581.649
  20
 245.066
  30
0.0
  11
 569.683
  21
 265.432
  31
0.0
   0
ARC
   8
LEVEL001
   6
CONTINUOUS
  62
7
  10
 573.027
  20
 240.000
  30
0.0
  40
 10.0000
  50
 270.000
  51
 30.4350
   0
LINE
   8
LEVEL001
   6
CONTINUOUS
  62
7
  10
 541.720
  20
 246.568
  30
0.0
  11
 513.475
  21
 229.718
  31
0.0
   0
ARC
   8
LEVEL001
   6
CONTINUOUS
  62
7
  10
 526.349
  20
 272.332
  30
0.0
  40
 30.0000
  50
 300.821
  51
 346.233
   0
LINE
   8
LEVEL001
   6
CONTINUOUS
  62
7
  10
 512.500
  20
 228.000
  30
0.0
  11
 512.500
  21
 210.000
  31
0.0
   0
ARC
   8
LEVEL001
   6
CONTINUOUS
  62
7
  10
 514.500
  20
 228.000
  30
0.0
  40
 2.00000
  50
 90.0000
  51
 180.000
   0
LINE
   8
LEVEL001
   6
CONTINUOUS
  62
7
  10
 612.500
  20
 385.000
  30
0.0
  11
 612.500
  21
 356.374
  31
0.0
   0
ARC
   8
LEVEL001
   6
CONTINUOUS
  62
7
  10
 614.500
  20
 385.000
  30
0.0
  40
 2.00000
  50
 90.0000
  51
 180.000
   0
LINE
   8
LEVEL001
   6
CONTINUOUS
  62
7
  10
 775.000
  20
 395.500
  30
0.0
  11
 781.590
  21
 394.000
  31
0.0
   0
LINE
   8
LEVEL001
   6
CONTINUOUS
  62
7
  10
 768.410
  20
 394.000
  30
0.0
  11
 775.000
  21
 395.500
  31
0.0
   0
LINE
   8
LEVEL001
   6
CONTINUOUS
  62
7
  10
 768.410
  20
 394.000
  30
0.0
  11
 781.590
  21
 394.000
  31
0.0
   0
LINE
   8
LEVEL001
   6
CONTINUOUS
  62
7
  10
 785.000
  20
 387.000
  30
0.0
  11
 783.522
  21
 392.518
  31
0.0
   0
ARC
   8
LEVEL001
   6
CONTINUOUS
  62
7
  10
 781.590
  20
 392.000
  30
0.0
  40
 2.00000
  50
 15.0000
  51
 89.9990
   0
LINE
   8
LEVEL001
   6
CONTINUOUS
  62
7
  10
 765.000
  20
 387.000
  30
0.0
  11
 766.478
  21
 392.518
  31
0.0
   0
ARC
   8
LEVEL001
   6
CONTINUOUS
  62
7
  10
 768.410
  20
 392.000
  30
0.0
  40
 2.00000
  50
 90.0010
  51
 165.000
   0
ARC
   8
LEVEL001
   6
CONTINUOUS
  62
7
  10
 775.000
  20
 408.000
  30
0.0
  40
 20.5000
  50
 302.903
  51
 237.097
   0
ARC
   8
LEVEL001
   6
CONTINUOUS
  62
7
  10
 787.766
  20
 388.270
  30
0.0
  40
 3.00000
  50
 122.903
  51
 195.000
   0
LINE
   8
LEVEL001
   6
CONTINUOUS
  62
7
  10
 765.000
  20
 387.000
  30
0.0
  11
 785.000
  21
 387.000
  31
0.0
   0
ARC
   8
LEVEL001
   6
CONTINUOUS
  62
7
  10
 762.234
  20
 388.270
  30
0.0
  40
 3.00000
  50
 345.000
  51
 57.0970
   0
CIRCLE
   8
LEVEL001
   6
CONTINUOUS
  62
7
  10
 775.000
  20
 408.000
  30
0.0
  40
 12.5000
   0
LINE
   8
LEVEL001
   6
CONTINUOUS
  62
7
  10
 635.000
  20
 387.000
  30
0.0
  11
 633.522
  21
 392.518
  31
0.0
   0
ARC
   8
LEVEL001
   6
CONTINUOUS
  62
7
  10
 631.590
  20
 392.000
  30
0.0
  40
 2.00000
  50
 15.0000
  51
 89.9990
   0
ARC
   8
LEVEL001
   6
CONTINUOUS
  62
7
  10
 625.000
  20
 408.000
  30
0.0
  40
 20.5000
  50
 302.903
  51
 237.097
   0
ARC
   8
LEVEL001
   6
CONTINUOUS
  62
7
  10
 637.766
  20
 388.270
  30
0.0
  40
 3.00000
  50
 122.903
  51
 195.000
   0
LINE
   8
LEVEL001
   6
CONTINUOUS
  62
7
  10
 615.000
  20
 387.000
  30
0.0
  11
 635.000
  21
 387.000
  31
0.0
   0
CIRCLE
   8
LEVEL001
   6
CONTINUOUS
  62
7
  10
 625.000
  20
 408.000
  30
0.0
  40
 12.5000
   0
LINE
   8
LEVEL001
   6
CONTINUOUS
  62
7
  10
 650.000
  20
 183.000
  30
0.0
  11
 650.000
  21
 168.000
  31
0.0
   0
LINE
   8
LEVEL001
   6
CONTINUOUS
  62
7
  10
 647.500
  20
 185.000
  30
0.0
  11
 648.000
  21
 185.000
  31
0.0
   0
ARC
   8
LEVEL001
   6
CONTINUOUS
  62
7
  10
 648.000
  20
 183.000
  30
0.0
  40
 2.00000
  50
0.0
  51
 90.0000
   0
ARC
   8
LEVEL001
   6
CONTINUOUS
  62
7
  10
 653.000
  20
 168.000
  30
0.0
  40
 3.00000
  50
 180.000
  51
 270.000
   0
LINE
   8
LEVEL001
   6
CONTINUOUS
  62
7
  10
 647.500
  20
 208.000
  30
0.0
  11
 647.500
  21
 185.000
  31
0.0
   0
LINE
   8
LEVEL001
   6
CONTINUOUS
  62
7
  10
 614.500
  20
 387.000
  30
0.0
  11
 637.500
  21
 387.000
  31
0.0
   0
ARC
   8
LEVEL001
   6
CONTINUOUS
  62
7
  10
 640.135
  20
 388.434
  30
0.0
  40
 3.00004
  50
 208.562
  51
 345.001
   0
LINE
   8
LEVEL001
   6
CONTINUOUS
  62
7
  10
 644.404
  20
 392.776
  30
0.0
  11
 642.137
  21
 384.314
  31
0.0
   0
ARC
   8
LEVEL001
   6
CONTINUOUS
  62
7
  10
 627.648
  20
 388.196
  30
0.0
  40
 15.0000
  50
 286.277
  51
 345.000
   0
ARC
   8
LEVEL001
   6
CONTINUOUS
  62
7
  10
 647.302
  20
 392.000
  30
0.0
  40
 3.00000
  50
 89.9990
  51
 164.999
   0
LINE
   8
LEVEL001
   6
CONTINUOUS
  62
7
  10
 750.000
  20
 183.000
  30
0.0
  11
 750.000
  21
 168.000
  31
0.0
   0
LINE
   8
LEVEL001
   6
CONTINUOUS
  62
7
  10
 752.500
  20
 185.000
  30
0.0
  11
 752.000
  21
 185.000
  31
0.0
   0
ARC
   8
LEVEL001
   6
CONTINUOUS
  62
7
  10
 752.000
  20
 183.000
  30
0.0
  40
 2.00000
  50
 90.0000
  51
 180.000
   0
ARC
   8
LEVEL001
   6
CONTINUOUS
  62
7
  10
 747.000
  20
 168.000
  30
0.0
  40
 3.00000
  50
 270.000
  51
0.0
   0
LINE
   8
LEVEL001
   6
CONTINUOUS
  62
7
  10
 787.500
  20
 385.000
  30
0.0
  11
 787.500
  21
 356.374
  31
0.0
   0
LINE
   8
LEVEL001
   6
CONTINUOUS
  62
7
  10
 785.500
  20
 387.000
  30
0.0
  11
 762.500
  21
 387.000
  31
0.0
   0
ARC
   8
LEVEL001
   6
CONTINUOUS
  62
7
  10
 785.500
  20
 385.000
  30
0.0
  40
 2.00000
  50
0.0
  51
 90.0000
   0
ARC
   8
LEVEL001
   6
CONTINUOUS
  62
7
  10
 759.865
  20
 388.434
  30
0.0
  40
 3.00004
  50
 194.999
  51
 331.439
   0
LINE
   8
LEVEL001
   6
CONTINUOUS
  62
7
  10
 755.596
  20
 392.776
  30
0.0
  11
 757.863
  21
 384.314
  31
0.0
   0
ARC
   8
LEVEL001
   6
CONTINUOUS
  62
7
  10
 772.352
  20
 388.196
  30
0.0
  40
 15.0000
  50
 195.000
  51
 253.723
   0
LINE
   8
LEVEL001
   6
CONTINUOUS
  62
7
  10
 794.008
  20
 254.999
  30
0.0
  11
 789.707
  21
 346.410
  31
0.0
   0
ARC
   8
LEVEL001
   6
CONTINUOUS
  62
7
  10
 752.698
  20
 392.000
  30
0.0
  40
 3.00000
  50
 15.0010
  51
 90.0010
   0
LINE
   8
LEVEL001
   6
CONTINUOUS
  62
7
  10
 820.726
  20
 244.221
  30
0.0
  11
 836.850
  21
 229.476
  31
0.0
   0
LINE
   8
LEVEL001
   6
CONTINUOUS
  62
7
  10
 792.480
  20
 308.993
  30
0.0
  11
 812.963
  21
 255.612
  31
0.0
   0
ARC
   8
LEVEL001
   6
CONTINUOUS
  62
7
  10
 840.972
  20
 266.359
  30
0.0
  40
 30.0000
  50
 200.993
  51
 227.558
   0
LINE
   8
LEVEL001
   6
CONTINUOUS
  62
7
  10
 837.500
  20
 228.000
  30
0.0
  11
 837.500
  21
 210.000
  31
0.0
   0
ARC
   8
LEVEL001
   6
CONTINUOUS
  62
7
  10
 835.500
  20
 228.000
  30
0.0
  40
 2.00000
  50
0.0
  51
 90.0000
   0
LINE
   8
LEVEL001
   6
CONTINUOUS
  62
7
  10
 791.326
  20
 312.000
  30
0.0
  11
 791.360
  21
 311.912
  31
0.0
   0
ARC
   8
LEVEL001
   6
CONTINUOUS
  62
7
  10
 811.152
  20
 316.158
  30
0.0
  40
 20.0000
  50
 182.695
  51
 200.993
   0
LINE
   8
LEVEL001
   6
CONTINUOUS
  62
7
  10
 794.024
  20
 255.000
  30
0.0
  11
 791.186
  21
 242.158
  31
0.0
   0
ARC
   8
LEVEL001
   6
CONTINUOUS
  62
7
  10
 800.951
  20
 240.000
  30
0.0
  40
 10.0000
  50
 167.540
  51
 270.000
   0
LINE
   8
LEVEL001
   6
CONTINUOUS
  62
7
  10
 752.500
  20
 208.000
  30
0.0
  11
 752.500
  21
 185.000
  31
0.0
   0
LINE
   8
LEVEL001
   6
CONTINUOUS
  62
7
  10
 733.500
  20
 165.000
  30
0.0
  11
 732.500
  21
 165.000
  31
0.0
   0
LINE
   8
LEVEL001
   6
CONTINUOUS
  62
7
  10
 670.000
  20
 71.0000
  30
0.0
  11
 700.000
  21
 71.0000
  31
0.0
   0
LINE
   8
LEVEL001
   6
CONTINUOUS
  62
7
  10
 670.000
  20
 71.0000
  30
0.0
  11
 670.000
  21
 126.530
  31
0.0
   0
LINE
   8
LEVEL001
   6
CONTINUOUS
  62
7
  10
 671.000
  20
 70.0000
  30
0.0
  11
 670.000
  21
 71.0000
  31
0.0
   0
LINE
   8
LEVEL001
   6
CONTINUOUS
  62
7
  10
 671.000
  20
 70.0000
  30
0.0
  11
 671.000
  21
 127.530
  31
0.0
   0
LINE
   8
LEVEL001
   6
CONTINUOUS
  62
7
  10
 667.500
  20
 130.500
  30
0.0
  11
 667.500
  21
 162.000
  31
0.0
   0
LINE
   8
LEVEL001
   6
CONTINUOUS
  62
7
  10
 667.750
  20
 165.000
  30
0.0
  11
 667.750
  21
 162.000
  31
0.0
   0
ARC
   8
LEVEL001
   6
CONTINUOUS
  62
7
  10
 668.000
  20
 130.500
  30
0.0
  40
 0.500000
  50
 180.000
  51
 270.000
   0
LINE
   8
LEVEL001
   6
CONTINUOUS
  62
7
  10
 671.000
  20
 127.530
  30
0.0
  11
 671.000
  21
 129.000
  31
0.0
   0
ARC
   8
LEVEL001
   6
CONTINUOUS
  62
7
  10
 670.000
  20
 127.530
  30
0.0
  40
 1.00000
  50
 270.000
  51
 0.107477E-9
   0
LINE
   8
LEVEL001
   6
CONTINUOUS
  62
7
  10
 671.000
  20
 70.0000
  30
0.0
  11
 700.000
  21
 70.0000
  31
0.0
   0
ARC
   8
LEVEL001
   6
CONTINUOUS
  62
7
  10
 670.000
  20
 129.000
  30
0.0
  40
 1.00000
  50
0.0
  51
 90.0000
   0
LINE
   8
LEVEL001
   6
CONTINUOUS
  62
7
  10
 730.000
  20
 71.0000
  30
0.0
  11
 700.000
  21
 71.0000
  31
0.0
   0
LINE
   8
LEVEL001
   6
CONTINUOUS
  62
7
  10
 730.000
  20
 71.0000
  30
0.0
  11
 730.000
  21
 126.530
  31
0.0
   0
LINE
   8
LEVEL001
   6
CONTINUOUS
  62
7
  10
 729.000
  20
 70.0000
  30
0.0
  11
 730.000
  21
 71.0000
  31
0.0
   0
LINE
   8
LEVEL001
   6
CONTINUOUS
  62
7
  10
 729.000
  20
 70.0000
  30
0.0
  11
 729.000
  21
 127.530
  31
0.0
   0
LINE
   8
LEVEL001
   6
CONTINUOUS
  62
7
  10
 732.500
  20
 130.500
  30
0.0
  11
 732.500
  21
 162.000
  31
0.0
   0
LINE
   8
LEVEL001
   6
CONTINUOUS
  62
7
  10
 732.250
  20
 165.000
  30
0.0
  11
 732.250
  21
 162.000
  31
0.0
   0
ARC
   8
LEVEL001
   6
CONTINUOUS
  62
7
  10
 732.000
  20
 130.500
  30
0.0
  40
 0.500000
  50
 270.000
  51
0.0
   0
LINE
   8
LEVEL001
   6
CONTINUOUS
  62
7
  10
 729.000
  20
 127.530
  30
0.0
  11
 729.000
  21
 129.000
  31
0.0
   0
ARC
   8
LEVEL001
   6
CONTINUOUS
  62
7
  10
 730.000
  20
 127.530
  30
0.0
  40
 1.00000
  50
 180.000
  51
 270.000
   0
LINE
   8
LEVEL001
   6
CONTINUOUS
  62
7
  10
 729.000
  20
 70.0000
  30
0.0
  11
 700.000
  21
 70.0000
  31
0.0
   0
ARC
   8
LEVEL001
   6
CONTINUOUS
  62
7
  10
 730.000
  20
 129.000
  30
0.0
  40
 1.00000
  50
 90.0000
  51
 180.000
   0
LINE
   8
LEVEL001
   6
CONTINUOUS
  62
7
  10
 666.500
  20
 165.000
  30
0.0
  11
 667.500
  21
 165.000
  31
0.0
   0
LINE
   8
LEVEL001
   6
CONTINUOUS
  62
7
  10
 657.000
  20
 396.000
  30
0.0
  11
 656.000
  21
 399.732
  31
0.0
   0
LINE
   8
LEVEL001
   6
CONTINUOUS
  62
7
  10
 743.000
  20
 396.000
  30
0.0
  11
 744.000
  21
 399.732
  31
0.0
   0
LINE
   8
LEVEL001
   6
CONTINUOUS
  62
7
  10
 656.000
  20
 395.000
  30
0.0
  11
 656.000
  21
 394.990
  31
0.0
   0
LINE
   8
LEVEL001
   6
CONTINUOUS
  62
7
  10
 742.500
  20
 780.000
  30
0.0
  11
 657.500
  21
 780.000
  31
0.0
   0
LINE
   8
LEVEL001
   6
CONTINUOUS
  62
7
  10
 655.450
  20
 775.500
  30
0.0
  11
 657.500
  21
 780.000
  31
0.0
   0
LINE
   8
LEVEL001
   6
CONTINUOUS
  62
7
  10
 744.550
  20
 775.500
  30
0.0
  11
 742.500
  21
 780.000
  31
0.0
   0
LINE
   8
LEVEL001
   6
CONTINUOUS
  62
7
  10
 205.450
  20
 399.732
  30
0.0
  11
 205.450
  21
 775.500
  31
0.0
   0
LINE
   8
LEVEL001
   6
CONTINUOUS
  62
7
  10
 205.450
  20
 775.500
  30
0.0
  11
 294.550
  21
 775.500
  31
0.0
   0
LINE
   8
LEVEL001
   6
CONTINUOUS
  62
7
  10
 294.550
  20
 399.732
  30
0.0
  11
 294.550
  21
 775.500
  31
0.0
   0
ARC
   8
LEVEL001
   6
CONTINUOUS
  62
7
  10
 309.740
  20
 345.000
  30
0.0
  40
 30.0000
  50
 2.69430
  51
 73.7230
   0
ARC
   8
LEVEL001
   6
CONTINUOUS
  62
7
  10
 194.500
  20
 208.000
  30
0.0
  40
 3.00000
  50
 0.124847E-10
  51
 41.8100
   0
ARC
   8
LEVEL001
   6
CONTINUOUS
  62
7
  10
 305.500
  20
 208.000
  30
0.0
  40
 3.00000
  50
 138.190
  51
 180.000
   0
LINE
   8
LEVEL001
   6
CONTINUOUS
  62
7
  10
 218.000
  20
 130.000
  30
0.0
  11
 250.000
  21
 130.000
  31
0.0
   0
LINE
   8
LEVEL001
   6
CONTINUOUS
  62
7
  10
 282.000
  20
 130.000
  30
0.0
  11
 250.000
  21
 130.000
  31
0.0
   0
LINE
   8
LEVEL001
   6
CONTINUOUS
  62
7
  10
 302.500
  20
 185.000
  30
0.0
  11
 197.500
  21
 185.000
  31
0.0
   0
LINE
   8
LEVEL001
   6
CONTINUOUS
  62
7
  10
 203.000
  20
 165.000
  30
0.0
  11
 250.000
  21
 165.000
  31
0.0
   0
LINE
   8
LEVEL001
   6
CONTINUOUS
  62
7
  10
 297.000
  20
 165.000
  30
0.0
  11
 250.000
  21
 165.000
  31
0.0
   0
LINE
   8
LEVEL001
   6
CONTINUOUS
  62
7
  10
 217.500
  20
 162.000
  30
0.0
  11
 250.000
  21
 162.000
  31
0.0
   0
LINE
   8
LEVEL001
   6
CONTINUOUS
  62
7
  10
 282.500
  20
 162.000
  30
0.0
  11
 250.000
  21
 162.000
  31
0.0
   0
LINE
   8
LEVEL001
   6
CONTINUOUS
  62
7
  10
 207.000
  20
 396.000
  30
0.0
  11
 206.000
  21
 396.000
  31
0.0
   0
LINE
   8
LEVEL001
   6
CONTINUOUS
  62
7
  10
 207.000
  20
 395.000
  30
0.0
  11
 207.000
  21
 396.000
  31
0.0
   0
LINE
   8
LEVEL001
   6
CONTINUOUS
  62
7
  10
 206.000
  20
 395.000
  30
0.0
  11
 206.000
  21
 399.732
  31
0.0
   0
LINE
   8
LEVEL001
   6
CONTINUOUS
  62
7
  10
 293.000
  20
 396.000
  30
0.0
  11
 294.000
  21
 396.000
  31
0.0
   0
LINE
   8
LEVEL001
   6
CONTINUOUS
  62
7
  10
 293.000
  20
 395.000
  30
0.0
  11
 293.000
  21
 396.000
  31
0.0
   0
LINE
   8
LEVEL001
   6
CONTINUOUS
  62
7
  10
 294.000
  20
 395.000
  30
0.0
  11
 294.000
  21
 399.732
  31
0.0
   0
LINE
   8
LEVEL001
   6
CONTINUOUS
  62
7
  10
 200.000
  20
 183.000
  30
0.0
  11
 200.000
  21
 168.000
  31
0.0
   0
LINE
   8
LEVEL001
   6
CONTINUOUS
  62
7
  10
 197.500
  20
 185.000
  30
0.0
  11
 198.000
  21
 185.000
  31
0.0
   0
ARC
   8
LEVEL001
   6
CONTINUOUS
  62
7
  10
 198.000
  20
 183.000
  30
0.0
  40
 2.00000
  50
0.0
  51
 90.0000
   0
ARC
   8
LEVEL001
   6
CONTINUOUS
  62
7
  10
 203.000
  20
 168.000
  30
0.0
  40
 3.00000
  50
 180.000
  51
 270.000
   0
LINE
   8
LEVEL001
   6
CONTINUOUS
  62
7
  10
 197.500
  20
 208.000
  30
0.0
  11
 197.500
  21
 185.000
  31
0.0
   0
LINE
   8
LEVEL001
   6
CONTINUOUS
  62
7
  10
 194.404
  20
 392.776
  30
0.0
  11
 192.137
  21
 384.314
  31
0.0
   0
ARC
   8
LEVEL001
   6
CONTINUOUS
  62
7
  10
 177.648
  20
 388.196
  30
0.0
  40
 15.0000
  50
 286.277
  51
 345.000
   0
ARC
   8
LEVEL001
   6
CONTINUOUS
  62
7
  10
 197.302
  20
 392.000
  30
0.0
  40
 3.00000
  50
 89.9990
  51
 164.999
   0
LINE
   8
LEVEL001
   6
CONTINUOUS
  62
7
  10
 300.000
  20
 183.000
  30
0.0
  11
 300.000
  21
 168.000
  31
0.0
   0
LINE
   8
LEVEL001
   6
CONTINUOUS
  62
7
  10
 302.500
  20
 185.000
  30
0.0
  11
 302.000
  21
 185.000
  31
0.0
   0
ARC
   8
LEVEL001
   6
CONTINUOUS
  62
7
  10
 302.000
  20
 183.000
  30
0.0
  40
 2.00000
  50
 90.0000
  51
 180.000
   0
ARC
   8
LEVEL001
   6
CONTINUOUS
  62
7
  10
 297.000
  20
 168.000
  30
0.0
  40
 3.00000
  50
 270.000
  51
0.0
   0
LINE
   8
LEVEL001
   6
CONTINUOUS
  62
7
  10
 305.596
  20
 392.776
  30
0.0
  11
 307.863
  21
 384.314
  31
0.0
   0
ARC
   8
LEVEL001
   6
CONTINUOUS
  62
7
  10
 322.352
  20
 388.196
  30
0.0
  40
 15.0000
  50
 195.000
  51
 253.723
   0
ARC
   8
LEVEL001
   6
CONTINUOUS
  62
7
  10
 302.698
  20
 392.000
  30
0.0
  40
 3.00000
  50
 15.0010
  51
 90.0010
   0
LINE
   8
LEVEL001
   6
CONTINUOUS
  62
7
  10
 302.500
  20
 208.000
  30
0.0
  11
 302.500
  21
 185.000
  31
0.0
   0
LINE
   8
LEVEL001
   6
CONTINUOUS
  62
7
  10
 283.500
  20
 165.000
  30
0.0
  11
 282.500
  21
 165.000
  31
0.0
   0
LINE
   8
LEVEL001
   6
CONTINUOUS
  62
7
  10
 220.000
  20
 71.0000
  30
0.0
  11
 250.000
  21
 71.0000
  31
0.0
   0
LINE
   8
LEVEL001
   6
CONTINUOUS
  62
7
  10
 220.000
  20
 71.0000
  30
0.0
  11
 220.000
  21
 126.530
  31
0.0
   0
LINE
   8
LEVEL001
   6
CONTINUOUS
  62
7
  10
 221.000
  20
 70.0000
  30
0.0
  11
 220.000
  21
 71.0000
  31
0.0
   0
LINE
   8
LEVEL001
   6
CONTINUOUS
  62
7
  10
 221.000
  20
 70.0000
  30
0.0
  11
 221.000
  21
 127.530
  31
0.0
   0
LINE
   8
LEVEL001
   6
CONTINUOUS
  62
7
  10
 217.500
  20
 130.500
  30
0.0
  11
 217.500
  21
 162.000
  31
0.0
   0
LINE
   8
LEVEL001
   6
CONTINUOUS
  62
7
  10
 217.750
  20
 165.000
  30
0.0
  11
 217.750
  21
 162.000
  31
0.0
   0
ARC
   8
LEVEL001
   6
CONTINUOUS
  62
7
  10
 218.000
  20
 130.500
  30
0.0
  40
 0.500000
  50
 180.000
  51
 270.000
   0
LINE
   8
LEVEL001
   6
CONTINUOUS
  62
7
  10
 221.000
  20
 127.530
  30
0.0
  11
 221.000
  21
 129.000
  31
0.0
   0
ARC
   8
LEVEL001
   6
CONTINUOUS
  62
7
  10
 220.000
  20
 127.530
  30
0.0
  40
 1.00000
  50
 270.000
  51
 0.993351E-10
   0
LINE
   8
LEVEL001
   6
CONTINUOUS
  62
7
  10
 220.000
  20
 126.530
  30
0.0
  11
 242.000
  21
 126.530
  31
0.0
   0
LINE
   8
LEVEL001
   6
CONTINUOUS
  62
7
  10
 242.000
  20
 126.530
  30
0.0
  11
 250.000
  21
 126.530
  31
0.0
   0
LINE
   8
LEVEL001
   6
CONTINUOUS
  62
7
  10
 221.000
  20
 70.0000
  30
0.0
  11
 250.000
  21
 70.0000
  31
0.0
   0
ARC
   8
LEVEL001
   6
CONTINUOUS
  62
7
  10
 220.000
  20
 129.000
  30
0.0
  40
 1.00000
  50
0.0
  51
 90.0000
   0
LINE
   8
LEVEL001
   6
CONTINUOUS
  62
7
  10
 280.000
  20
 71.0000
  30
0.0
  11
 250.000
  21
 71.0000
  31
0.0
   0
LINE
   8
LEVEL001
   6
CONTINUOUS
  62
7
  10
 280.000
  20
 71.0000
  30
0.0
  11
 280.000
  21
 126.530
  31
0.0
   0
LINE
   8
LEVEL001
   6
CONTINUOUS
  62
7
  10
 279.000
  20
 70.0000
  30
0.0
  11
 280.000
  21
 71.0000
  31
0.0
   0
LINE
   8
LEVEL001
   6
CONTINUOUS
  62
7
  10
 279.000
  20
 70.0000
  30
0.0
  11
 279.000
  21
 127.530
  31
0.0
   0
LINE
   8
LEVEL001
   6
CONTINUOUS
  62
7
  10
 282.500
  20
 130.500
  30
0.0
  11
 282.500
  21
 162.000
  31
0.0
   0
LINE
   8
LEVEL001
   6
CONTINUOUS
  62
7
  10
 282.250
  20
 165.000
  30
0.0
  11
 282.250
  21
 162.000
  31
0.0
   0
ARC
   8
LEVEL001
   6
CONTINUOUS
  62
7
  10
 282.000
  20
 130.500
  30
0.0
  40
 0.500000
  50
 270.000
  51
0.0
   0
LINE
   8
LEVEL001
   6
CONTINUOUS
  62
7
  10
 279.000
  20
 127.530
  30
0.0
  11
 279.000
  21
 129.000
  31
0.0
   0
ARC
   8
LEVEL001
   6
CONTINUOUS
  62
7
  10
 280.000
  20
 127.530
  30
0.0
  40
 1.00000
  50
 180.000
  51
 270.000
   0
LINE
   8
LEVEL001
   6
CONTINUOUS
  62
7
  10
 280.000
  20
 126.530
  30
0.0
  11
 258.000
  21
 126.530
  31
0.0
   0
LINE
   8
LEVEL001
   6
CONTINUOUS
  62
7
  10
 258.000
  20
 126.530
  30
0.0
  11
 250.000
  21
 126.530
  31
0.0
   0
LINE
   8
LEVEL001
   6
CONTINUOUS
  62
7
  10
 279.000
  20
 70.0000
  30
0.0
  11
 250.000
  21
 70.0000
  31
0.0
   0
ARC
   8
LEVEL001
   6
CONTINUOUS
  62
7
  10
 280.000
  20
 129.000
  30
0.0
  40
 1.00000
  50
 90.0000
  51
 180.000
   0
LINE
   8
LEVEL001
   6
CONTINUOUS
  62
7
  10
 216.500
  20
 165.000
  30
0.0
  11
 217.500
  21
 165.000
  31
0.0
   0
LINE
   8
LEVEL001
   6
CONTINUOUS
  62
7
  10
 207.000
  20
 396.000
  30
0.0
  11
 206.000
  21
 399.732
  31
0.0
   0
LINE
   8
LEVEL001
   6
CONTINUOUS
  62
7
  10
 293.000
  20
 396.000
  30
0.0
  11
 294.000
  21
 399.732
  31
0.0
   0
LINE
   8
LEVEL001
   6
CONTINUOUS
  62
7
  10
 206.000
  20
 395.000
  30
0.0
  11
 206.000
  21
 394.990
  31
0.0
   0
LINE
   8
LEVEL001
   6
CONTINUOUS
  62
7
  10
 292.500
  20
 780.000
  30
0.0
  11
 207.500
  21
 780.000
  31
0.0
   0
LINE
   8
LEVEL001
   6
CONTINUOUS
  62
7
  10
 205.450
  20
 775.500
  30
0.0
  11
 207.500
  21
 780.000
  31
0.0
   0
LINE
   8
LEVEL001
   6
CONTINUOUS
  62
7
  10
 294.550
  20
 775.500
  30
0.0
  11
 292.500
  21
 780.000
  31
0.0
   0
LINE
   8
LEVEL001
   6
CONTINUOUS
  62
7
  10
 337.500
  20
 230.000
  30
0.0
  11
 337.500
  21
 210.000
  31
0.0
   0
LINE
   8
LEVEL001
   6
CONTINUOUS
  62
7
  10
 162.500
  20
 230.000
  30
0.0
  11
 162.500
  21
 210.000
  31
0.0
   0
LINE
   8
LEVEL001
   6
CONTINUOUS
  62
7
  10
 162.500
  20
 210.000
  30
0.0
  11
 337.500
  21
 210.000
  31
0.0
   0
LINE
   8
LEVEL001
   6
CONTINUOUS
  62
7
  10
 240.000
  20
 387.000
  30
0.0
  11
 241.478
  21
 392.518
  31
0.0
   0
ARC
   8
LEVEL001
   6
CONTINUOUS
  62
7
  10
 243.410
  20
 392.000
  30
0.0
  40
 2.00000
  50
 90.0010
  51
 165.000
   0
LINE
   8
LEVEL001
   6
CONTINUOUS
  62
7
  10
 260.000
  20
 387.000
  30
0.0
  11
 258.522
  21
 392.518
  31
0.0
   0
ARC
   8
LEVEL001
   6
CONTINUOUS
  62
7
  10
 256.590
  20
 392.000
  30
0.0
  40
 2.00000
  50
 15.0000
  51
 89.9990
   0
LINE
   8
LEVEL001
   6
CONTINUOUS
  62
7
  10
 240.000
  20
 387.000
  30
0.0
  11
 260.000
  21
 387.000
  31
0.0
   0
ARC
   8
LEVEL001
   6
CONTINUOUS
  62
7
  10
 250.000
  20
 424.500
  30
0.0
  40
 4.00000
  50
0.0
  51
 180.000
   0
LINE
   8
LEVEL001
   6
CONTINUOUS
  62
7
  10
 254.000
  20
 424.500
  30
0.0
  11
 254.000
  21
 393.495
  31
0.0
   0
LINE
   8
LEVEL001
   6
CONTINUOUS
  62
7
  10
 246.000
  20
 424.500
  30
0.0
  11
 246.000
  21
 393.495
  31
0.0
   0
ARC
   8
LEVEL001
   6
CONTINUOUS
  62
7
  10
 250.000
  20
 393.495
  30
0.0
  40
 3.97157
  50
 180.000
  51
0.0
   0
LINE
   8
LEVEL001
   6
CONTINUOUS
  62
7
  10
 243.410
  20
 394.000
  30
0.0
  11
 246.000
  21
 394.590
  31
0.0
   0
LINE
   8
LEVEL001
   6
CONTINUOUS
  62
7
  10
 254.000
  20
 394.590
  30
0.0
  11
 256.590
  21
 394.000
  31
0.0
   0
LINE
   8
LEVEL001
   6
CONTINUOUS
  62
7
  10
 243.410
  20
 394.000
  30
0.0
  11
 246.000
  21
 394.000
  31
0.0
   0
LINE
   8
LEVEL001
   6
CONTINUOUS
  62
7
  10
 254.000
  20
 394.000
  30
0.0
  11
 256.590
  21
 394.000
  31
0.0
   0
LINE
   8
LEVEL001
   6
CONTINUOUS
  62
7
  10
 197.302
  20
 395.000
  30
0.0
  11
 246.000
  21
 395.000
  31
0.0
   0
LINE
   8
LEVEL001
   6
CONTINUOUS
  62
7
  10
 302.698
  20
 395.000
  30
0.0
  11
 254.000
  21
 395.000
  31
0.0
   0
LINE
   8
LEVEL001
   6
CONTINUOUS
  62
7
  10
 157.750
  20
 338.000
  30
0.0
  11
 146.750
  21
 338.000
  31
0.0
   0
ARC
   8
LEVEL001
   6
CONTINUOUS
  62
7
  10
 146.750
  20
 336.000
  30
0.0
  40
 2.00000
  50
 90.0000
  51
 180.000
   0
ARC
   8
LEVEL001
   6
CONTINUOUS
  62
7
  10
 146.750
  20
 336.000
  30
0.0
  40
 2.00000
  50
 90.0000
  51
 180.000
   0
LINE
   8
LEVEL001
   6
CONTINUOUS
  62
7
  10
 141.500
  20
 275.000
  30
0.0
  11
 144.750
  21
 275.000
  31
0.0
   0
LINE
   8
LEVEL001
   6
CONTINUOUS
  62
7
  10
 137.000
  20
 276.000
  30
0.0
  11
 96.0000
  21
 276.000
  31
0.0
   0
LINE
   8
LEVEL001
   6
CONTINUOUS
  62
7
  10
 95.0000
  20
 277.000
  30
0.0
  11
 96.0000
  21
 276.000
  31
0.0
   0
LINE
   8
LEVEL001
   6
CONTINUOUS
  62
7
  10
 141.500
  20
 275.000
  30
0.0
  11
 137.000
  21
 276.000
  31
0.0
   0
LINE
   8
LEVEL001
   6
CONTINUOUS
  62
7
  10
 157.750
  20
 242.000
  30
0.0
  11
 146.750
  21
 242.000
  31
0.0
   0
LINE
   8
LEVEL001
   6
CONTINUOUS
  62
7
  10
 144.750
  20
 244.000
  30
0.0
  11
 144.750
  21
 336.000
  31
0.0
   0
ARC
   8
LEVEL001
   6
CONTINUOUS
  62
7
  10
 146.750
  20
 244.000
  30
0.0
  40
 2.00000
  50
 180.000
  51
 270.000
   0
LINE
   8
LEVEL001
   6
CONTINUOUS
  62
7
  10
 158.000
  20
 243.005
  30
0.0
  11
 158.000
  21
 337.004
  31
0.0
   0
LINE
   8
LEVEL001
   6
CONTINUOUS
  62
7
  10
 157.750
  20
 338.000
  30
0.0
  11
 157.750
  21
 242.000
  31
0.0
   0
LINE
   8
LEVEL001
   6
CONTINUOUS
  62
7
  10
 342.000
  20
 243.005
  30
0.0
  11
 342.000
  21
 337.004
  31
0.0
   0
LINE
   8
LEVEL001
   6
CONTINUOUS
  62
7
  10
 342.250
  20
 338.000
  30
0.0
  11
 342.250
  21
 242.000
  31
0.0
   0
LINE
   8
LEVEL001
   6
CONTINUOUS
  62
7
  10
 342.250
  20
 242.000
  30
0.0
  11
 353.250
  21
 242.000
  31
0.0
   0
LINE
   8
LEVEL001
   6
CONTINUOUS
  62
7
  10
 355.250
  20
 244.000
  30
0.0
  11
 355.250
  21
 336.000
  31
0.0
   0
LINE
   8
LEVEL001
   6
CONTINUOUS
  62
7
  10
 342.250
  20
 338.000
  30
0.0
  11
 353.250
  21
 338.000
  31
0.0
   0
ARC
   8
LEVEL001
   6
CONTINUOUS
  62
7
  10
 353.250
  20
 336.000
  30
0.0
  40
 2.00000
  50
0.0
  51
 90.0000
   0
ARC
   8
LEVEL001
   6
CONTINUOUS
  62
7
  10
 353.250
  20
 336.000
  30
0.0
  40
 2.00000
  50
0.0
  51
 90.0000
   0
ARC
   8
LEVEL001
   6
CONTINUOUS
  62
7
  10
 353.250
  20
 244.000
  30
0.0
  40
 2.00000
  50
 270.000
  51
0.0
   0
LINE
   8
LEVEL001
   6
CONTINUOUS
  62
7
  10
 340.148
  20
 337.034
  30
0.0
  11
 339.707
  21
 346.410
  31
0.0
   0
LINE
   8
LEVEL001
   6
CONTINUOUS
  62
7
  10
 340.858
  20
 242.867
  30
0.0
  11
 337.500
  21
 230.000
  31
0.0
   0
LINE
   8
LEVEL001
   6
CONTINUOUS
  62
7
  10
 337.500
  20
 235.876
  30
0.0
  11
 337.500
  21
 230.000
  31
0.0
   0
ARC
   8
LEVEL001
   6
CONTINUOUS
  62
7
  10
 342.024
  20
 238.005
  30
0.0
  40
 5.00000
  50
 90.2730
  51
 205.204
   0
LINE
   8
LEVEL001
   6
CONTINUOUS
  62
7
  10
 159.852
  20
 337.034
  30
0.0
  11
 160.293
  21
 346.410
  31
0.0
   0
ARC
   8
LEVEL001
   6
CONTINUOUS
  62
7
  10
 190.260
  20
 345.000
  30
0.0
  40
 30.0000
  50
 106.277
  51
 177.306
   0
LINE
   8
LEVEL001
   6
CONTINUOUS
  62
7
  10
 159.142
  20
 242.867
  30
0.0
  11
 162.500
  21
 230.000
  31
0.0
   0
LINE
   8
LEVEL001
   6
CONTINUOUS
  62
7
  10
 162.500
  20
 235.876
  30
0.0
  11
 162.500
  21
 230.000
  31
0.0
   0
ARC
   8
LEVEL001
   6
CONTINUOUS
  62
7
  10
 157.976
  20
 238.005
  30
0.0
  40
 5.00000
  50
 334.796
  51
 89.7270
   0
ARC
   8
LEVEL001
   6
CONTINUOUS
  62
7
  10
 611.500
  20
 290.000
  30
0.0
  40
 13.0000
  50
 108.321
  51
 72.1508
   0
LINE
   8
LEVEL001
   6
CONTINUOUS
  62
7
  10
 95.0000
  20
 307.000
  30
0.0
  11
 131.000
  21
 307.000
  31
0.0
   0
LINE
   8
LEVEL001
   6
CONTINUOUS
  62
7
  10
 131.000
  20
 307.000
  30
0.0
  11
 131.000
  21
 303.416
  31
0.0
   0
LINE
   8
LEVEL001
   6
CONTINUOUS
  62
7
  10
 141.500
  20
 305.000
  30
0.0
  11
 144.750
  21
 305.000
  31
0.0
   0
LINE
   8
LEVEL001
   6
CONTINUOUS
  62
7
  10
 141.500
  20
 275.000
  30
0.0
  11
 141.500
  21
 305.000
  31
0.0
   0
LINE
   8
LEVEL001
   6
CONTINUOUS
  62
7
  10
 95.0000
  20
 302.341
  30
0.0
  11
 96.0000
  21
 303.416
  31
0.0
   0
LINE
   8
LEVEL001
   6
CONTINUOUS
  62
7
  10
 96.0000
  20
 276.000
  30
0.0
  11
 96.0000
  21
 303.416
  31
0.0
   0
LINE
   8
LEVEL001
   6
CONTINUOUS
  62
7
  10
 95.0000
  20
 307.000
  30
0.0
  11
 95.0000
  21
 302.341
  31
0.0
   0
LINE
   8
LEVEL001
   6
CONTINUOUS
  62
7
  10
 96.0000
  20
 303.416
  30
0.0
  11
 137.000
  21
 303.416
  31
0.0
   0
LINE
   8
LEVEL001
   6
CONTINUOUS
  62
7
  10
 141.500
  20
 305.000
  30
0.0
  11
 137.000
  21
 303.416
  31
0.0
   0
LINE
   8
LEVEL001
   6
CONTINUOUS
  62
7
  10
 137.000
  20
 276.000
  30
0.0
  11
 137.000
  21
 303.416
  31
0.0
   0
LINE
   8
LEVEL001
   6
CONTINUOUS
  62
7
  10
 95.0000
  20
 277.000
  30
0.0
  11
 95.0000
  21
 302.341
  31
0.0
   0
LINE
   8
LEVEL001
   6
CONTINUOUS
  62
7
  10
 358.500
  20
 275.000
  30
0.0
  11
 355.250
  21
 275.000
  31
0.0
   0
LINE
   8
LEVEL001
   6
CONTINUOUS
  62
7
  10
 363.000
  20
 276.000
  30
0.0
  11
 404.000
  21
 276.000
  31
0.0
   0
LINE
   8
LEVEL001
   6
CONTINUOUS
  62
7
  10
 405.000
  20
 277.000
  30
0.0
  11
 404.000
  21
 276.000
  31
0.0
   0
LINE
   8
LEVEL001
   6
CONTINUOUS
  62
7
  10
 358.500
  20
 275.000
  30
0.0
  11
 363.000
  21
 276.000
  31
0.0
   0
LINE
   8
LEVEL001
   6
CONTINUOUS
  62
7
  10
 405.000
  20
 307.000
  30
0.0
  11
 369.000
  21
 307.000
  31
0.0
   0
LINE
   8
LEVEL001
   6
CONTINUOUS
  62
7
  10
 369.000
  20
 307.000
  30
0.0
  11
 369.000
  21
 303.416
  31
0.0
   0
LINE
   8
LEVEL001
   6
CONTINUOUS
  62
7
  10
 358.500
  20
 305.000
  30
0.0
  11
 355.250
  21
 305.000
  31
0.0
   0
LINE
   8
LEVEL001
   6
CONTINUOUS
  62
7
  10
 358.500
  20
 275.000
  30
0.0
  11
 358.500
  21
 305.000
  31
0.0
   0
LINE
   8
LEVEL001
   6
CONTINUOUS
  62
7
  10
 405.000
  20
 302.341
  30
0.0
  11
 404.000
  21
 303.416
  31
0.0
   0
LINE
   8
LEVEL001
   6
CONTINUOUS
  62
7
  10
 404.000
  20
 276.000
  30
0.0
  11
 404.000
  21
 303.416
  31
0.0
   0
LINE
   8
LEVEL001
   6
CONTINUOUS
  62
7
  10
 405.000
  20
 307.000
  30
0.0
  11
 405.000
  21
 302.341
  31
0.0
   0
LINE
   8
LEVEL001
   6
CONTINUOUS
  62
7
  10
 404.000
  20
 303.416
  30
0.0
  11
 363.000
  21
 303.416
  31
0.0
   0
LINE
   8
LEVEL001
   6
CONTINUOUS
  62
7
  10
 358.500
  20
 305.000
  30
0.0
  11
 363.000
  21
 303.416
  31
0.0
   0
LINE
   8
LEVEL001
   6
CONTINUOUS
  62
7
  10
 363.000
  20
 276.000
  30
0.0
  11
 363.000
  21
 303.416
  31
0.0
   0
LINE
   8
LEVEL001
   6
CONTINUOUS
  62
7
  10
 405.000
  20
 277.000
  30
0.0
  11
 405.000
  21
 302.341
  31
0.0
   0
LINE
   8
LEVEL001
   6
CONTINUOUS
  62
7
  10
 229.794
  20
 338.171
  30
0.0
  11
 158.000
  21
 337.004
  31
0.0
   0
LINE
   8
LEVEL001
   6
CONTINUOUS
  62
7
  10
 269.824
  20
 338.178
  30
0.0
  11
 342.000
  21
 337.004
  31
0.0
   0
LINE
   8
LEVEL001
   6
CONTINUOUS
  62
7
  10
 205.450
  20
 399.732
  30
0.0
  11
 246.000
  21
 399.732
  31
0.0
   0
LINE
   8
LEVEL001
   6
CONTINUOUS
  62
7
  10
 294.550
  20
 399.732
  30
0.0
  11
 254.000
  21
 399.732
  31
0.0
   0
LINE
   8
LEVEL001
   6
CONTINUOUS
  62
7
  10
 236.306
  20
 230.000
  30
0.0
  11
 162.500
  21
 230.000
  31
0.0
   0
ARC
   8
LEVEL001
   6
CONTINUOUS
  62
7
  10
 236.306
  20
 238.000
  30
0.0
  40
 8.00000
  50
 270.000
  51
 4.76364
   0
LINE
   8
LEVEL001
   6
CONTINUOUS
  62
7
  10
 337.500
  20
 230.000
  30
0.0
  11
 263.694
  21
 230.000
  31
0.0
   0
ARC
   8
LEVEL001
   6
CONTINUOUS
  62
7
  10
 263.694
  20
 238.000
  30
0.0
  40
 8.00000
  50
 175.236
  51
 270.000
   0
LINE
   8
LEVEL001
   6
CONTINUOUS
  62
7
  10
 323.803
  20
 240.000
  30
0.0
  11
 260.000
  21
 240.000
  31
0.0
   0
LINE
   8
LEVEL001
   6
CONTINUOUS
  62
7
  10
 240.611
  20
 287.641
  30
0.0
  11
 244.278
  21
 238.664
  31
0.0
   0
ARC
   8
LEVEL001
   6
CONTINUOUS
  62
7
  10
 232.639
  20
 286.977
  30
0.0
  40
 8.00000
  50
 4.76364
  51
 90.0000
   0
LINE
   8
LEVEL001
   6
CONTINUOUS
  62
7
  10
 259.389
  20
 287.641
  30
0.0
  11
 255.722
  21
 238.664
  31
0.0
   0
ARC
   8
LEVEL001
   6
CONTINUOUS
  62
7
  10
 267.361
  20
 286.977
  30
0.0
  40
 8.00000
  50
 90.0000
  51
 175.236
   0
LINE
   8
LEVEL001
   6
CONTINUOUS
  62
7
  10
 277.400
  20
 302.477
  30
0.0
  11
 277.391
  21
 302.557
  31
0.0
   0
LINE
   8
LEVEL001
   6
CONTINUOUS
  62
7
  10
 277.391
  20
 302.557
  30
0.0
  11
 277.364
  21
 302.637
  31
0.0
   0
LINE
   8
LEVEL001
   6
CONTINUOUS
  62
7
  10
 277.364
  20
 302.637
  30
0.0
  11
 277.318
  21
 302.715
  31
0.0
   0
LINE
   8
LEVEL001
   6
CONTINUOUS
  62
7
  10
 277.318
  20
 302.715
  30
0.0
  11
 277.255
  21
 302.792
  31
0.0
   0
LINE
   8
LEVEL001
   6
CONTINUOUS
  62
7
  10
 277.255
  20
 302.792
  30
0.0
  11
 277.175
  21
 302.866
  31
0.0
   0
LINE
   8
LEVEL001
   6
CONTINUOUS
  62
7
  10
 277.175
  20
 302.866
  30
0.0
  11
 277.078
  21
 302.937
  31
0.0
   0
LINE
   8
LEVEL001
   6
CONTINUOUS
  62
7
  10
 277.078
  20
 302.937
  30
0.0
  11
 276.966
  21
 303.004
  31
0.0
   0
LINE
   8
LEVEL001
   6
CONTINUOUS
  62
7
  10
 276.966
  20
 303.004
  30
0.0
  11
 276.839
  21
 303.068
  31
0.0
   0
LINE
   8
LEVEL001
   6
CONTINUOUS
  62
7
  10
 276.839
  20
 303.068
  30
0.0
  11
 276.697
  21
 303.127
  31
0.0
   0
LINE
   8
LEVEL001
   6
CONTINUOUS
  62
7
  10
 276.697
  20
 303.127
  30
0.0
  11
 276.543
  21
 303.181
  31
0.0
   0
LINE
   8
LEVEL001
   6
CONTINUOUS
  62
7
  10
 276.543
  20
 303.181
  30
0.0
  11
 276.377
  21
 303.230
  31
0.0
   0
LINE
   8
LEVEL001
   6
CONTINUOUS
  62
7
  10
 276.377
  20
 303.230
  30
0.0
  11
 276.200
  21
 303.273
  31
0.0
   0
LINE
   8
LEVEL001
   6
CONTINUOUS
  62
7
  10
 276.200
  20
 303.273
  30
0.0
  11
 276.014
  21
 303.310
  31
0.0
   0
LINE
   8
LEVEL001
   6
CONTINUOUS
  62
7
  10
 276.014
  20
 303.310
  30
0.0
  11
 275.821
  21
 303.340
  31
0.0
   0
LINE
   8
LEVEL001
   6
CONTINUOUS
  62
7
  10
 275.821
  20
 303.340
  30
0.0
  11
 275.621
  21
 303.365
  31
0.0
   0
LINE
   8
LEVEL001
   6
CONTINUOUS
  62
7
  10
 275.621
  20
 303.365
  30
0.0
  11
 275.417
  21
 303.382
  31
0.0
   0
LINE
   8
LEVEL001
   6
CONTINUOUS
  62
7
  10
 275.417
  20
 303.382
  30
0.0
  11
 275.209
  21
 303.392
  31
0.0
   0
LINE
   8
LEVEL001
   6
CONTINUOUS
  62
7
  10
 275.209
  20
 303.392
  30
0.0
  11
 275.000
  21
 303.396
  31
0.0
   0
LINE
   8
LEVEL001
   6
CONTINUOUS
  62
7
  10
 275.000
  20
 303.396
  30
0.0
  11
 274.791
  21
 303.392
  31
0.0
   0
LINE
   8
LEVEL001
   6
CONTINUOUS
  62
7
  10
 274.791
  20
 303.392
  30
0.0
  11
 274.583
  21
 303.382
  31
0.0
   0
LINE
   8
LEVEL001
   6
CONTINUOUS
  62
7
  10
 274.583
  20
 303.382
  30
0.0
  11
 274.379
  21
 303.365
  31
0.0
   0
LINE
   8
LEVEL001
   6
CONTINUOUS
  62
7
  10
 274.379
  20
 303.365
  30
0.0
  11
 274.179
  21
 303.340
  31
0.0
   0
LINE
   8
LEVEL001
   6
CONTINUOUS
  62
7
  10
 274.179
  20
 303.340
  30
0.0
  11
 273.986
  21
 303.310
  31
0.0
   0
LINE
   8
LEVEL001
   6
CONTINUOUS
  62
7
  10
 273.986
  20
 303.310
  30
0.0
  11
 273.800
  21
 303.273
  31
0.0
   0
LINE
   8
LEVEL001
   6
CONTINUOUS
  62
7
  10
 273.800
  20
 303.273
  30
0.0
  11
 273.623
  21
 303.230
  31
0.0
   0
LINE
   8
LEVEL001
   6
CONTINUOUS
  62
7
  10
 273.623
  20
 303.230
  30
0.0
  11
 273.457
  21
 303.181
  31
0.0
   0
LINE
   8
LEVEL001
   6
CONTINUOUS
  62
7
  10
 273.457
  20
 303.181
  30
0.0
  11
 273.303
  21
 303.127
  31
0.0
   0
LINE
   8
LEVEL001
   6
CONTINUOUS
  62
7
  10
 273.303
  20
 303.127
  30
0.0
  11
 273.161
  21
 303.068
  31
0.0
   0
LINE
   8
LEVEL001
   6
CONTINUOUS
  62
7
  10
 273.161
  20
 303.068
  30
0.0
  11
 273.034
  21
 303.004
  31
0.0
   0
LINE
   8
LEVEL001
   6
CONTINUOUS
  62
7
  10
 273.034
  20
 303.004
  30
0.0
  11
 272.922
  21
 302.937
  31
0.0
   0
LINE
   8
LEVEL001
   6
CONTINUOUS
  62
7
  10
 272.922
  20
 302.937
  30
0.0
  11
 272.825
  21
 302.866
  31
0.0
   0
LINE
   8
LEVEL001
   6
CONTINUOUS
  62
7
  10
 272.825
  20
 302.866
  30
0.0
  11
 272.745
  21
 302.792
  31
0.0
   0
LINE
   8
LEVEL001
   6
CONTINUOUS
  62
7
  10
 272.745
  20
 302.792
  30
0.0
  11
 272.682
  21
 302.715
  31
0.0
   0
LINE
   8
LEVEL001
   6
CONTINUOUS
  62
7
  10
 272.682
  20
 302.715
  30
0.0
  11
 272.636
  21
 302.637
  31
0.0
   0
LINE
   8
LEVEL001
   6
CONTINUOUS
  62
7
  10
 272.636
  20
 302.637
  30
0.0
  11
 272.609
  21
 302.557
  31
0.0
   0
LINE
   8
LEVEL001
   6
CONTINUOUS
  62
7
  10
 272.609
  20
 302.557
  30
0.0
  11
 272.600
  21
 302.477
  31
0.0
   0
LINE
   8
LEVEL001
   6
CONTINUOUS
  62
7
  10
 272.600
  20
 302.477
  30
0.0
  11
 272.609
  21
 302.397
  31
0.0
   0
LINE
   8
LEVEL001
   6
CONTINUOUS
  62
7
  10
 272.609
  20
 302.397
  30
0.0
  11
 272.636
  21
 302.318
  31
0.0
   0
LINE
   8
LEVEL001
   6
CONTINUOUS
  62
7
  10
 272.636
  20
 302.318
  30
0.0
  11
 272.682
  21
 302.240
  31
0.0
   0
LINE
   8
LEVEL001
   6
CONTINUOUS
  62
7
  10
 272.682
  20
 302.240
  30
0.0
  11
 272.745
  21
 302.163
  31
0.0
   0
LINE
   8
LEVEL001
   6
CONTINUOUS
  62
7
  10
 272.745
  20
 302.163
  30
0.0
  11
 272.825
  21
 302.089
  31
0.0
   0
LINE
   8
LEVEL001
   6
CONTINUOUS
  62
7
  10
 272.825
  20
 302.089
  30
0.0
  11
 272.922
  21
 302.018
  31
0.0
   0
LINE
   8
LEVEL001
   6
CONTINUOUS
  62
7
  10
 272.922
  20
 302.018
  30
0.0
  11
 273.034
  21
 301.951
  31
0.0
   0
LINE
   8
LEVEL001
   6
CONTINUOUS
  62
7
  10
 273.034
  20
 301.951
  30
0.0
  11
 273.161
  21
 301.887
  31
0.0
   0
LINE
   8
LEVEL001
   6
CONTINUOUS
  62
7
  10
 273.161
  20
 301.887
  30
0.0
  11
 273.303
  21
 301.828
  31
0.0
   0
LINE
   8
LEVEL001
   6
CONTINUOUS
  62
7
  10
 273.303
  20
 301.828
  30
0.0
  11
 273.457
  21
 301.774
  31
0.0
   0
LINE
   8
LEVEL001
   6
CONTINUOUS
  62
7
  10
 273.457
  20
 301.774
  30
0.0
  11
 273.623
  21
 301.725
  31
0.0
   0
LINE
   8
LEVEL001
   6
CONTINUOUS
  62
7
  10
 273.623
  20
 301.725
  30
0.0
  11
 273.800
  21
 301.682
  31
0.0
   0
LINE
   8
LEVEL001
   6
CONTINUOUS
  62
7
  10
 273.800
  20
 301.682
  30
0.0
  11
 273.986
  21
 301.645
  31
0.0
   0
LINE
   8
LEVEL001
   6
CONTINUOUS
  62
7
  10
 273.986
  20
 301.645
  30
0.0
  11
 274.179
  21
 301.614
  31
0.0
   0
LINE
   8
LEVEL001
   6
CONTINUOUS
  62
7
  10
 274.179
  20
 301.614
  30
0.0
  11
 274.379
  21
 301.590
  31
0.0
   0
LINE
   8
LEVEL001
   6
CONTINUOUS
  62
7
  10
 274.379
  20
 301.590
  30
0.0
  11
 274.583
  21
 301.573
  31
0.0
   0
LINE
   8
LEVEL001
   6
CONTINUOUS
  62
7
  10
 274.583
  20
 301.573
  30
0.0
  11
 274.791
  21
 301.562
  31
0.0
   0
LINE
   8
LEVEL001
   6
CONTINUOUS
  62
7
  10
 274.791
  20
 301.562
  30
0.0
  11
 275.000
  21
 301.559
  31
0.0
   0
LINE
   8
LEVEL001
   6
CONTINUOUS
  62
7
  10
 275.000
  20
 301.559
  30
0.0
  11
 275.209
  21
 301.562
  31
0.0
   0
LINE
   8
LEVEL001
   6
CONTINUOUS
  62
7
  10
 275.209
  20
 301.562
  30
0.0
  11
 275.417
  21
 301.573
  31
0.0
   0
LINE
   8
LEVEL001
   6
CONTINUOUS
  62
7
  10
 275.417
  20
 301.573
  30
0.0
  11
 275.621
  21
 301.590
  31
0.0
   0
LINE
   8
LEVEL001
   6
CONTINUOUS
  62
7
  10
 275.621
  20
 301.590
  30
0.0
  11
 275.821
  21
 301.614
  31
0.0
   0
LINE
   8
LEVEL001
   6
CONTINUOUS
  62
7
  10
 275.821
  20
 301.614
  30
0.0
  11
 276.014
  21
 301.645
  31
0.0
   0
LINE
   8
LEVEL001
   6
CONTINUOUS
  62
7
  10
 276.014
  20
 301.645
  30
0.0
  11
 276.200
  21
 301.682
  31
0.0
   0
LINE
   8
LEVEL001
   6
CONTINUOUS
  62
7
  10
 276.200
  20
 301.682
  30
0.0
  11
 276.377
  21
 301.725
  31
0.0
   0
LINE
   8
LEVEL001
   6
CONTINUOUS
  62
7
  10
 276.377
  20
 301.725
  30
0.0
  11
 276.543
  21
 301.774
  31
0.0
   0
LINE
   8
LEVEL001
   6
CONTINUOUS
  62
7
  10
 276.543
  20
 301.774
  30
0.0
  11
 276.697
  21
 301.828
  31
0.0
   0
LINE
   8
LEVEL001
   6
CONTINUOUS
  62
7
  10
 276.697
  20
 301.828
  30
0.0
  11
 276.839
  21
 301.887
  31
0.0
   0
LINE
   8
LEVEL001
   6
CONTINUOUS
  62
7
  10
 276.839
  20
 301.887
  30
0.0
  11
 276.966
  21
 301.951
  31
0.0
   0
LINE
   8
LEVEL001
   6
CONTINUOUS
  62
7
  10
 276.966
  20
 301.951
  30
0.0
  11
 277.078
  21
 302.018
  31
0.0
   0
LINE
   8
LEVEL001
   6
CONTINUOUS
  62
7
  10
 277.078
  20
 302.018
  30
0.0
  11
 277.175
  21
 302.089
  31
0.0
   0
LINE
   8
LEVEL001
   6
CONTINUOUS
  62
7
  10
 277.175
  20
 302.089
  30
0.0
  11
 277.255
  21
 302.163
  31
0.0
   0
LINE
   8
LEVEL001
   6
CONTINUOUS
  62
7
  10
 277.255
  20
 302.163
  30
0.0
  11
 277.318
  21
 302.240
  31
0.0
   0
LINE
   8
LEVEL001
   6
CONTINUOUS
  62
7
  10
 277.318
  20
 302.240
  30
0.0
  11
 277.364
  21
 302.318
  31
0.0
   0
LINE
   8
LEVEL001
   6
CONTINUOUS
  62
7
  10
 277.364
  20
 302.318
  30
0.0
  11
 277.391
  21
 302.397
  31
0.0
   0
LINE
   8
LEVEL001
   6
CONTINUOUS
  62
7
  10
 277.391
  20
 302.397
  30
0.0
  11
 277.400
  21
 302.477
  31
0.0
   0
LINE
   8
LEVEL001
   6
CONTINUOUS
  62
7
  10
 274.000
  20
 302.477
  30
0.0
  11
 274.001
  21
 302.461
  31
0.0
   0
LINE
   8
LEVEL001
   6
CONTINUOUS
  62
7
  10
 274.001
  20
 302.461
  30
0.0
  11
 274.004
  21
 302.444
  31
0.0
   0
LINE
   8
LEVEL001
   6
CONTINUOUS
  62
7
  10
 274.004
  20
 302.444
  30
0.0
  11
 274.009
  21
 302.427
  31
0.0
   0
LINE
   8
LEVEL001
   6
CONTINUOUS
  62
7
  10
 274.009
  20
 302.427
  30
0.0
  11
 274.015
  21
 302.411
  31
0.0
   0
LINE
   8
LEVEL001
   6
CONTINUOUS
  62
7
  10
 274.015
  20
 302.411
  30
0.0
  11
 274.024
  21
 302.395
  31
0.0
   0
LINE
   8
LEVEL001
   6
CONTINUOUS
  62
7
  10
 274.024
  20
 302.395
  30
0.0
  11
 274.034
  21
 302.378
  31
0.0
   0
LINE
   8
LEVEL001
   6
CONTINUOUS
  62
7
  10
 274.034
  20
 302.378
  30
0.0
  11
 274.046
  21
 302.362
  31
0.0
   0
LINE
   8
LEVEL001
   6
CONTINUOUS
  62
7
  10
 274.046
  20
 302.362
  30
0.0
  11
 274.060
  21
 302.347
  31
0.0
   0
LINE
   8
LEVEL001
   6
CONTINUOUS
  62
7
  10
 274.060
  20
 302.347
  30
0.0
  11
 274.076
  21
 302.331
  31
0.0
   0
LINE
   8
LEVEL001
   6
CONTINUOUS
  62
7
  10
 274.076
  20
 302.331
  30
0.0
  11
 274.094
  21
 302.316
  31
0.0
   0
LINE
   8
LEVEL001
   6
CONTINUOUS
  62
7
  10
 274.094
  20
 302.316
  30
0.0
  11
 274.113
  21
 302.301
  31
0.0
   0
LINE
   8
LEVEL001
   6
CONTINUOUS
  62
7
  10
 274.113
  20
 302.301
  30
0.0
  11
 274.134
  21
 302.286
  31
0.0
   0
LINE
   8
LEVEL001
   6
CONTINUOUS
  62
7
  10
 274.134
  20
 302.286
  30
0.0
  11
 274.157
  21
 302.272
  31
0.0
   0
LINE
   8
LEVEL001
   6
CONTINUOUS
  62
7
  10
 274.157
  20
 302.272
  30
0.0
  11
 274.181
  21
 302.258
  31
0.0
   0
LINE
   8
LEVEL001
   6
CONTINUOUS
  62
7
  10
 274.181
  20
 302.258
  30
0.0
  11
 274.207
  21
 302.244
  31
0.0
   0
LINE
   8
LEVEL001
   6
CONTINUOUS
  62
7
  10
 274.207
  20
 302.244
  30
0.0
  11
 274.234
  21
 302.231
  31
0.0
   0
LINE
   8
LEVEL001
   6
CONTINUOUS
  62
7
  10
 274.234
  20
 302.231
  30
0.0
  11
 274.263
  21
 302.219
  31
0.0
   0
LINE
   8
LEVEL001
   6
CONTINUOUS
  62
7
  10
 274.263
  20
 302.219
  30
0.0
  11
 274.293
  21
 302.207
  31
0.0
   0
LINE
   8
LEVEL001
   6
CONTINUOUS
  62
7
  10
 274.293
  20
 302.207
  30
0.0
  11
 274.324
  21
 302.195
  31
0.0
   0
LINE
   8
LEVEL001
   6
CONTINUOUS
  62
7
  10
 274.324
  20
 302.195
  30
0.0
  11
 274.357
  21
 302.184
  31
0.0
   0
LINE
   8
LEVEL001
   6
CONTINUOUS
  62
7
  10
 274.357
  20
 302.184
  30
0.0
  11
 274.391
  21
 302.174
  31
0.0
   0
LINE
   8
LEVEL001
   6
CONTINUOUS
  62
7
  10
 274.391
  20
 302.174
  30
0.0
  11
 274.426
  21
 302.164
  31
0.0
   0
LINE
   8
LEVEL001
   6
CONTINUOUS
  62
7
  10
 274.426
  20
 302.164
  30
0.0
  11
 274.463
  21
 302.155
  31
0.0
   0
LINE
   8
LEVEL001
   6
CONTINUOUS
  62
7
  10
 274.463
  20
 302.155
  30
0.0
  11
 274.500
  21
 302.146
  31
0.0
   0
LINE
   8
LEVEL001
   6
CONTINUOUS
  62
7
  10
 274.500
  20
 302.146
  30
0.0
  11
 274.538
  21
 302.138
  31
0.0
   0
LINE
   8
LEVEL001
   6
CONTINUOUS
  62
7
  10
 274.538
  20
 302.138
  30
0.0
  11
 274.577
  21
 302.131
  31
0.0
   0
LINE
   8
LEVEL001
   6
CONTINUOUS
  62
7
  10
 274.577
  20
 302.131
  30
0.0
  11
 274.617
  21
 302.124
  31
0.0
   0
LINE
   8
LEVEL001
   6
CONTINUOUS
  62
7
  10
 274.617
  20
 302.124
  30
0.0
  11
 274.658
  21
 302.118
  31
0.0
   0
LINE
   8
LEVEL001
   6
CONTINUOUS
  62
7
  10
 274.658
  20
 302.118
  30
0.0
  11
 274.699
  21
 302.112
  31
0.0
   0
LINE
   8
LEVEL001
   6
CONTINUOUS
  62
7
  10
 274.699
  20
 302.112
  30
0.0
  11
 274.741
  21
 302.108
  31
0.0
   0
LINE
   8
LEVEL001
   6
CONTINUOUS
  62
7
  10
 274.741
  20
 302.108
  30
0.0
  11
 274.784
  21
 302.104
  31
0.0
   0
LINE
   8
LEVEL001
   6
CONTINUOUS
  62
7
  10
 274.784
  20
 302.104
  30
0.0
  11
 274.826
  21
 302.101
  31
0.0
   0
LINE
   8
LEVEL001
   6
CONTINUOUS
  62
7
  10
 274.826
  20
 302.101
  30
0.0
  11
 274.869
  21
 302.098
  31
0.0
   0
LINE
   8
LEVEL001
   6
CONTINUOUS
  62
7
  10
 274.869
  20
 302.098
  30
0.0
  11
 274.913
  21
 302.096
  31
0.0
   0
LINE
   8
LEVEL001
   6
CONTINUOUS
  62
7
  10
 274.913
  20
 302.096
  30
0.0
  11
 274.956
  21
 302.095
  31
0.0
   0
LINE
   8
LEVEL001
   6
CONTINUOUS
  62
7
  10
 274.956
  20
 302.095
  30
0.0
  11
 275.000
  21
 302.095
  31
0.0
   0
LINE
   8
LEVEL001
   6
CONTINUOUS
  62
7
  10
 275.000
  20
 302.095
  30
0.0
  11
 275.044
  21
 302.095
  31
0.0
   0
LINE
   8
LEVEL001
   6
CONTINUOUS
  62
7
  10
 275.044
  20
 302.095
  30
0.0
  11
 275.087
  21
 302.096
  31
0.0
   0
LINE
   8
LEVEL001
   6
CONTINUOUS
  62
7
  10
 275.087
  20
 302.096
  30
0.0
  11
 275.131
  21
 302.098
  31
0.0
   0
LINE
   8
LEVEL001
   6
CONTINUOUS
  62
7
  10
 275.131
  20
 302.098
  30
0.0
  11
 275.174
  21
 302.101
  31
0.0
   0
LINE
   8
LEVEL001
   6
CONTINUOUS
  62
7
  10
 275.174
  20
 302.101
  30
0.0
  11
 275.216
  21
 302.104
  31
0.0
   0
LINE
   8
LEVEL001
   6
CONTINUOUS
  62
7
  10
 275.216
  20
 302.104
  30
0.0
  11
 275.259
  21
 302.108
  31
0.0
   0
LINE
   8
LEVEL001
   6
CONTINUOUS
  62
7
  10
 275.259
  20
 302.108
  30
0.0
  11
 275.301
  21
 302.112
  31
0.0
   0
LINE
   8
LEVEL001
   6
CONTINUOUS
  62
7
  10
 275.301
  20
 302.112
  30
0.0
  11
 275.342
  21
 302.118
  31
0.0
   0
LINE
   8
LEVEL001
   6
CONTINUOUS
  62
7
  10
 275.342
  20
 302.118
  30
0.0
  11
 275.383
  21
 302.124
  31
0.0
   0
LINE
   8
LEVEL001
   6
CONTINUOUS
  62
7
  10
 275.383
  20
 302.124
  30
0.0
  11
 275.423
  21
 302.131
  31
0.0
   0
LINE
   8
LEVEL001
   6
CONTINUOUS
  62
7
  10
 275.423
  20
 302.131
  30
0.0
  11
 275.462
  21
 302.138
  31
0.0
   0
LINE
   8
LEVEL001
   6
CONTINUOUS
  62
7
  10
 275.462
  20
 302.138
  30
0.0
  11
 275.500
  21
 302.146
  31
0.0
   0
LINE
   8
LEVEL001
   6
CONTINUOUS
  62
7
  10
 275.500
  20
 302.146
  30
0.0
  11
 275.537
  21
 302.155
  31
0.0
   0
LINE
   8
LEVEL001
   6
CONTINUOUS
  62
7
  10
 275.537
  20
 302.155
  30
0.0
  11
 275.574
  21
 302.164
  31
0.0
   0
LINE
   8
LEVEL001
   6
CONTINUOUS
  62
7
  10
 275.574
  20
 302.164
  30
0.0
  11
 275.609
  21
 302.174
  31
0.0
   0
LINE
   8
LEVEL001
   6
CONTINUOUS
  62
7
  10
 275.609
  20
 302.174
  30
0.0
  11
 275.643
  21
 302.184
  31
0.0
   0
LINE
   8
LEVEL001
   6
CONTINUOUS
  62
7
  10
 275.643
  20
 302.184
  30
0.0
  11
 275.676
  21
 302.195
  31
0.0
   0
LINE
   8
LEVEL001
   6
CONTINUOUS
  62
7
  10
 275.676
  20
 302.195
  30
0.0
  11
 275.707
  21
 302.207
  31
0.0
   0
LINE
   8
LEVEL001
   6
CONTINUOUS
  62
7
  10
 275.707
  20
 302.207
  30
0.0
  11
 275.737
  21
 302.219
  31
0.0
   0
LINE
   8
LEVEL001
   6
CONTINUOUS
  62
7
  10
 275.737
  20
 302.219
  30
0.0
  11
 275.766
  21
 302.231
  31
0.0
   0
LINE
   8
LEVEL001
   6
CONTINUOUS
  62
7
  10
 275.766
  20
 302.231
  30
0.0
  11
 275.793
  21
 302.244
  31
0.0
   0
LINE
   8
LEVEL001
   6
CONTINUOUS
  62
7
  10
 275.793
  20
 302.244
  30
0.0
  11
 275.819
  21
 302.258
  31
0.0
   0
LINE
   8
LEVEL001
   6
CONTINUOUS
  62
7
  10
 275.819
  20
 302.258
  30
0.0
  11
 275.843
  21
 302.272
  31
0.0
   0
LINE
   8
LEVEL001
   6
CONTINUOUS
  62
7
  10
 275.843
  20
 302.272
  30
0.0
  11
 275.866
  21
 302.286
  31
0.0
   0
LINE
   8
LEVEL001
   6
CONTINUOUS
  62
7
  10
 275.866
  20
 302.286
  30
0.0
  11
 275.887
  21
 302.301
  31
0.0
   0
LINE
   8
LEVEL001
   6
CONTINUOUS
  62
7
  10
 275.887
  20
 302.301
  30
0.0
  11
 275.906
  21
 302.316
  31
0.0
   0
LINE
   8
LEVEL001
   6
CONTINUOUS
  62
7
  10
 275.906
  20
 302.316
  30
0.0
  11
 275.924
  21
 302.331
  31
0.0
   0
LINE
   8
LEVEL001
   6
CONTINUOUS
  62
7
  10
 275.924
  20
 302.331
  30
0.0
  11
 275.940
  21
 302.347
  31
0.0
   0
LINE
   8
LEVEL001
   6
CONTINUOUS
  62
7
  10
 275.940
  20
 302.347
  30
0.0
  11
 275.954
  21
 302.362
  31
0.0
   0
LINE
   8
LEVEL001
   6
CONTINUOUS
  62
7
  10
 275.954
  20
 302.362
  30
0.0
  11
 275.966
  21
 302.378
  31
0.0
   0
LINE
   8
LEVEL001
   6
CONTINUOUS
  62
7
  10
 275.966
  20
 302.378
  30
0.0
  11
 275.976
  21
 302.395
  31
0.0
   0
LINE
   8
LEVEL001
   6
CONTINUOUS
  62
7
  10
 275.976
  20
 302.395
  30
0.0
  11
 275.985
  21
 302.411
  31
0.0
   0
LINE
   8
LEVEL001
   6
CONTINUOUS
  62
7
  10
 275.985
  20
 302.411
  30
0.0
  11
 275.991
  21
 302.427
  31
0.0
   0
LINE
   8
LEVEL001
   6
CONTINUOUS
  62
7
  10
 275.991
  20
 302.427
  30
0.0
  11
 275.996
  21
 302.444
  31
0.0
   0
LINE
   8
LEVEL001
   6
CONTINUOUS
  62
7
  10
 275.996
  20
 302.444
  30
0.0
  11
 275.999
  21
 302.461
  31
0.0
   0
LINE
   8
LEVEL001
   6
CONTINUOUS
  62
7
  10
 275.999
  20
 302.461
  30
0.0
  11
 276.000
  21
 302.477
  31
0.0
   0
ARC
   8
LEVEL001
   6
CONTINUOUS
  62
7
  10
 275.000
  20
 302.249
  30
0.0
  40
 1.00000
  50
 11.9426
  51
 167.156
   0
LINE
   8
LEVEL001
   6
CONTINUOUS
  62
7
  10
 271.700
  20
 299.983
  30
0.0
  11
 271.703
  21
 299.928
  31
0.0
   0
LINE
   8
LEVEL001
   6
CONTINUOUS
  62
7
  10
 271.703
  20
 299.928
  30
0.0
  11
 271.713
  21
 299.873
  31
0.0
   0
LINE
   8
LEVEL001
   6
CONTINUOUS
  62
7
  10
 271.713
  20
 299.873
  30
0.0
  11
 271.728
  21
 299.819
  31
0.0
   0
LINE
   8
LEVEL001
   6
CONTINUOUS
  62
7
  10
 271.728
  20
 299.819
  30
0.0
  11
 271.750
  21
 299.764
  31
0.0
   0
LINE
   8
LEVEL001
   6
CONTINUOUS
  62
7
  10
 271.750
  20
 299.764
  30
0.0
  11
 271.778
  21
 299.710
  31
0.0
   0
LINE
   8
LEVEL001
   6
CONTINUOUS
  62
7
  10
 271.778
  20
 299.710
  30
0.0
  11
 271.812
  21
 299.657
  31
0.0
   0
LINE
   8
LEVEL001
   6
CONTINUOUS
  62
7
  10
 271.812
  20
 299.657
  30
0.0
  11
 271.853
  21
 299.604
  31
0.0
   0
LINE
   8
LEVEL001
   6
CONTINUOUS
  62
7
  10
 271.853
  20
 299.604
  30
0.0
  11
 271.899
  21
 299.552
  31
0.0
   0
LINE
   8
LEVEL001
   6
CONTINUOUS
  62
7
  10
 271.899
  20
 299.552
  30
0.0
  11
 271.951
  21
 299.500
  31
0.0
   0
LINE
   8
LEVEL001
   6
CONTINUOUS
  62
7
  10
 271.951
  20
 299.500
  30
0.0
  11
 272.009
  21
 299.450
  31
0.0
   0
LINE
   8
LEVEL001
   6
CONTINUOUS
  62
7
  10
 272.009
  20
 299.450
  30
0.0
  11
 272.073
  21
 299.400
  31
0.0
   0
LINE
   8
LEVEL001
   6
CONTINUOUS
  62
7
  10
 272.073
  20
 299.400
  30
0.0
  11
 272.142
  21
 299.352
  31
0.0
   0
LINE
   8
LEVEL001
   6
CONTINUOUS
  62
7
  10
 272.142
  20
 299.352
  30
0.0
  11
 272.217
  21
 299.305
  31
0.0
   0
LINE
   8
LEVEL001
   6
CONTINUOUS
  62
7
  10
 272.217
  20
 299.305
  30
0.0
  11
 272.297
  21
 299.259
  31
0.0
   0
LINE
   8
LEVEL001
   6
CONTINUOUS
  62
7
  10
 272.297
  20
 299.259
  30
0.0
  11
 272.382
  21
 299.215
  31
0.0
   0
LINE
   8
LEVEL001
   6
CONTINUOUS
  62
7
  10
 272.382
  20
 299.215
  30
0.0
  11
 272.472
  21
 299.172
  31
0.0
   0
LINE
   8
LEVEL001
   6
CONTINUOUS
  62
7
  10
 272.472
  20
 299.172
  30
0.0
  11
 272.567
  21
 299.130
  31
0.0
   0
LINE
   8
LEVEL001
   6
CONTINUOUS
  62
7
  10
 272.567
  20
 299.130
  30
0.0
  11
 272.667
  21
 299.091
  31
0.0
   0
LINE
   8
LEVEL001
   6
CONTINUOUS
  62
7
  10
 272.667
  20
 299.091
  30
0.0
  11
 272.771
  21
 299.052
  31
0.0
   0
LINE
   8
LEVEL001
   6
CONTINUOUS
  62
7
  10
 272.771
  20
 299.052
  30
0.0
  11
 272.879
  21
 299.016
  31
0.0
   0
LINE
   8
LEVEL001
   6
CONTINUOUS
  62
7
  10
 272.879
  20
 299.016
  30
0.0
  11
 272.991
  21
 298.982
  31
0.0
   0
LINE
   8
LEVEL001
   6
CONTINUOUS
  62
7
  10
 272.991
  20
 298.982
  30
0.0
  11
 273.107
  21
 298.949
  31
0.0
   0
LINE
   8
LEVEL001
   6
CONTINUOUS
  62
7
  10
 273.107
  20
 298.949
  30
0.0
  11
 273.227
  21
 298.918
  31
0.0
   0
LINE
   8
LEVEL001
   6
CONTINUOUS
  62
7
  10
 273.227
  20
 298.918
  30
0.0
  11
 273.350
  21
 298.890
  31
0.0
   0
LINE
   8
LEVEL001
   6
CONTINUOUS
  62
7
  10
 273.350
  20
 298.890
  30
0.0
  11
 273.476
  21
 298.863
  31
0.0
   0
LINE
   8
LEVEL001
   6
CONTINUOUS
  62
7
  10
 273.476
  20
 298.863
  30
0.0
  11
 273.605
  21
 298.839
  31
0.0
   0
LINE
   8
LEVEL001
   6
CONTINUOUS
  62
7
  10
 273.605
  20
 298.839
  30
0.0
  11
 273.737
  21
 298.817
  31
0.0
   0
LINE
   8
LEVEL001
   6
CONTINUOUS
  62
7
  10
 273.737
  20
 298.817
  30
0.0
  11
 273.871
  21
 298.797
  31
0.0
   0
LINE
   8
LEVEL001
   6
CONTINUOUS
  62
7
  10
 273.871
  20
 298.797
  30
0.0
  11
 274.008
  21
 298.779
  31
0.0
   0
LINE
   8
LEVEL001
   6
CONTINUOUS
  62
7
  10
 274.008
  20
 298.779
  30
0.0
  11
 274.146
  21
 298.764
  31
0.0
   0
LINE
   8
LEVEL001
   6
CONTINUOUS
  62
7
  10
 274.146
  20
 298.764
  30
0.0
  11
 274.286
  21
 298.751
  31
0.0
   0
LINE
   8
LEVEL001
   6
CONTINUOUS
  62
7
  10
 274.286
  20
 298.751
  30
0.0
  11
 274.427
  21
 298.740
  31
0.0
   0
LINE
   8
LEVEL001
   6
CONTINUOUS
  62
7
  10
 274.427
  20
 298.740
  30
0.0
  11
 274.569
  21
 298.731
  31
0.0
   0
LINE
   8
LEVEL001
   6
CONTINUOUS
  62
7
  10
 274.569
  20
 298.731
  30
0.0
  11
 274.712
  21
 298.725
  31
0.0
   0
LINE
   8
LEVEL001
   6
CONTINUOUS
  62
7
  10
 274.712
  20
 298.725
  30
0.0
  11
 274.856
  21
 298.722
  31
0.0
   0
LINE
   8
LEVEL001
   6
CONTINUOUS
  62
7
  10
 274.856
  20
 298.722
  30
0.0
  11
 275.000
  21
 298.721
  31
0.0
   0
LINE
   8
LEVEL001
   6
CONTINUOUS
  62
7
  10
 275.000
  20
 298.721
  30
0.0
  11
 275.144
  21
 298.722
  31
0.0
   0
LINE
   8
LEVEL001
   6
CONTINUOUS
  62
7
  10
 275.144
  20
 298.722
  30
0.0
  11
 275.288
  21
 298.725
  31
0.0
   0
LINE
   8
LEVEL001
   6
CONTINUOUS
  62
7
  10
 275.288
  20
 298.725
  30
0.0
  11
 275.431
  21
 298.731
  31
0.0
   0
LINE
   8
LEVEL001
   6
CONTINUOUS
  62
7
  10
 275.431
  20
 298.731
  30
0.0
  11
 275.573
  21
 298.740
  31
0.0
   0
LINE
   8
LEVEL001
   6
CONTINUOUS
  62
7
  10
 275.573
  20
 298.740
  30
0.0
  11
 275.714
  21
 298.751
  31
0.0
   0
LINE
   8
LEVEL001
   6
CONTINUOUS
  62
7
  10
 275.714
  20
 298.751
  30
0.0
  11
 275.854
  21
 298.764
  31
0.0
   0
LINE
   8
LEVEL001
   6
CONTINUOUS
  62
7
  10
 275.854
  20
 298.764
  30
0.0
  11
 275.992
  21
 298.779
  31
0.0
   0
LINE
   8
LEVEL001
   6
CONTINUOUS
  62
7
  10
 275.992
  20
 298.779
  30
0.0
  11
 276.129
  21
 298.797
  31
0.0
   0
LINE
   8
LEVEL001
   6
CONTINUOUS
  62
7
  10
 276.129
  20
 298.797
  30
0.0
  11
 276.263
  21
 298.817
  31
0.0
   0
LINE
   8
LEVEL001
   6
CONTINUOUS
  62
7
  10
 276.263
  20
 298.817
  30
0.0
  11
 276.395
  21
 298.839
  31
0.0
   0
LINE
   8
LEVEL001
   6
CONTINUOUS
  62
7
  10
 276.395
  20
 298.839
  30
0.0
  11
 276.524
  21
 298.863
  31
0.0
   0
LINE
   8
LEVEL001
   6
CONTINUOUS
  62
7
  10
 276.524
  20
 298.863
  30
0.0
  11
 276.650
  21
 298.890
  31
0.0
   0
LINE
   8
LEVEL001
   6
CONTINUOUS
  62
7
  10
 276.650
  20
 298.890
  30
0.0
  11
 276.773
  21
 298.918
  31
0.0
   0
LINE
   8
LEVEL001
   6
CONTINUOUS
  62
7
  10
 276.773
  20
 298.918
  30
0.0
  11
 276.893
  21
 298.949
  31
0.0
   0
LINE
   8
LEVEL001
   6
CONTINUOUS
  62
7
  10
 276.893
  20
 298.949
  30
0.0
  11
 277.009
  21
 298.982
  31
0.0
   0
LINE
   8
LEVEL001
   6
CONTINUOUS
  62
7
  10
 277.009
  20
 298.982
  30
0.0
  11
 277.121
  21
 299.016
  31
0.0
   0
LINE
   8
LEVEL001
   6
CONTINUOUS
  62
7
  10
 277.121
  20
 299.016
  30
0.0
  11
 277.229
  21
 299.052
  31
0.0
   0
LINE
   8
LEVEL001
   6
CONTINUOUS
  62
7
  10
 277.229
  20
 299.052
  30
0.0
  11
 277.333
  21
 299.091
  31
0.0
   0
LINE
   8
LEVEL001
   6
CONTINUOUS
  62
7
  10
 277.333
  20
 299.091
  30
0.0
  11
 277.433
  21
 299.130
  31
0.0
   0
LINE
   8
LEVEL001
   6
CONTINUOUS
  62
7
  10
 277.433
  20
 299.130
  30
0.0
  11
 277.528
  21
 299.172
  31
0.0
   0
LINE
   8
LEVEL001
   6
CONTINUOUS
  62
7
  10
 277.528
  20
 299.172
  30
0.0
  11
 277.618
  21
 299.215
  31
0.0
   0
LINE
   8
LEVEL001
   6
CONTINUOUS
  62
7
  10
 277.618
  20
 299.215
  30
0.0
  11
 277.703
  21
 299.259
  31
0.0
   0
LINE
   8
LEVEL001
   6
CONTINUOUS
  62
7
  10
 277.703
  20
 299.259
  30
0.0
  11
 277.783
  21
 299.305
  31
0.0
   0
LINE
   8
LEVEL001
   6
CONTINUOUS
  62
7
  10
 277.783
  20
 299.305
  30
0.0
  11
 277.858
  21
 299.352
  31
0.0
   0
LINE
   8
LEVEL001
   6
CONTINUOUS
  62
7
  10
 277.858
  20
 299.352
  30
0.0
  11
 277.927
  21
 299.400
  31
0.0
   0
LINE
   8
LEVEL001
   6
CONTINUOUS
  62
7
  10
 277.927
  20
 299.400
  30
0.0
  11
 277.991
  21
 299.450
  31
0.0
   0
LINE
   8
LEVEL001
   6
CONTINUOUS
  62
7
  10
 277.991
  20
 299.450
  30
0.0
  11
 278.049
  21
 299.500
  31
0.0
   0
LINE
   8
LEVEL001
   6
CONTINUOUS
  62
7
  10
 278.049
  20
 299.500
  30
0.0
  11
 278.101
  21
 299.552
  31
0.0
   0
LINE
   8
LEVEL001
   6
CONTINUOUS
  62
7
  10
 278.101
  20
 299.552
  30
0.0
  11
 278.147
  21
 299.604
  31
0.0
   0
LINE
   8
LEVEL001
   6
CONTINUOUS
  62
7
  10
 278.147
  20
 299.604
  30
0.0
  11
 278.188
  21
 299.657
  31
0.0
   0
LINE
   8
LEVEL001
   6
CONTINUOUS
  62
7
  10
 278.188
  20
 299.657
  30
0.0
  11
 278.222
  21
 299.710
  31
0.0
   0
LINE
   8
LEVEL001
   6
CONTINUOUS
  62
7
  10
 278.222
  20
 299.710
  30
0.0
  11
 278.250
  21
 299.764
  31
0.0
   0
LINE
   8
LEVEL001
   6
CONTINUOUS
  62
7
  10
 278.250
  20
 299.764
  30
0.0
  11
 278.272
  21
 299.819
  31
0.0
   0
LINE
   8
LEVEL001
   6
CONTINUOUS
  62
7
  10
 278.272
  20
 299.819
  30
0.0
  11
 278.287
  21
 299.873
  31
0.0
   0
LINE
   8
LEVEL001
   6
CONTINUOUS
  62
7
  10
 278.287
  20
 299.873
  30
0.0
  11
 278.297
  21
 299.928
  31
0.0
   0
LINE
   8
LEVEL001
   6
CONTINUOUS
  62
7
  10
 278.297
  20
 299.928
  30
0.0
  11
 278.300
  21
 299.983
  31
0.0
   0
LINE
   8
LEVEL001
   6
CONTINUOUS
  62
7
  10
 271.700
  20
 299.983
  30
0.0
  11
 272.602
  21
 302.517
  31
0.0
   0
LINE
   8
LEVEL001
   6
CONTINUOUS
  62
7
  10
 278.297
  20
 299.928
  30
0.0
  11
 277.391
  21
 302.557
  31
0.0
   0
LINE
   8
LEVEL001
   6
CONTINUOUS
  62
7
  10
 272.120
  20
 298.334
  30
0.0
  11
 272.123
  21
 298.286
  31
0.0
   0
LINE
   8
LEVEL001
   6
CONTINUOUS
  62
7
  10
 272.123
  20
 298.286
  30
0.0
  11
 272.131
  21
 298.238
  31
0.0
   0
LINE
   8
LEVEL001
   6
CONTINUOUS
  62
7
  10
 272.131
  20
 298.238
  30
0.0
  11
 272.145
  21
 298.190
  31
0.0
   0
LINE
   8
LEVEL001
   6
CONTINUOUS
  62
7
  10
 272.145
  20
 298.190
  30
0.0
  11
 272.164
  21
 298.142
  31
0.0
   0
LINE
   8
LEVEL001
   6
CONTINUOUS
  62
7
  10
 272.164
  20
 298.142
  30
0.0
  11
 272.188
  21
 298.095
  31
0.0
   0
LINE
   8
LEVEL001
   6
CONTINUOUS
  62
7
  10
 272.188
  20
 298.095
  30
0.0
  11
 272.218
  21
 298.048
  31
0.0
   0
LINE
   8
LEVEL001
   6
CONTINUOUS
  62
7
  10
 272.218
  20
 298.048
  30
0.0
  11
 272.253
  21
 298.002
  31
0.0
   0
LINE
   8
LEVEL001
   6
CONTINUOUS
  62
7
  10
 272.253
  20
 298.002
  30
0.0
  11
 272.294
  21
 297.957
  31
0.0
   0
LINE
   8
LEVEL001
   6
CONTINUOUS
  62
7
  10
 272.294
  20
 297.957
  30
0.0
  11
 272.339
  21
 297.912
  31
0.0
   0
LINE
   8
LEVEL001
   6
CONTINUOUS
  62
7
  10
 272.339
  20
 297.912
  30
0.0
  11
 272.390
  21
 297.868
  31
0.0
   0
LINE
   8
LEVEL001
   6
CONTINUOUS
  62
7
  10
 272.390
  20
 297.868
  30
0.0
  11
 272.445
  21
 297.825
  31
0.0
   0
LINE
   8
LEVEL001
   6
CONTINUOUS
  62
7
  10
 272.445
  20
 297.825
  30
0.0
  11
 272.506
  21
 297.783
  31
0.0
   0
LINE
   8
LEVEL001
   6
CONTINUOUS
  62
7
  10
 272.506
  20
 297.783
  30
0.0
  11
 272.571
  21
 297.741
  31
0.0
   0
LINE
   8
LEVEL001
   6
CONTINUOUS
  62
7
  10
 272.571
  20
 297.741
  30
0.0
  11
 272.641
  21
 297.701
  31
0.0
   0
LINE
   8
LEVEL001
   6
CONTINUOUS
  62
7
  10
 272.641
  20
 297.701
  30
0.0
  11
 272.715
  21
 297.663
  31
0.0
   0
LINE
   8
LEVEL001
   6
CONTINUOUS
  62
7
  10
 272.715
  20
 297.663
  30
0.0
  11
 272.794
  21
 297.625
  31
0.0
   0
LINE
   8
LEVEL001
   6
CONTINUOUS
  62
7
  10
 272.794
  20
 297.625
  30
0.0
  11
 272.877
  21
 297.589
  31
0.0
   0
LINE
   8
LEVEL001
   6
CONTINUOUS
  62
7
  10
 272.877
  20
 297.589
  30
0.0
  11
 272.964
  21
 297.554
  31
0.0
   0
LINE
   8
LEVEL001
   6
CONTINUOUS
  62
7
  10
 272.964
  20
 297.554
  30
0.0
  11
 273.054
  21
 297.521
  31
0.0
   0
LINE
   8
LEVEL001
   6
CONTINUOUS
  62
7
  10
 273.054
  20
 297.521
  30
0.0
  11
 273.149
  21
 297.489
  31
0.0
   0
LINE
   8
LEVEL001
   6
CONTINUOUS
  62
7
  10
 273.149
  20
 297.489
  30
0.0
  11
 273.247
  21
 297.459
  31
0.0
   0
LINE
   8
LEVEL001
   6
CONTINUOUS
  62
7
  10
 273.247
  20
 297.459
  30
0.0
  11
 273.348
  21
 297.431
  31
0.0
   0
LINE
   8
LEVEL001
   6
CONTINUOUS
  62
7
  10
 273.348
  20
 297.431
  30
0.0
  11
 273.453
  21
 297.404
  31
0.0
   0
LINE
   8
LEVEL001
   6
CONTINUOUS
  62
7
  10
 273.453
  20
 297.404
  30
0.0
  11
 273.560
  21
 297.379
  31
0.0
   0
LINE
   8
LEVEL001
   6
CONTINUOUS
  62
7
  10
 273.560
  20
 297.379
  30
0.0
  11
 273.670
  21
 297.356
  31
0.0
   0
LINE
   8
LEVEL001
   6
CONTINUOUS
  62
7
  10
 273.670
  20
 297.356
  30
0.0
  11
 273.783
  21
 297.335
  31
0.0
   0
LINE
   8
LEVEL001
   6
CONTINUOUS
  62
7
  10
 273.783
  20
 297.335
  30
0.0
  11
 273.898
  21
 297.315
  31
0.0
   0
LINE
   8
LEVEL001
   6
CONTINUOUS
  62
7
  10
 273.898
  20
 297.315
  30
0.0
  11
 274.015
  21
 297.298
  31
0.0
   0
LINE
   8
LEVEL001
   6
CONTINUOUS
  62
7
  10
 274.015
  20
 297.298
  30
0.0
  11
 274.134
  21
 297.283
  31
0.0
   0
LINE
   8
LEVEL001
   6
CONTINUOUS
  62
7
  10
 274.134
  20
 297.283
  30
0.0
  11
 274.255
  21
 297.269
  31
0.0
   0
LINE
   8
LEVEL001
   6
CONTINUOUS
  62
7
  10
 274.255
  20
 297.269
  30
0.0
  11
 274.377
  21
 297.258
  31
0.0
   0
LINE
   8
LEVEL001
   6
CONTINUOUS
  62
7
  10
 274.377
  20
 297.258
  30
0.0
  11
 274.500
  21
 297.248
  31
0.0
   0
LINE
   8
LEVEL001
   6
CONTINUOUS
  62
7
  10
 274.500
  20
 297.248
  30
0.0
  11
 274.624
  21
 297.241
  31
0.0
   0
LINE
   8
LEVEL001
   6
CONTINUOUS
  62
7
  10
 274.624
  20
 297.241
  30
0.0
  11
 274.749
  21
 297.236
  31
0.0
   0
LINE
   8
LEVEL001
   6
CONTINUOUS
  62
7
  10
 274.749
  20
 297.236
  30
0.0
  11
 274.874
  21
 297.233
  31
0.0
   0
LINE
   8
LEVEL001
   6
CONTINUOUS
  62
7
  10
 274.874
  20
 297.233
  30
0.0
  11
 275.000
  21
 297.232
  31
0.0
   0
LINE
   8
LEVEL001
   6
CONTINUOUS
  62
7
  10
 275.000
  20
 297.232
  30
0.0
  11
 275.126
  21
 297.233
  31
0.0
   0
LINE
   8
LEVEL001
   6
CONTINUOUS
  62
7
  10
 275.126
  20
 297.233
  30
0.0
  11
 275.251
  21
 297.236
  31
0.0
   0
LINE
   8
LEVEL001
   6
CONTINUOUS
  62
7
  10
 275.251
  20
 297.236
  30
0.0
  11
 275.376
  21
 297.241
  31
0.0
   0
LINE
   8
LEVEL001
   6
CONTINUOUS
  62
7
  10
 275.376
  20
 297.241
  30
0.0
  11
 275.500
  21
 297.248
  31
0.0
   0
LINE
   8
LEVEL001
   6
CONTINUOUS
  62
7
  10
 275.500
  20
 297.248
  30
0.0
  11
 275.623
  21
 297.258
  31
0.0
   0
LINE
   8
LEVEL001
   6
CONTINUOUS
  62
7
  10
 275.623
  20
 297.258
  30
0.0
  11
 275.745
  21
 297.269
  31
0.0
   0
LINE
   8
LEVEL001
   6
CONTINUOUS
  62
7
  10
 275.745
  20
 297.269
  30
0.0
  11
 275.866
  21
 297.283
  31
0.0
   0
LINE
   8
LEVEL001
   6
CONTINUOUS
  62
7
  10
 275.866
  20
 297.283
  30
0.0
  11
 275.985
  21
 297.298
  31
0.0
   0
LINE
   8
LEVEL001
   6
CONTINUOUS
  62
7
  10
 275.985
  20
 297.298
  30
0.0
  11
 276.102
  21
 297.315
  31
0.0
   0
LINE
   8
LEVEL001
   6
CONTINUOUS
  62
7
  10
 276.102
  20
 297.315
  30
0.0
  11
 276.217
  21
 297.335
  31
0.0
   0
LINE
   8
LEVEL001
   6
CONTINUOUS
  62
7
  10
 276.217
  20
 297.335
  30
0.0
  11
 276.330
  21
 297.356
  31
0.0
   0
LINE
   8
LEVEL001
   6
CONTINUOUS
  62
7
  10
 276.330
  20
 297.356
  30
0.0
  11
 276.440
  21
 297.379
  31
0.0
   0
LINE
   8
LEVEL001
   6
CONTINUOUS
  62
7
  10
 276.440
  20
 297.379
  30
0.0
  11
 276.547
  21
 297.404
  31
0.0
   0
LINE
   8
LEVEL001
   6
CONTINUOUS
  62
7
  10
 276.547
  20
 297.404
  30
0.0
  11
 276.652
  21
 297.431
  31
0.0
   0
LINE
   8
LEVEL001
   6
CONTINUOUS
  62
7
  10
 276.652
  20
 297.431
  30
0.0
  11
 276.753
  21
 297.459
  31
0.0
   0
LINE
   8
LEVEL001
   6
CONTINUOUS
  62
7
  10
 276.753
  20
 297.459
  30
0.0
  11
 276.851
  21
 297.489
  31
0.0
   0
LINE
   8
LEVEL001
   6
CONTINUOUS
  62
7
  10
 276.851
  20
 297.489
  30
0.0
  11
 276.946
  21
 297.521
  31
0.0
   0
LINE
   8
LEVEL001
   6
CONTINUOUS
  62
7
  10
 276.946
  20
 297.521
  30
0.0
  11
 277.036
  21
 297.554
  31
0.0
   0
LINE
   8
LEVEL001
   6
CONTINUOUS
  62
7
  10
 277.036
  20
 297.554
  30
0.0
  11
 277.123
  21
 297.589
  31
0.0
   0
LINE
   8
LEVEL001
   6
CONTINUOUS
  62
7
  10
 277.123
  20
 297.589
  30
0.0
  11
 277.206
  21
 297.625
  31
0.0
   0
LINE
   8
LEVEL001
   6
CONTINUOUS
  62
7
  10
 277.206
  20
 297.625
  30
0.0
  11
 277.285
  21
 297.663
  31
0.0
   0
LINE
   8
LEVEL001
   6
CONTINUOUS
  62
7
  10
 277.285
  20
 297.663
  30
0.0
  11
 277.359
  21
 297.701
  31
0.0
   0
LINE
   8
LEVEL001
   6
CONTINUOUS
  62
7
  10
 277.359
  20
 297.701
  30
0.0
  11
 277.429
  21
 297.741
  31
0.0
   0
LINE
   8
LEVEL001
   6
CONTINUOUS
  62
7
  10
 277.429
  20
 297.741
  30
0.0
  11
 277.494
  21
 297.783
  31
0.0
   0
LINE
   8
LEVEL001
   6
CONTINUOUS
  62
7
  10
 277.494
  20
 297.783
  30
0.0
  11
 277.555
  21
 297.825
  31
0.0
   0
LINE
   8
LEVEL001
   6
CONTINUOUS
  62
7
  10
 277.555
  20
 297.825
  30
0.0
  11
 277.610
  21
 297.868
  31
0.0
   0
LINE
   8
LEVEL001
   6
CONTINUOUS
  62
7
  10
 277.610
  20
 297.868
  30
0.0
  11
 277.661
  21
 297.912
  31
0.0
   0
LINE
   8
LEVEL001
   6
CONTINUOUS
  62
7
  10
 277.661
  20
 297.912
  30
0.0
  11
 277.706
  21
 297.957
  31
0.0
   0
LINE
   8
LEVEL001
   6
CONTINUOUS
  62
7
  10
 277.706
  20
 297.957
  30
0.0
  11
 277.747
  21
 298.002
  31
0.0
   0
LINE
   8
LEVEL001
   6
CONTINUOUS
  62
7
  10
 277.747
  20
 298.002
  30
0.0
  11
 277.782
  21
 298.048
  31
0.0
   0
LINE
   8
LEVEL001
   6
CONTINUOUS
  62
7
  10
 277.782
  20
 298.048
  30
0.0
  11
 277.812
  21
 298.095
  31
0.0
   0
LINE
   8
LEVEL001
   6
CONTINUOUS
  62
7
  10
 277.812
  20
 298.095
  30
0.0
  11
 277.836
  21
 298.142
  31
0.0
   0
LINE
   8
LEVEL001
   6
CONTINUOUS
  62
7
  10
 277.836
  20
 298.142
  30
0.0
  11
 277.855
  21
 298.190
  31
0.0
   0
LINE
   8
LEVEL001
   6
CONTINUOUS
  62
7
  10
 277.855
  20
 298.190
  30
0.0
  11
 277.869
  21
 298.238
  31
0.0
   0
LINE
   8
LEVEL001
   6
CONTINUOUS
  62
7
  10
 277.869
  20
 298.238
  30
0.0
  11
 277.877
  21
 298.286
  31
0.0
   0
LINE
   8
LEVEL001
   6
CONTINUOUS
  62
7
  10
 277.877
  20
 298.286
  30
0.0
  11
 277.880
  21
 298.334
  31
0.0
   0
LINE
   8
LEVEL001
   6
CONTINUOUS
  62
7
  10
 271.540
  20
 297.212
  30
0.0
  11
 271.543
  21
 297.154
  31
0.0
   0
LINE
   8
LEVEL001
   6
CONTINUOUS
  62
7
  10
 271.543
  20
 297.154
  30
0.0
  11
 271.553
  21
 297.096
  31
0.0
   0
LINE
   8
LEVEL001
   6
CONTINUOUS
  62
7
  10
 271.553
  20
 297.096
  30
0.0
  11
 271.570
  21
 297.039
  31
0.0
   0
LINE
   8
LEVEL001
   6
CONTINUOUS
  62
7
  10
 271.570
  20
 297.039
  30
0.0
  11
 271.593
  21
 296.982
  31
0.0
   0
LINE
   8
LEVEL001
   6
CONTINUOUS
  62
7
  10
 271.593
  20
 296.982
  30
0.0
  11
 271.622
  21
 296.925
  31
0.0
   0
LINE
   8
LEVEL001
   6
CONTINUOUS
  62
7
  10
 271.622
  20
 296.925
  30
0.0
  11
 271.658
  21
 296.869
  31
0.0
   0
LINE
   8
LEVEL001
   6
CONTINUOUS
  62
7
  10
 271.658
  20
 296.869
  30
0.0
  11
 271.700
  21
 296.814
  31
0.0
   0
LINE
   8
LEVEL001
   6
CONTINUOUS
  62
7
  10
 271.700
  20
 296.814
  30
0.0
  11
 271.749
  21
 296.759
  31
0.0
   0
LINE
   8
LEVEL001
   6
CONTINUOUS
  62
7
  10
 271.749
  20
 296.759
  30
0.0
  11
 271.803
  21
 296.705
  31
0.0
   0
LINE
   8
LEVEL001
   6
CONTINUOUS
  62
7
  10
 271.803
  20
 296.705
  30
0.0
  11
 271.864
  21
 296.652
  31
0.0
   0
LINE
   8
LEVEL001
   6
CONTINUOUS
  62
7
  10
 271.864
  20
 296.652
  30
0.0
  11
 271.931
  21
 296.600
  31
0.0
   0
LINE
   8
LEVEL001
   6
CONTINUOUS
  62
7
  10
 271.931
  20
 296.600
  30
0.0
  11
 272.004
  21
 296.550
  31
0.0
   0
LINE
   8
LEVEL001
   6
CONTINUOUS
  62
7
  10
 272.004
  20
 296.550
  30
0.0
  11
 272.082
  21
 296.500
  31
0.0
   0
LINE
   8
LEVEL001
   6
CONTINUOUS
  62
7
  10
 272.082
  20
 296.500
  30
0.0
  11
 272.166
  21
 296.452
  31
0.0
   0
LINE
   8
LEVEL001
   6
CONTINUOUS
  62
7
  10
 272.166
  20
 296.452
  30
0.0
  11
 272.255
  21
 296.406
  31
0.0
   0
LINE
   8
LEVEL001
   6
CONTINUOUS
  62
7
  10
 272.255
  20
 296.406
  30
0.0
  11
 272.349
  21
 296.361
  31
0.0
   0
LINE
   8
LEVEL001
   6
CONTINUOUS
  62
7
  10
 272.349
  20
 296.361
  30
0.0
  11
 272.449
  21
 296.317
  31
0.0
   0
LINE
   8
LEVEL001
   6
CONTINUOUS
  62
7
  10
 272.449
  20
 296.317
  30
0.0
  11
 272.553
  21
 296.276
  31
0.0
   0
LINE
   8
LEVEL001
   6
CONTINUOUS
  62
7
  10
 272.553
  20
 296.276
  30
0.0
  11
 272.662
  21
 296.236
  31
0.0
   0
LINE
   8
LEVEL001
   6
CONTINUOUS
  62
7
  10
 272.662
  20
 296.236
  30
0.0
  11
 272.776
  21
 296.198
  31
0.0
   0
LINE
   8
LEVEL001
   6
CONTINUOUS
  62
7
  10
 272.776
  20
 296.198
  30
0.0
  11
 272.894
  21
 296.161
  31
0.0
   0
LINE
   8
LEVEL001
   6
CONTINUOUS
  62
7
  10
 272.894
  20
 296.161
  30
0.0
  11
 273.015
  21
 296.127
  31
0.0
   0
LINE
   8
LEVEL001
   6
CONTINUOUS
  62
7
  10
 273.015
  20
 296.127
  30
0.0
  11
 273.141
  21
 296.095
  31
0.0
   0
LINE
   8
LEVEL001
   6
CONTINUOUS
  62
7
  10
 273.141
  20
 296.095
  30
0.0
  11
 273.270
  21
 296.065
  31
0.0
   0
LINE
   8
LEVEL001
   6
CONTINUOUS
  62
7
  10
 273.270
  20
 296.065
  30
0.0
  11
 273.402
  21
 296.037
  31
0.0
   0
LINE
   8
LEVEL001
   6
CONTINUOUS
  62
7
  10
 273.402
  20
 296.037
  30
0.0
  11
 273.538
  21
 296.012
  31
0.0
   0
LINE
   8
LEVEL001
   6
CONTINUOUS
  62
7
  10
 273.538
  20
 296.012
  30
0.0
  11
 273.676
  21
 295.989
  31
0.0
   0
LINE
   8
LEVEL001
   6
CONTINUOUS
  62
7
  10
 273.676
  20
 295.989
  30
0.0
  11
 273.817
  21
 295.968
  31
0.0
   0
LINE
   8
LEVEL001
   6
CONTINUOUS
  62
7
  10
 273.817
  20
 295.968
  30
0.0
  11
 273.960
  21
 295.949
  31
0.0
   0
LINE
   8
LEVEL001
   6
CONTINUOUS
  62
7
  10
 273.960
  20
 295.949
  30
0.0
  11
 274.104
  21
 295.933
  31
0.0
   0
LINE
   8
LEVEL001
   6
CONTINUOUS
  62
7
  10
 274.104
  20
 295.933
  30
0.0
  11
 274.251
  21
 295.919
  31
0.0
   0
LINE
   8
LEVEL001
   6
CONTINUOUS
  62
7
  10
 274.251
  20
 295.919
  30
0.0
  11
 274.399
  21
 295.908
  31
0.0
   0
LINE
   8
LEVEL001
   6
CONTINUOUS
  62
7
  10
 274.399
  20
 295.908
  30
0.0
  11
 274.548
  21
 295.899
  31
0.0
   0
LINE
   8
LEVEL001
   6
CONTINUOUS
  62
7
  10
 274.548
  20
 295.899
  30
0.0
  11
 274.698
  21
 295.893
  31
0.0
   0
LINE
   8
LEVEL001
   6
CONTINUOUS
  62
7
  10
 274.698
  20
 295.893
  30
0.0
  11
 274.849
  21
 295.889
  31
0.0
   0
LINE
   8
LEVEL001
   6
CONTINUOUS
  62
7
  10
 274.849
  20
 295.889
  30
0.0
  11
 275.000
  21
 295.888
  31
0.0
   0
LINE
   8
LEVEL001
   6
CONTINUOUS
  62
7
  10
 275.000
  20
 295.888
  30
0.0
  11
 275.151
  21
 295.889
  31
0.0
   0
LINE
   8
LEVEL001
   6
CONTINUOUS
  62
7
  10
 275.151
  20
 295.889
  30
0.0
  11
 275.302
  21
 295.893
  31
0.0
   0
LINE
   8
LEVEL001
   6
CONTINUOUS
  62
7
  10
 275.302
  20
 295.893
  30
0.0
  11
 275.452
  21
 295.899
  31
0.0
   0
LINE
   8
LEVEL001
   6
CONTINUOUS
  62
7
  10
 275.452
  20
 295.899
  30
0.0
  11
 275.601
  21
 295.908
  31
0.0
   0
LINE
   8
LEVEL001
   6
CONTINUOUS
  62
7
  10
 275.601
  20
 295.908
  30
0.0
  11
 275.749
  21
 295.919
  31
0.0
   0
LINE
   8
LEVEL001
   6
CONTINUOUS
  62
7
  10
 275.749
  20
 295.919
  30
0.0
  11
 275.896
  21
 295.933
  31
0.0
   0
LINE
   8
LEVEL001
   6
CONTINUOUS
  62
7
  10
 275.896
  20
 295.933
  30
0.0
  11
 276.040
  21
 295.949
  31
0.0
   0
LINE
   8
LEVEL001
   6
CONTINUOUS
  62
7
  10
 276.040
  20
 295.949
  30
0.0
  11
 276.183
  21
 295.968
  31
0.0
   0
LINE
   8
LEVEL001
   6
CONTINUOUS
  62
7
  10
 276.183
  20
 295.968
  30
0.0
  11
 276.324
  21
 295.989
  31
0.0
   0
LINE
   8
LEVEL001
   6
CONTINUOUS
  62
7
  10
 276.324
  20
 295.989
  30
0.0
  11
 276.462
  21
 296.012
  31
0.0
   0
LINE
   8
LEVEL001
   6
CONTINUOUS
  62
7
  10
 276.462
  20
 296.012
  30
0.0
  11
 276.598
  21
 296.037
  31
0.0
   0
LINE
   8
LEVEL001
   6
CONTINUOUS
  62
7
  10
 276.598
  20
 296.037
  30
0.0
  11
 276.730
  21
 296.065
  31
0.0
   0
LINE
   8
LEVEL001
   6
CONTINUOUS
  62
7
  10
 276.730
  20
 296.065
  30
0.0
  11
 276.859
  21
 296.095
  31
0.0
   0
LINE
   8
LEVEL001
   6
CONTINUOUS
  62
7
  10
 276.859
  20
 296.095
  30
0.0
  11
 276.985
  21
 296.127
  31
0.0
   0
LINE
   8
LEVEL001
   6
CONTINUOUS
  62
7
  10
 276.985
  20
 296.127
  30
0.0
  11
 277.106
  21
 296.161
  31
0.0
   0
LINE
   8
LEVEL001
   6
CONTINUOUS
  62
7
  10
 277.106
  20
 296.161
  30
0.0
  11
 277.224
  21
 296.198
  31
0.0
   0
LINE
   8
LEVEL001
   6
CONTINUOUS
  62
7
  10
 277.224
  20
 296.198
  30
0.0
  11
 277.338
  21
 296.236
  31
0.0
   0
LINE
   8
LEVEL001
   6
CONTINUOUS
  62
7
  10
 277.338
  20
 296.236
  30
0.0
  11
 277.447
  21
 296.276
  31
0.0
   0
LINE
   8
LEVEL001
   6
CONTINUOUS
  62
7
  10
 277.447
  20
 296.276
  30
0.0
  11
 277.551
  21
 296.317
  31
0.0
   0
LINE
   8
LEVEL001
   6
CONTINUOUS
  62
7
  10
 277.551
  20
 296.317
  30
0.0
  11
 277.651
  21
 296.361
  31
0.0
   0
LINE
   8
LEVEL001
   6
CONTINUOUS
  62
7
  10
 277.651
  20
 296.361
  30
0.0
  11
 277.745
  21
 296.406
  31
0.0
   0
LINE
   8
LEVEL001
   6
CONTINUOUS
  62
7
  10
 277.745
  20
 296.406
  30
0.0
  11
 277.834
  21
 296.452
  31
0.0
   0
LINE
   8
LEVEL001
   6
CONTINUOUS
  62
7
  10
 277.834
  20
 296.452
  30
0.0
  11
 277.918
  21
 296.500
  31
0.0
   0
LINE
   8
LEVEL001
   6
CONTINUOUS
  62
7
  10
 277.918
  20
 296.500
  30
0.0
  11
 277.996
  21
 296.550
  31
0.0
   0
LINE
   8
LEVEL001
   6
CONTINUOUS
  62
7
  10
 277.996
  20
 296.550
  30
0.0
  11
 278.069
  21
 296.600
  31
0.0
   0
LINE
   8
LEVEL001
   6
CONTINUOUS
  62
7
  10
 278.069
  20
 296.600
  30
0.0
  11
 278.136
  21
 296.652
  31
0.0
   0
LINE
   8
LEVEL001
   6
CONTINUOUS
  62
7
  10
 278.136
  20
 296.652
  30
0.0
  11
 278.197
  21
 296.705
  31
0.0
   0
LINE
   8
LEVEL001
   6
CONTINUOUS
  62
7
  10
 278.197
  20
 296.705
  30
0.0
  11
 278.251
  21
 296.759
  31
0.0
   0
LINE
   8
LEVEL001
   6
CONTINUOUS
  62
7
  10
 278.251
  20
 296.759
  30
0.0
  11
 278.300
  21
 296.814
  31
0.0
   0
LINE
   8
LEVEL001
   6
CONTINUOUS
  62
7
  10
 278.300
  20
 296.814
  30
0.0
  11
 278.342
  21
 296.869
  31
0.0
   0
LINE
   8
LEVEL001
   6
CONTINUOUS
  62
7
  10
 278.342
  20
 296.869
  30
0.0
  11
 278.378
  21
 296.925
  31
0.0
   0
LINE
   8
LEVEL001
   6
CONTINUOUS
  62
7
  10
 278.378
  20
 296.925
  30
0.0
  11
 278.407
  21
 296.982
  31
0.0
   0
LINE
   8
LEVEL001
   6
CONTINUOUS
  62
7
  10
 278.407
  20
 296.982
  30
0.0
  11
 278.430
  21
 297.039
  31
0.0
   0
LINE
   8
LEVEL001
   6
CONTINUOUS
  62
7
  10
 278.430
  20
 297.039
  30
0.0
  11
 278.447
  21
 297.096
  31
0.0
   0
LINE
   8
LEVEL001
   6
CONTINUOUS
  62
7
  10
 278.447
  20
 297.096
  30
0.0
  11
 278.457
  21
 297.154
  31
0.0
   0
LINE
   8
LEVEL001
   6
CONTINUOUS
  62
7
  10
 278.457
  20
 297.154
  30
0.0
  11
 278.460
  21
 297.212
  31
0.0
   0
ARC
   8
LEVEL001
   6
CONTINUOUS
  62
7
  10
 272.061
  20
 300.697
  30
0.0
  40
 6.28019
  50
 337.893
  51
 352.464
   0
ARC
   8
LEVEL001
   6
CONTINUOUS
  62
7
  10
 279.013
  20
 298.209
  30
0.0
  40
 1.13965
  50
 173.696
  51
 240.986
   0
ARC
   8
LEVEL001
   6
CONTINUOUS
  62
7
  10
 277.939
  20
 300.697
  30
0.0
  40
 6.28019
  50
 187.536
  51
 202.107
   0
ARC
   8
LEVEL001
   6
CONTINUOUS
  62
7
  10
 270.987
  20
 298.209
  30
0.0
  40
 1.13965
  50
 299.014
  51
 6.30441
   0
LINE
   8
LEVEL001
   6
CONTINUOUS
  62
7
  10
 278.464
  20
 296.438
  30
0.0
  11
 275.000
  21
 295.665
  31
0.0
   0
LINE
   8
LEVEL001
   6
CONTINUOUS
  62
7
  10
 275.000
  20
 295.665
  30
0.0
  11
 271.536
  21
 296.438
  31
0.0
   0
LINE
   8
LEVEL001
   6
CONTINUOUS
  62
7
  10
 271.536
  20
 297.985
  30
0.0
  11
 272.123
  21
 298.116
  31
0.0
   0
LINE
   8
LEVEL001
   6
CONTINUOUS
  62
7
  10
 277.877
  20
 298.116
  30
0.0
  11
 278.464
  21
 297.985
  31
0.0
   0
LINE
   8
LEVEL001
   6
CONTINUOUS
  62
7
  10
 271.536
  20
 297.985
  30
0.0
  11
 271.536
  21
 294.221
  31
0.0
   0
LINE
   8
LEVEL001
   6
CONTINUOUS
  62
7
  10
 278.464
  20
 294.221
  30
0.0
  11
 278.464
  21
 297.985
  31
0.0
   0
LINE
   8
LEVEL001
   6
CONTINUOUS
  62
7
  10
 271.536
  20
 294.221
  30
0.0
  11
 275.000
  21
 293.448
  31
0.0
   0
LINE
   8
LEVEL001
   6
CONTINUOUS
  62
7
  10
 275.000
  20
 293.448
  30
0.0
  11
 278.464
  21
 294.221
  31
0.0
   0
ARC
   8
LEVEL001
   6
CONTINUOUS
  62
7
  10
 275.000
  20
 290.000
  30
0.0
  40
 6.33000
  50
 123.179
  51
 56.8213
   0
LINE
   8
LEVEL001
   6
CONTINUOUS
  62
7
  10
 275.000
  20
 295.665
  30
0.0
  11
 275.000
  21
 293.448
  31
0.0
   0
LINE
   8
LEVEL001
   6
CONTINUOUS
  62
7
  10
 237.500
  20
 387.000
  30
0.0
  11
 262.500
  21
 387.000
  31
0.0
   0
LINE
   8
LEVEL001
   6
CONTINUOUS
  62
7
  10
 237.500
  20
 387.000
  30
0.0
  11
 237.500
  21
 371.480
  31
0.0
   0
LINE
   8
LEVEL001
   6
CONTINUOUS
  62
7
  10
 262.500
  20
 387.000
  30
0.0
  11
 262.500
  21
 371.480
  31
0.0
   0
LINE
   8
LEVEL001
   6
CONTINUOUS
  62
7
  10
 244.545
  20
 358.909
  30
0.0
  11
 244.610
  21
 358.786
  31
0.0
   0
LINE
   8
LEVEL001
   6
CONTINUOUS
  62
7
  10
 244.610
  20
 358.786
  30
0.0
  11
 244.682
  21
 358.664
  31
0.0
   0
LINE
   8
LEVEL001
   6
CONTINUOUS
  62
7
  10
 244.682
  20
 358.664
  30
0.0
  11
 244.761
  21
 358.545
  31
0.0
   0
LINE
   8
LEVEL001
   6
CONTINUOUS
  62
7
  10
 244.761
  20
 358.545
  30
0.0
  11
 244.847
  21
 358.427
  31
0.0
   0
LINE
   8
LEVEL001
   6
CONTINUOUS
  62
7
  10
 244.847
  20
 358.427
  30
0.0
  11
 244.939
  21
 358.311
  31
0.0
   0
LINE
   8
LEVEL001
   6
CONTINUOUS
  62
7
  10
 244.939
  20
 358.311
  30
0.0
  11
 245.038
  21
 358.197
  31
0.0
   0
LINE
   8
LEVEL001
   6
CONTINUOUS
  62
7
  10
 245.038
  20
 358.197
  30
0.0
  11
 245.143
  21
 358.085
  31
0.0
   0
LINE
   8
LEVEL001
   6
CONTINUOUS
  62
7
  10
 245.143
  20
 358.085
  30
0.0
  11
 245.254
  21
 357.976
  31
0.0
   0
LINE
   8
LEVEL001
   6
CONTINUOUS
  62
7
  10
 245.254
  20
 357.976
  30
0.0
  11
 245.371
  21
 357.870
  31
0.0
   0
LINE
   8
LEVEL001
   6
CONTINUOUS
  62
7
  10
 245.371
  20
 357.870
  30
0.0
  11
 245.495
  21
 357.766
  31
0.0
   0
LINE
   8
LEVEL001
   6
CONTINUOUS
  62
7
  10
 245.495
  20
 357.766
  30
0.0
  11
 245.624
  21
 357.665
  31
0.0
   0
LINE
   8
LEVEL001
   6
CONTINUOUS
  62
7
  10
 245.624
  20
 357.665
  30
0.0
  11
 245.759
  21
 357.568
  31
0.0
   0
LINE
   8
LEVEL001
   6
CONTINUOUS
  62
7
  10
 245.759
  20
 357.568
  30
0.0
  11
 245.899
  21
 357.473
  31
0.0
   0
LINE
   8
LEVEL001
   6
CONTINUOUS
  62
7
  10
 245.899
  20
 357.473
  30
0.0
  11
 246.044
  21
 357.381
  31
0.0
   0
LINE
   8
LEVEL001
   6
CONTINUOUS
  62
7
  10
 246.044
  20
 357.381
  30
0.0
  11
 246.195
  21
 357.293
  31
0.0
   0
LINE
   8
LEVEL001
   6
CONTINUOUS
  62
7
  10
 246.195
  20
 357.293
  30
0.0
  11
 246.350
  21
 357.209
  31
0.0
   0
LINE
   8
LEVEL001
   6
CONTINUOUS
  62
7
  10
 246.350
  20
 357.209
  30
0.0
  11
 246.510
  21
 357.128
  31
0.0
   0
LINE
   8
LEVEL001
   6
CONTINUOUS
  62
7
  10
 246.510
  20
 357.128
  30
0.0
  11
 246.674
  21
 357.050
  31
0.0
   0
LINE
   8
LEVEL001
   6
CONTINUOUS
  62
7
  10
 246.674
  20
 357.050
  30
0.0
  11
 246.843
  21
 356.977
  31
0.0
   0
LINE
   8
LEVEL001
   6
CONTINUOUS
  62
7
  10
 246.843
  20
 356.977
  30
0.0
  11
 247.016
  21
 356.907
  31
0.0
   0
LINE
   8
LEVEL001
   6
CONTINUOUS
  62
7
  10
 247.016
  20
 356.907
  30
0.0
  11
 247.193
  21
 356.841
  31
0.0
   0
LINE
   8
LEVEL001
   6
CONTINUOUS
  62
7
  10
 247.193
  20
 356.841
  30
0.0
  11
 247.373
  21
 356.780
  31
0.0
   0
LINE
   8
LEVEL001
   6
CONTINUOUS
  62
7
  10
 247.373
  20
 356.780
  30
0.0
  11
 247.557
  21
 356.722
  31
0.0
   0
LINE
   8
LEVEL001
   6
CONTINUOUS
  62
7
  10
 247.557
  20
 356.722
  30
0.0
  11
 247.743
  21
 356.669
  31
0.0
   0
LINE
   8
LEVEL001
   6
CONTINUOUS
  62
7
  10
 247.743
  20
 356.669
  30
0.0
  11
 247.933
  21
 356.620
  31
0.0
   0
LINE
   8
LEVEL001
   6
CONTINUOUS
  62
7
  10
 247.933
  20
 356.620
  30
0.0
  11
 248.125
  21
 356.575
  31
0.0
   0
LINE
   8
LEVEL001
   6
CONTINUOUS
  62
7
  10
 248.125
  20
 356.575
  30
0.0
  11
 248.320
  21
 356.535
  31
0.0
   0
LINE
   8
LEVEL001
   6
CONTINUOUS
  62
7
  10
 248.320
  20
 356.535
  30
0.0
  11
 248.517
  21
 356.499
  31
0.0
   0
LINE
   8
LEVEL001
   6
CONTINUOUS
  62
7
  10
 248.517
  20
 356.499
  30
0.0
  11
 248.716
  21
 356.467
  31
0.0
   0
LINE
   8
LEVEL001
   6
CONTINUOUS
  62
7
  10
 248.716
  20
 356.467
  30
0.0
  11
 248.916
  21
 356.440
  31
0.0
   0
LINE
   8
LEVEL001
   6
CONTINUOUS
  62
7
  10
 248.916
  20
 356.440
  30
0.0
  11
 249.118
  21
 356.418
  31
0.0
   0
LINE
   8
LEVEL001
   6
CONTINUOUS
  62
7
  10
 249.118
  20
 356.418
  30
0.0
  11
 249.321
  21
 356.400
  31
0.0
   0
LINE
   8
LEVEL001
   6
CONTINUOUS
  62
7
  10
 249.321
  20
 356.400
  30
0.0
  11
 249.525
  21
 356.387
  31
0.0
   0
LINE
   8
LEVEL001
   6
CONTINUOUS
  62
7
  10
 249.525
  20
 356.387
  30
0.0
  11
 249.729
  21
 356.379
  31
0.0
   0
LINE
   8
LEVEL001
   6
CONTINUOUS
  62
7
  10
 249.729
  20
 356.379
  30
0.0
  11
 249.934
  21
 356.375
  31
0.0
   0
LINE
   8
LEVEL001
   6
CONTINUOUS
  62
7
  10
 249.934
  20
 356.375
  30
0.0
  11
 250.139
  21
 356.376
  31
0.0
   0
LINE
   8
LEVEL001
   6
CONTINUOUS
  62
7
  10
 250.139
  20
 356.376
  30
0.0
  11
 250.343
  21
 356.381
  31
0.0
   0
LINE
   8
LEVEL001
   6
CONTINUOUS
  62
7
  10
 250.343
  20
 356.381
  30
0.0
  11
 250.548
  21
 356.391
  31
0.0
   0
LINE
   8
LEVEL001
   6
CONTINUOUS
  62
7
  10
 250.548
  20
 356.391
  30
0.0
  11
 250.751
  21
 356.406
  31
0.0
   0
LINE
   8
LEVEL001
   6
CONTINUOUS
  62
7
  10
 250.751
  20
 356.406
  30
0.0
  11
 250.954
  21
 356.425
  31
0.0
   0
LINE
   8
LEVEL001
   6
CONTINUOUS
  62
7
  10
 250.954
  20
 356.425
  30
0.0
  11
 251.155
  21
 356.449
  31
0.0
   0
LINE
   8
LEVEL001
   6
CONTINUOUS
  62
7
  10
 251.155
  20
 356.449
  30
0.0
  11
 251.355
  21
 356.478
  31
0.0
   0
LINE
   8
LEVEL001
   6
CONTINUOUS
  62
7
  10
 251.355
  20
 356.478
  30
0.0
  11
 251.553
  21
 356.511
  31
0.0
   0
LINE
   8
LEVEL001
   6
CONTINUOUS
  62
7
  10
 251.553
  20
 356.511
  30
0.0
  11
 251.749
  21
 356.548
  31
0.0
   0
LINE
   8
LEVEL001
   6
CONTINUOUS
  62
7
  10
 251.749
  20
 356.548
  30
0.0
  11
 251.943
  21
 356.590
  31
0.0
   0
LINE
   8
LEVEL001
   6
CONTINUOUS
  62
7
  10
 251.943
  20
 356.590
  30
0.0
  11
 252.135
  21
 356.637
  31
0.0
   0
LINE
   8
LEVEL001
   6
CONTINUOUS
  62
7
  10
 252.135
  20
 356.637
  30
0.0
  11
 252.323
  21
 356.687
  31
0.0
   0
LINE
   8
LEVEL001
   6
CONTINUOUS
  62
7
  10
 252.323
  20
 356.687
  30
0.0
  11
 252.509
  21
 356.742
  31
0.0
   0
LINE
   8
LEVEL001
   6
CONTINUOUS
  62
7
  10
 252.509
  20
 356.742
  30
0.0
  11
 252.691
  21
 356.801
  31
0.0
   0
LINE
   8
LEVEL001
   6
CONTINUOUS
  62
7
  10
 252.691
  20
 356.801
  30
0.0
  11
 252.870
  21
 356.864
  31
0.0
   0
LINE
   8
LEVEL001
   6
CONTINUOUS
  62
7
  10
 252.870
  20
 356.864
  30
0.0
  11
 253.046
  21
 356.931
  31
0.0
   0
LINE
   8
LEVEL001
   6
CONTINUOUS
  62
7
  10
 253.046
  20
 356.931
  30
0.0
  11
 253.217
  21
 357.002
  31
0.0
   0
LINE
   8
LEVEL001
   6
CONTINUOUS
  62
7
  10
 253.217
  20
 357.002
  30
0.0
  11
 253.384
  21
 357.077
  31
0.0
   0
LINE
   8
LEVEL001
   6
CONTINUOUS
  62
7
  10
 253.384
  20
 357.077
  30
0.0
  11
 253.547
  21
 357.156
  31
0.0
   0
LINE
   8
LEVEL001
   6
CONTINUOUS
  62
7
  10
 253.547
  20
 357.156
  30
0.0
  11
 253.706
  21
 357.238
  31
0.0
   0
LINE
   8
LEVEL001
   6
CONTINUOUS
  62
7
  10
 253.706
  20
 357.238
  30
0.0
  11
 253.859
  21
 357.324
  31
0.0
   0
LINE
   8
LEVEL001
   6
CONTINUOUS
  62
7
  10
 253.859
  20
 357.324
  30
0.0
  11
 254.008
  21
 357.414
  31
0.0
   0
LINE
   8
LEVEL001
   6
CONTINUOUS
  62
7
  10
 254.008
  20
 357.414
  30
0.0
  11
 254.152
  21
 357.506
  31
0.0
   0
LINE
   8
LEVEL001
   6
CONTINUOUS
  62
7
  10
 254.152
  20
 357.506
  30
0.0
  11
 254.290
  21
 357.602
  31
0.0
   0
LINE
   8
LEVEL001
   6
CONTINUOUS
  62
7
  10
 254.290
  20
 357.602
  30
0.0
  11
 254.423
  21
 357.701
  31
0.0
   0
LINE
   8
LEVEL001
   6
CONTINUOUS
  62
7
  10
 254.423
  20
 357.701
  30
0.0
  11
 254.550
  21
 357.803
  31
0.0
   0
LINE
   8
LEVEL001
   6
CONTINUOUS
  62
7
  10
 254.550
  20
 357.803
  30
0.0
  11
 254.671
  21
 357.907
  31
0.0
   0
LINE
   8
LEVEL001
   6
CONTINUOUS
  62
7
  10
 254.671
  20
 357.907
  30
0.0
  11
 254.786
  21
 358.015
  31
0.0
   0
LINE
   8
LEVEL001
   6
CONTINUOUS
  62
7
  10
 254.786
  20
 358.015
  30
0.0
  11
 254.895
  21
 358.125
  31
0.0
   0
LINE
   8
LEVEL001
   6
CONTINUOUS
  62
7
  10
 254.895
  20
 358.125
  30
0.0
  11
 254.998
  21
 358.237
  31
0.0
   0
LINE
   8
LEVEL001
   6
CONTINUOUS
  62
7
  10
 254.998
  20
 358.237
  30
0.0
  11
 255.094
  21
 358.352
  31
0.0
   0
LINE
   8
LEVEL001
   6
CONTINUOUS
  62
7
  10
 255.094
  20
 358.352
  30
0.0
  11
 255.184
  21
 358.468
  31
0.0
   0
LINE
   8
LEVEL001
   6
CONTINUOUS
  62
7
  10
 255.184
  20
 358.468
  30
0.0
  11
 255.268
  21
 358.587
  31
0.0
   0
LINE
   8
LEVEL001
   6
CONTINUOUS
  62
7
  10
 255.268
  20
 358.587
  30
0.0
  11
 255.344
  21
 358.707
  31
0.0
   0
LINE
   8
LEVEL001
   6
CONTINUOUS
  62
7
  10
 255.344
  20
 358.707
  30
0.0
  11
 255.414
  21
 358.829
  31
0.0
   0
LINE
   8
LEVEL001
   6
CONTINUOUS
  62
7
  10
 255.414
  20
 358.829
  30
0.0
  11
 255.476
  21
 358.953
  31
0.0
   0
LINE
   8
LEVEL001
   6
CONTINUOUS
  62
7
  10
 255.476
  20
 358.953
  30
0.0
  11
 255.532
  21
 359.078
  31
0.0
   0
LINE
   8
LEVEL001
   6
CONTINUOUS
  62
7
  10
 237.500
  20
 371.480
  30
0.0
  11
 244.625
  21
 358.759
  31
0.0
   0
LINE
   8
LEVEL001
   6
CONTINUOUS
  62
7
  10
 262.500
  20
 371.480
  30
0.0
  11
 255.456
  21
 358.911
  31
0.0
   0
LINE
   8
LEVEL001
   6
CONTINUOUS
  62
7
  10
 309.740
  20
 375.000
  30
0.0
  11
 264.859
  21
 375.000
  31
0.0
   0
LINE
   8
LEVEL001
   6
CONTINUOUS
  62
7
  10
 235.084
  20
 375.000
  30
0.0
  11
 190.260
  21
 375.000
  31
0.0
   0
LINE
   8
LEVEL001
   6
CONTINUOUS
  62
7
  10
 700.000
  20
 178.464
  30
0.0
  11
 703.000
  21
 176.732
  31
0.0
   0
LINE
   8
LEVEL001
   6
CONTINUOUS
  62
7
  10
 703.000
  20
 176.732
  30
0.0
  11
 703.000
  21
 173.268
  31
0.0
   0
LINE
   8
LEVEL001
   6
CONTINUOUS
  62
7
  10
 703.000
  20
 173.268
  30
0.0
  11
 700.000
  21
 171.536
  31
0.0
   0
LINE
   8
LEVEL001
   6
CONTINUOUS
  62
7
  10
 700.000
  20
 171.536
  30
0.0
  11
 697.000
  21
 173.268
  31
0.0
   0
LINE
   8
LEVEL001
   6
CONTINUOUS
  62
7
  10
 697.000
  20
 173.268
  30
0.0
  11
 697.000
  21
 176.732
  31
0.0
   0
LINE
   8
LEVEL001
   6
CONTINUOUS
  62
7
  10
 697.000
  20
 176.732
  30
0.0
  11
 700.000
  21
 178.464
  31
0.0
   0
LINE
   8
LEVEL001
   6
CONTINUOUS
  62
7
  10
 700.000
  20
 196.464
  30
0.0
  11
 703.000
  21
 194.732
  31
0.0
   0
LINE
   8
LEVEL001
   6
CONTINUOUS
  62
7
  10
 703.000
  20
 194.732
  30
0.0
  11
 703.000
  21
 191.268
  31
0.0
   0
LINE
   8
LEVEL001
   6
CONTINUOUS
  62
7
  10
 703.000
  20
 191.268
  30
0.0
  11
 700.000
  21
 189.536
  31
0.0
   0
LINE
   8
LEVEL001
   6
CONTINUOUS
  62
7
  10
 700.000
  20
 189.536
  30
0.0
  11
 697.000
  21
 191.268
  31
0.0
   0
LINE
   8
LEVEL001
   6
CONTINUOUS
  62
7
  10
 697.000
  20
 191.268
  30
0.0
  11
 697.000
  21
 194.732
  31
0.0
   0
LINE
   8
LEVEL001
   6
CONTINUOUS
  62
7
  10
 697.000
  20
 194.732
  30
0.0
  11
 700.000
  21
 196.464
  31
0.0
   0
CIRCLE
   8
LEVEL001
   6
CONTINUOUS
  62
7
  10
 700.000
  20
 175.000
  30
0.0
  40
 7.00000
   0
CIRCLE
   8
LEVEL001
   6
CONTINUOUS
  62
7
  10
 700.000
  20
 193.000
  30
0.0
  40
 7.00000
   0
CIRCLE
   8
LEVEL001
   6
CONTINUOUS
  62
7
  10
 700.000
  20
 193.000
  30
0.0
  40
 6.50000
   0
CIRCLE
   8
LEVEL001
   6
CONTINUOUS
  62
7
  10
 700.000
  20
 193.000
  30
0.0
  40
 5.80718
   0
CIRCLE
   8
LEVEL001
   6
CONTINUOUS
  62
7
  10
 700.000
  20
 175.000
  30
0.0
  40
 6.50000
   0
CIRCLE
   8
LEVEL001
   6
CONTINUOUS
  62
7
  10
 700.000
  20
 175.000
  30
0.0
  40
 5.80718
   0
LINE
   8
LEVEL001
   6
CONTINUOUS
  62
7
  10
 667.500
  20
 162.000
  30
0.0
  11
 692.000
  21
 162.000
  31
0.0
   0
LINE
   8
LEVEL001
   6
CONTINUOUS
  62
7
  10
 732.500
  20
 162.000
  30
0.0
  11
 708.000
  21
 162.000
  31
0.0
   0
LINE
   8
LEVEL001
   6
CONTINUOUS
  62
7
  10
 668.000
  20
 130.000
  30
0.0
  11
 692.000
  21
 130.000
  31
0.0
   0
LINE
   8
LEVEL001
   6
CONTINUOUS
  62
7
  10
 732.000
  20
 130.000
  30
0.0
  11
 708.000
  21
 130.000
  31
0.0
   0
LINE
   8
LEVEL001
   6
CONTINUOUS
  62
7
  10
 653.000
  20
 165.000
  30
0.0
  11
 747.000
  21
 165.000
  31
0.0
   0
LINE
   8
LEVEL001
   6
CONTINUOUS
  62
7
  10
 708.000
  20
 123.000
  30
0.0
  11
 708.000
  21
 165.000
  31
0.0
   0
LINE
   8
LEVEL001
   6
CONTINUOUS
  62
7
  10
 692.000
  20
 123.000
  30
0.0
  11
 692.000
  21
 165.000
  31
0.0
   0
LINE
   8
LEVEL001
   6
CONTINUOUS
  62
7
  10
 692.000
  20
 123.000
  30
0.0
  11
 708.000
  21
 123.000
  31
0.0
   0
LINE
   8
LEVEL001
   6
CONTINUOUS
  62
7
  10
 670.000
  20
 126.530
  30
0.0
  11
 692.000
  21
 126.530
  31
0.0
   0
LINE
   8
LEVEL001
   6
CONTINUOUS
  62
7
  10
 708.000
  20
 126.530
  30
0.0
  11
 730.000
  21
 126.530
  31
0.0
   0
LINE
   8
LEVEL001
   6
CONTINUOUS
  62
7
  10
 785.032
  20
 254.999
  30
0.0
  11
 655.000
  21
 254.999
  31
0.0
   0
LINE
   8
LEVEL001
   6
CONTINUOUS
  62
7
  10
 283.083
  20
 290.000
  30
0.0
  11
 279.041
  21
 297.000
  31
0.0
   0
LINE
   8
LEVEL001
   6
CONTINUOUS
  62
7
  10
 270.959
  20
 297.000
  30
0.0
  11
 266.917
  21
 290.000
  31
0.0
   0
LINE
   8
LEVEL001
   6
CONTINUOUS
  62
7
  10
 266.917
  20
 290.000
  30
0.0
  11
 270.959
  21
 283.000
  31
0.0
   0
LINE
   8
LEVEL001
   6
CONTINUOUS
  62
7
  10
 270.959
  20
 283.000
  30
0.0
  11
 279.041
  21
 283.000
  31
0.0
   0
LINE
   8
LEVEL001
   6
CONTINUOUS
  62
7
  10
 279.041
  20
 283.000
  30
0.0
  11
 283.083
  21
 290.000
  31
0.0
   0
LINE
   8
LEVEL001
   6
CONTINUOUS
  62
7
  10
 279.041
  20
 297.000
  30
0.0
  11
 278.464
  21
 297.000
  31
0.0
   0
LINE
   8
LEVEL001
   6
CONTINUOUS
  62
7
  10
 271.536
  20
 297.000
  30
0.0
  11
 270.959
  21
 297.000
  31
0.0
   0
LINE
   8
LEVEL001
   6
DASHDOT
  62
1
  10
 808.000
  20
 235.000
  30
0.0
  11
 808.000
  21
 200.000
  31
0.0
   0
LINE
   8
LEVEL001
   6
DASHDOT
  62
1
  10
 542.000
  20
 235.000
  30
0.0
  11
 542.000
  21
 200.000
  31
0.0
   0
LINE
   8
LEVEL001
   6
DASHDOT
  62
1
  10
 709.500
  20
 193.000
  30
0.0
  11
 690.500
  21
 193.000
  31
0.0
   0
LINE
   8
LEVEL001
   6
DASHDOT
  62
1
  10
 709.500
  20
 175.000
  30
0.0
  11
 690.500
  21
 175.000
  31
0.0
   0
LINE
   8
LEVEL001
   6
DASHDOT
  62
1
  10
 579.857
  20
 290.000
  30
0.0
  11
 641.639
  21
 290.000
  31
0.0
   0
LINE
   8
LEVEL001
   6
DASHDOT
  62
1
  10
 611.500
  20
 319.214
  30
0.0
  11
 611.500
  21
 260.007
  31
0.0
   0
LINE
   8
LEVEL001
   6
DASHDOT
  62
1
  10
 90.0000
  20
 290.000
  30
0.0
  11
 432.196
  21
 290.000
  31
0.0
   0
LINE
   8
LEVEL001
   6
DASHDOT
  62
1
  10
 240.000
  20
 240.000
  30
0.0
  11
 174.133
  21
 240.000
  31
0.0
   0
LINE
   8
LEVEL001
   6
DASHDOT
  62
1
  10
 195.000
  20
 236.805
  30
0.0
  11
 195.000
  21
 198.466
  31
0.0
   0
LINE
   8
LEVEL001
   6
DASHDOT
  62
1
  10
 305.000
  20
 236.805
  30
0.0
  11
 305.000
  21
 198.466
  31
0.0
   0
LINE
   8
LEVEL001
   6
DASHDOT
  62
1
  10
 700.000
  20
 790.500
  30
0.0
  11
 700.000
  21
 60.0000
  31
0.0
   0
LINE
   8
LEVEL001
   6
DASHDOT
  62
1
  10
 250.000
  20
 790.500
  30
0.0
  11
 250.000
  21
 60.0000
  31
0.0
   0
ARC
   8
LEVEL001
   6
CONTINUOUS
  62
7
  10
 273.611
  20
 888.382
  30
0.0
  40
 15.0000
  50
 113.606
  51
 174.354
   0
LINE
   8
LEVEL001
   6
CONTINUOUS
  62
7
  10
 280.723
  20
 903.406
  30
0.0
  11
 275.000
  21
 903.406
  31
0.0
   0
LINE
   8
LEVEL001
   6
CONTINUOUS
  62
7
  10
 268.394
  20
 902.523
  30
0.0
  11
 269.183
  21
 903.312
  31
0.0
   0
LINE
   8
LEVEL001
   6
CONTINUOUS
  62
7
  10
 280.723
  20
 903.406
  30
0.0
  11
 280.720
  21
 903.499
  31
0.0
   0
LINE
   8
LEVEL001
   6
CONTINUOUS
  62
7
  10
 281.606
  20
 902.523
  30
0.0
  11
 280.723
  21
 903.406
  31
0.0
   0
LINE
   8
LEVEL001
   6
CONTINUOUS
  62
7
  10
 268.418
  20
 903.299
  30
0.0
  11
 268.394
  21
 902.523
  31
0.0
   0
LINE
   8
LEVEL001
   6
CONTINUOUS
  62
7
  10
 281.606
  20
 902.523
  30
0.0
  11
 281.575
  21
 903.513
  31
0.0
   0
ARC
   8
LEVEL001
   6
CONTINUOUS
  62
7
  10
 283.274
  20
 893.883
  30
0.0
  40
 8.73264
  50
 98.3860
  51
 118.924
   0
ARC
   8
LEVEL001
   6
CONTINUOUS
  62
7
  10
 275.000
  20
 893.790
  30
0.0
  40
 8.73264
  50
 62.3688
  51
 117.631
   0
ARC
   8
LEVEL001
   6
CONTINUOUS
  62
7
  10
 266.726
  20
 893.883
  30
0.0
  40
 8.73264
  50
 61.0758
  51
 81.6142
   0
ARC
   8
LEVEL001
   6
CONTINUOUS
  62
7
  10
 275.000
  20
 896.094
  30
0.0
  40
 9.93811
  50
 241.269
  51
 252.935
   0
ARC
   8
LEVEL001
   6
CONTINUOUS
  62
7
  10
 271.665
  20
 890.010
  30
0.0
  40
 3.00000
  50
 180.000
  51
 241.269
   0
LINE
   8
LEVEL001
   6
CONTINUOUS
  62
7
  10
 268.665
  20
 890.010
  30
0.0
  11
 268.665
  21
 897.772
  31
0.0
   0
ARC
   8
LEVEL001
   6
CONTINUOUS
  62
7
  10
 275.000
  20
 896.094
  30
0.0
  40
 9.93811
  50
 287.065
  51
 298.731
   0
ARC
   8
LEVEL001
   6
CONTINUOUS
  62
7
  10
 278.335
  20
 890.010
  30
0.0
  40
 3.00000
  50
 298.731
  51
 0.336545E-9
   0
LINE
   8
LEVEL001
   6
CONTINUOUS
  62
7
  10
 281.335
  20
 890.010
  30
0.0
  11
 281.335
  21
 897.772
  31
0.0
   0
LINE
   8
LEVEL001
   6
CONTINUOUS
  62
7
  10
 273.051
  20
 885.560
  30
0.0
  11
 273.342
  21
 885.384
  31
0.0
   0
LINE
   8
LEVEL001
   6
CONTINUOUS
  62
7
  10
 272.734
  20
 885.804
  30
0.0
  11
 273.051
  21
 885.560
  31
0.0
   0
LINE
   8
LEVEL001
   6
CONTINUOUS
  62
7
  10
 272.453
  20
 886.082
  30
0.0
  11
 272.734
  21
 885.804
  31
0.0
   0
LINE
   8
LEVEL001
   6
CONTINUOUS
  62
7
  10
 272.211
  20
 886.391
  30
0.0
  11
 272.453
  21
 886.082
  31
0.0
   0
LINE
   8
LEVEL001
   6
CONTINUOUS
  62
7
  10
 272.013
  20
 886.725
  30
0.0
  11
 272.211
  21
 886.391
  31
0.0
   0
LINE
   8
LEVEL001
   6
CONTINUOUS
  62
7
  10
 271.861
  20
 887.079
  30
0.0
  11
 272.013
  21
 886.725
  31
0.0
   0
LINE
   8
LEVEL001
   6
CONTINUOUS
  62
7
  10
 271.759
  20
 887.448
  30
0.0
  11
 271.861
  21
 887.079
  31
0.0
   0
LINE
   8
LEVEL001
   6
CONTINUOUS
  62
7
  10
 271.707
  20
 887.826
  30
0.0
  11
 271.759
  21
 887.448
  31
0.0
   0
LINE
   8
LEVEL001
   6
CONTINUOUS
  62
7
  10
 271.706
  20
 888.207
  30
0.0
  11
 271.707
  21
 887.826
  31
0.0
   0
LINE
   8
LEVEL001
   6
CONTINUOUS
  62
7
  10
 271.757
  20
 888.584
  30
0.0
  11
 271.706
  21
 888.207
  31
0.0
   0
LINE
   8
LEVEL001
   6
CONTINUOUS
  62
7
  10
 271.858
  20
 888.954
  30
0.0
  11
 271.757
  21
 888.584
  31
0.0
   0
LINE
   8
LEVEL001
   6
CONTINUOUS
  62
7
  10
 272.009
  20
 889.308
  30
0.0
  11
 271.858
  21
 888.954
  31
0.0
   0
LINE
   8
LEVEL001
   6
CONTINUOUS
  62
7
  10
 272.206
  20
 889.643
  30
0.0
  11
 272.009
  21
 889.308
  31
0.0
   0
LINE
   8
LEVEL001
   6
CONTINUOUS
  62
7
  10
 272.447
  20
 889.952
  30
0.0
  11
 272.206
  21
 889.643
  31
0.0
   0
LINE
   8
LEVEL001
   6
CONTINUOUS
  62
7
  10
 272.727
  20
 890.231
  30
0.0
  11
 272.447
  21
 889.952
  31
0.0
   0
LINE
   8
LEVEL001
   6
CONTINUOUS
  62
7
  10
 273.043
  20
 890.475
  30
0.0
  11
 272.727
  21
 890.231
  31
0.0
   0
LINE
   8
LEVEL001
   6
CONTINUOUS
  62
7
  10
 273.390
  20
 890.682
  30
0.0
  11
 273.043
  21
 890.475
  31
0.0
   0
LINE
   8
LEVEL001
   6
CONTINUOUS
  62
7
  10
 273.762
  20
 890.846
  30
0.0
  11
 273.390
  21
 890.682
  31
0.0
   0
LINE
   8
LEVEL001
   6
CONTINUOUS
  62
7
  10
 274.153
  20
 890.967
  30
0.0
  11
 273.762
  21
 890.846
  31
0.0
   0
LINE
   8
LEVEL001
   6
CONTINUOUS
  62
7
  10
 274.557
  20
 891.042
  30
0.0
  11
 274.153
  21
 890.967
  31
0.0
   0
LINE
   8
LEVEL001
   6
CONTINUOUS
  62
7
  10
 274.968
  20
 891.069
  30
0.0
  11
 274.557
  21
 891.042
  31
0.0
   0
LINE
   8
LEVEL001
   6
CONTINUOUS
  62
7
  10
 275.380
  20
 891.049
  30
0.0
  11
 274.968
  21
 891.069
  31
0.0
   0
LINE
   8
LEVEL001
   6
CONTINUOUS
  62
7
  10
 275.785
  20
 890.982
  30
0.0
  11
 275.380
  21
 891.049
  31
0.0
   0
LINE
   8
LEVEL001
   6
CONTINUOUS
  62
7
  10
 276.179
  20
 890.868
  30
0.0
  11
 275.785
  21
 890.982
  31
0.0
   0
LINE
   8
LEVEL001
   6
CONTINUOUS
  62
7
  10
 276.554
  20
 890.710
  30
0.0
  11
 276.179
  21
 890.868
  31
0.0
   0
LINE
   8
LEVEL001
   6
CONTINUOUS
  62
7
  10
 276.905
  20
 890.510
  30
0.0
  11
 276.554
  21
 890.710
  31
0.0
   0
LINE
   8
LEVEL001
   6
CONTINUOUS
  62
7
  10
 277.226
  20
 890.271
  30
0.0
  11
 276.905
  21
 890.510
  31
0.0
   0
LINE
   8
LEVEL001
   6
CONTINUOUS
  62
7
  10
 277.512
  20
 889.997
  30
0.0
  11
 277.226
  21
 890.271
  31
0.0
   0
LINE
   8
LEVEL001
   6
CONTINUOUS
  62
7
  10
 277.759
  20
 889.692
  30
0.0
  11
 277.512
  21
 889.997
  31
0.0
   0
LINE
   8
LEVEL001
   6
CONTINUOUS
  62
7
  10
 277.964
  20
 889.362
  30
0.0
  11
 277.759
  21
 889.692
  31
0.0
   0
LINE
   8
LEVEL001
   6
CONTINUOUS
  62
7
  10
 278.121
  20
 889.010
  30
0.0
  11
 277.964
  21
 889.362
  31
0.0
   0
LINE
   8
LEVEL001
   6
CONTINUOUS
  62
7
  10
 278.231
  20
 888.643
  30
0.0
  11
 278.121
  21
 889.010
  31
0.0
   0
LINE
   8
LEVEL001
   6
CONTINUOUS
  62
7
  10
 278.289
  20
 888.266
  30
0.0
  11
 278.231
  21
 888.643
  31
0.0
   0
LINE
   8
LEVEL001
   6
CONTINUOUS
  62
7
  10
 278.297
  20
 887.885
  30
0.0
  11
 278.289
  21
 888.266
  31
0.0
   0
LINE
   8
LEVEL001
   6
CONTINUOUS
  62
7
  10
 278.253
  20
 887.506
  30
0.0
  11
 278.297
  21
 887.885
  31
0.0
   0
LINE
   8
LEVEL001
   6
CONTINUOUS
  62
7
  10
 278.158
  20
 887.135
  30
0.0
  11
 278.253
  21
 887.506
  31
0.0
   0
LINE
   8
LEVEL001
   6
CONTINUOUS
  62
7
  10
 278.014
  20
 886.779
  30
0.0
  11
 278.158
  21
 887.135
  31
0.0
   0
LINE
   8
LEVEL001
   6
CONTINUOUS
  62
7
  10
 277.823
  20
 886.441
  30
0.0
  11
 278.014
  21
 886.779
  31
0.0
   0
LINE
   8
LEVEL001
   6
CONTINUOUS
  62
7
  10
 277.588
  20
 886.128
  30
0.0
  11
 277.823
  21
 886.441
  31
0.0
   0
LINE
   8
LEVEL001
   6
CONTINUOUS
  62
7
  10
 277.312
  20
 885.845
  30
0.0
  11
 277.588
  21
 886.128
  31
0.0
   0
LINE
   8
LEVEL001
   6
CONTINUOUS
  62
7
  10
 277.001
  20
 885.596
  30
0.0
  11
 277.312
  21
 885.845
  31
0.0
   0
LINE
   8
LEVEL001
   6
CONTINUOUS
  62
7
  10
 276.658
  20
 885.384
  30
0.0
  11
 277.001
  21
 885.596
  31
0.0
   0
LINE
   8
LEVEL001
   6
CONTINUOUS
  62
7
  10
 278.500
  20
 887.302
  30
0.0
  11
 278.151
  21
 887.116
  31
0.0
   0
LINE
   8
LEVEL001
   6
CONTINUOUS
  62
7
  10
 278.500
  20
 891.035
  30
0.0
  11
 278.500
  21
 887.302
  31
0.0
   0
LINE
   8
LEVEL001
   6
CONTINUOUS
  62
7
  10
 275.000
  20
 892.902
  30
0.0
  11
 278.500
  21
 891.035
  31
0.0
   0
LINE
   8
LEVEL001
   6
CONTINUOUS
  62
7
  10
 271.500
  20
 891.035
  30
0.0
  11
 275.000
  21
 892.902
  31
0.0
   0
LINE
   8
LEVEL001
   6
CONTINUOUS
  62
7
  10
 271.500
  20
 887.302
  30
0.0
  11
 271.500
  21
 891.035
  31
0.0
   0
LINE
   8
LEVEL001
   6
CONTINUOUS
  62
7
  10
 271.849
  20
 887.116
  30
0.0
  11
 271.500
  21
 887.302
  31
0.0
   0
LINE
   8
LEVEL001
   6
CONTINUOUS
  62
7
  10
 277.399
  20
 886.914
  30
0.0
  11
 277.400
  21
 886.987
  31
0.0
   0
LINE
   8
LEVEL001
   6
CONTINUOUS
  62
7
  10
 277.370
  20
 886.638
  30
0.0
  11
 277.399
  21
 886.914
  31
0.0
   0
LINE
   8
LEVEL001
   6
CONTINUOUS
  62
7
  10
 277.304
  20
 886.368
  30
0.0
  11
 277.370
  21
 886.638
  31
0.0
   0
LINE
   8
LEVEL001
   6
CONTINUOUS
  62
7
  10
 277.203
  20
 886.107
  30
0.0
  11
 277.304
  21
 886.368
  31
0.0
   0
LINE
   8
LEVEL001
   6
CONTINUOUS
  62
7
  10
 277.067
  20
 885.860
  30
0.0
  11
 277.203
  21
 886.107
  31
0.0
   0
LINE
   8
LEVEL001
   6
CONTINUOUS
  62
7
  10
 276.899
  20
 885.631
  30
0.0
  11
 277.067
  21
 885.860
  31
0.0
   0
LINE
   8
LEVEL001
   6
CONTINUOUS
  62
7
  10
 276.701
  20
 885.423
  30
0.0
  11
 276.899
  21
 885.631
  31
0.0
   0
LINE
   8
LEVEL001
   6
CONTINUOUS
  62
7
  10
 276.476
  20
 885.239
  30
0.0
  11
 276.701
  21
 885.423
  31
0.0
   0
LINE
   8
LEVEL001
   6
CONTINUOUS
  62
7
  10
 276.229
  20
 885.083
  30
0.0
  11
 276.476
  21
 885.239
  31
0.0
   0
LINE
   8
LEVEL001
   6
CONTINUOUS
  62
7
  10
 275.962
  20
 884.956
  30
0.0
  11
 276.229
  21
 885.083
  31
0.0
   0
LINE
   8
LEVEL001
   6
CONTINUOUS
  62
7
  10
 275.681
  20
 884.861
  30
0.0
  11
 275.962
  21
 884.956
  31
0.0
   0
LINE
   8
LEVEL001
   6
CONTINUOUS
  62
7
  10
 275.389
  20
 884.799
  30
0.0
  11
 275.681
  21
 884.861
  31
0.0
   0
LINE
   8
LEVEL001
   6
CONTINUOUS
  62
7
  10
 275.090
  20
 884.771
  30
0.0
  11
 275.389
  21
 884.799
  31
0.0
   0
LINE
   8
LEVEL001
   6
CONTINUOUS
  62
7
  10
 274.791
  20
 884.778
  30
0.0
  11
 275.090
  21
 884.771
  31
0.0
   0
LINE
   8
LEVEL001
   6
CONTINUOUS
  62
7
  10
 274.494
  20
 884.820
  30
0.0
  11
 274.791
  21
 884.778
  31
0.0
   0
LINE
   8
LEVEL001
   6
CONTINUOUS
  62
7
  10
 274.206
  20
 884.895
  30
0.0
  11
 274.494
  21
 884.820
  31
0.0
   0
LINE
   8
LEVEL001
   6
CONTINUOUS
  62
7
  10
 273.929
  20
 885.003
  30
0.0
  11
 274.206
  21
 884.895
  31
0.0
   0
LINE
   8
LEVEL001
   6
CONTINUOUS
  62
7
  10
 273.670
  20
 885.141
  30
0.0
  11
 273.929
  21
 885.003
  31
0.0
   0
LINE
   8
LEVEL001
   6
CONTINUOUS
  62
7
  10
 273.431
  20
 885.309
  30
0.0
  11
 273.670
  21
 885.141
  31
0.0
   0
LINE
   8
LEVEL001
   6
CONTINUOUS
  62
7
  10
 273.217
  20
 885.503
  30
0.0
  11
 273.431
  21
 885.309
  31
0.0
   0
LINE
   8
LEVEL001
   6
CONTINUOUS
  62
7
  10
 273.031
  20
 885.720
  30
0.0
  11
 273.217
  21
 885.503
  31
0.0
   0
LINE
   8
LEVEL001
   6
CONTINUOUS
  62
7
  10
 272.875
  20
 885.957
  30
0.0
  11
 273.031
  21
 885.720
  31
0.0
   0
LINE
   8
LEVEL001
   6
CONTINUOUS
  62
7
  10
 272.753
  20
 886.209
  30
0.0
  11
 272.875
  21
 885.957
  31
0.0
   0
LINE
   8
LEVEL001
   6
CONTINUOUS
  62
7
  10
 272.665
  20
 886.474
  30
0.0
  11
 272.753
  21
 886.209
  31
0.0
   0
LINE
   8
LEVEL001
   6
CONTINUOUS
  62
7
  10
 272.614
  20
 886.747
  30
0.0
  11
 272.665
  21
 886.474
  31
0.0
   0
LINE
   8
LEVEL001
   6
CONTINUOUS
  62
7
  10
 272.600
  20
 887.024
  30
0.0
  11
 272.614
  21
 886.747
  31
0.0
   0
LINE
   8
LEVEL001
   6
CONTINUOUS
  62
7
  10
 272.624
  20
 887.300
  30
0.0
  11
 272.600
  21
 887.024
  31
0.0
   0
LINE
   8
LEVEL001
   6
CONTINUOUS
  62
7
  10
 272.685
  20
 887.571
  30
0.0
  11
 272.624
  21
 887.300
  31
0.0
   0
LINE
   8
LEVEL001
   6
CONTINUOUS
  62
7
  10
 272.782
  20
 887.833
  30
0.0
  11
 272.685
  21
 887.571
  31
0.0
   0
LINE
   8
LEVEL001
   6
CONTINUOUS
  62
7
  10
 272.913
  20
 888.082
  30
0.0
  11
 272.782
  21
 887.833
  31
0.0
   0
LINE
   8
LEVEL001
   6
CONTINUOUS
  62
7
  10
 273.077
  20
 888.314
  30
0.0
  11
 272.913
  21
 888.082
  31
0.0
   0
LINE
   8
LEVEL001
   6
CONTINUOUS
  62
7
  10
 273.271
  20
 888.525
  30
0.0
  11
 273.077
  21
 888.314
  31
0.0
   0
LINE
   8
LEVEL001
   6
CONTINUOUS
  62
7
  10
 273.492
  20
 888.712
  30
0.0
  11
 273.271
  21
 888.525
  31
0.0
   0
LINE
   8
LEVEL001
   6
CONTINUOUS
  62
7
  10
 273.737
  20
 888.873
  30
0.0
  11
 273.492
  21
 888.712
  31
0.0
   0
LINE
   8
LEVEL001
   6
CONTINUOUS
  62
7
  10
 274.001
  20
 889.003
  30
0.0
  11
 273.737
  21
 888.873
  31
0.0
   0
LINE
   8
LEVEL001
   6
CONTINUOUS
  62
7
  10
 274.281
  20
 889.103
  30
0.0
  11
 274.001
  21
 889.003
  31
0.0
   0
LINE
   8
LEVEL001
   6
CONTINUOUS
  62
7
  10
 274.572
  20
 889.169
  30
0.0
  11
 274.281
  21
 889.103
  31
0.0
   0
LINE
   8
LEVEL001
   6
CONTINUOUS
  62
7
  10
 274.870
  20
 889.201
  30
0.0
  11
 274.572
  21
 889.169
  31
0.0
   0
LINE
   8
LEVEL001
   6
CONTINUOUS
  62
7
  10
 275.170
  20
 889.199
  30
0.0
  11
 274.870
  21
 889.201
  31
0.0
   0
LINE
   8
LEVEL001
   6
CONTINUOUS
  62
7
  10
 275.467
  20
 889.162
  30
0.0
  11
 275.170
  21
 889.199
  31
0.0
   0
LINE
   8
LEVEL001
   6
CONTINUOUS
  62
7
  10
 275.757
  20
 889.091
  30
0.0
  11
 275.467
  21
 889.162
  31
0.0
   0
LINE
   8
LEVEL001
   6
CONTINUOUS
  62
7
  10
 276.035
  20
 888.988
  30
0.0
  11
 275.757
  21
 889.091
  31
0.0
   0
LINE
   8
LEVEL001
   6
CONTINUOUS
  62
7
  10
 276.297
  20
 888.853
  30
0.0
  11
 276.035
  21
 888.988
  31
0.0
   0
LINE
   8
LEVEL001
   6
CONTINUOUS
  62
7
  10
 276.538
  20
 888.689
  30
0.0
  11
 276.297
  21
 888.853
  31
0.0
   0
LINE
   8
LEVEL001
   6
CONTINUOUS
  62
7
  10
 276.756
  20
 888.499
  30
0.0
  11
 276.538
  21
 888.689
  31
0.0
   0
LINE
   8
LEVEL001
   6
CONTINUOUS
  62
7
  10
 276.946
  20
 888.284
  30
0.0
  11
 276.756
  21
 888.499
  31
0.0
   0
LINE
   8
LEVEL001
   6
CONTINUOUS
  62
7
  10
 277.106
  20
 888.050
  30
0.0
  11
 276.946
  21
 888.284
  31
0.0
   0
LINE
   8
LEVEL001
   6
CONTINUOUS
  62
7
  10
 277.233
  20
 887.799
  30
0.0
  11
 277.106
  21
 888.050
  31
0.0
   0
LINE
   8
LEVEL001
   6
CONTINUOUS
  62
7
  10
 277.325
  20
 887.536
  30
0.0
  11
 277.233
  21
 887.799
  31
0.0
   0
LINE
   8
LEVEL001
   6
CONTINUOUS
  62
7
  10
 277.381
  20
 887.264
  30
0.0
  11
 277.325
  21
 887.536
  31
0.0
   0
LINE
   8
LEVEL001
   6
CONTINUOUS
  62
7
  10
 277.400
  20
 886.987
  30
0.0
  11
 277.381
  21
 887.264
  31
0.0
   0
LINE
   8
LEVEL001
   6
CONTINUOUS
  62
7
  10
 274.010
  20
 887.118
  30
0.0
  11
 274.000
  21
 887.002
  31
0.0
   0
LINE
   8
LEVEL001
   6
CONTINUOUS
  62
7
  10
 274.035
  20
 887.231
  30
0.0
  11
 274.010
  21
 887.118
  31
0.0
   0
LINE
   8
LEVEL001
   6
CONTINUOUS
  62
7
  10
 274.076
  20
 887.340
  30
0.0
  11
 274.035
  21
 887.231
  31
0.0
   0
LINE
   8
LEVEL001
   6
CONTINUOUS
  62
7
  10
 274.131
  20
 887.443
  30
0.0
  11
 274.076
  21
 887.340
  31
0.0
   0
LINE
   8
LEVEL001
   6
CONTINUOUS
  62
7
  10
 274.199
  20
 887.540
  30
0.0
  11
 274.131
  21
 887.443
  31
0.0
   0
LINE
   8
LEVEL001
   6
CONTINUOUS
  62
7
  10
 274.280
  20
 887.628
  30
0.0
  11
 274.199
  21
 887.540
  31
0.0
   0
LINE
   8
LEVEL001
   6
CONTINUOUS
  62
7
  10
 274.372
  20
 887.706
  30
0.0
  11
 274.280
  21
 887.628
  31
0.0
   0
LINE
   8
LEVEL001
   6
CONTINUOUS
  62
7
  10
 274.474
  20
 887.773
  30
0.0
  11
 274.372
  21
 887.706
  31
0.0
   0
LINE
   8
LEVEL001
   6
CONTINUOUS
  62
7
  10
 274.584
  20
 887.827
  30
0.0
  11
 274.474
  21
 887.773
  31
0.0
   0
LINE
   8
LEVEL001
   6
CONTINUOUS
  62
7
  10
 274.700
  20
 887.869
  30
0.0
  11
 274.584
  21
 887.827
  31
0.0
   0
LINE
   8
LEVEL001
   6
CONTINUOUS
  62
7
  10
 274.822
  20
 887.896
  30
0.0
  11
 274.700
  21
 887.869
  31
0.0
   0
LINE
   8
LEVEL001
   6
CONTINUOUS
  62
7
  10
 274.946
  20
 887.910
  30
0.0
  11
 274.822
  21
 887.896
  31
0.0
   0
LINE
   8
LEVEL001
   6
CONTINUOUS
  62
7
  10
 275.071
  20
 887.909
  30
0.0
  11
 274.946
  21
 887.910
  31
0.0
   0
LINE
   8
LEVEL001
   6
CONTINUOUS
  62
7
  10
 275.195
  20
 887.893
  30
0.0
  11
 275.071
  21
 887.909
  31
0.0
   0
LINE
   8
LEVEL001
   6
CONTINUOUS
  62
7
  10
 275.315
  20
 887.864
  30
0.0
  11
 275.195
  21
 887.893
  31
0.0
   0
LINE
   8
LEVEL001
   6
CONTINUOUS
  62
7
  10
 275.431
  20
 887.821
  30
0.0
  11
 275.315
  21
 887.864
  31
0.0
   0
LINE
   8
LEVEL001
   6
CONTINUOUS
  62
7
  10
 275.540
  20
 887.765
  30
0.0
  11
 275.431
  21
 887.821
  31
0.0
   0
LINE
   8
LEVEL001
   6
CONTINUOUS
  62
7
  10
 275.641
  20
 887.696
  30
0.0
  11
 275.540
  21
 887.765
  31
0.0
   0
LINE
   8
LEVEL001
   6
CONTINUOUS
  62
7
  10
 275.732
  20
 887.617
  30
0.0
  11
 275.641
  21
 887.696
  31
0.0
   0
LINE
   8
LEVEL001
   6
CONTINUOUS
  62
7
  10
 275.811
  20
 887.528
  30
0.0
  11
 275.732
  21
 887.617
  31
0.0
   0
LINE
   8
LEVEL001
   6
CONTINUOUS
  62
7
  10
 275.878
  20
 887.430
  30
0.0
  11
 275.811
  21
 887.528
  31
0.0
   0
LINE
   8
LEVEL001
   6
CONTINUOUS
  62
7
  10
 275.931
  20
 887.326
  30
0.0
  11
 275.878
  21
 887.430
  31
0.0
   0
LINE
   8
LEVEL001
   6
CONTINUOUS
  62
7
  10
 275.969
  20
 887.216
  30
0.0
  11
 275.931
  21
 887.326
  31
0.0
   0
LINE
   8
LEVEL001
   6
CONTINUOUS
  62
7
  10
 275.992
  20
 887.102
  30
0.0
  11
 275.969
  21
 887.216
  31
0.0
   0
LINE
   8
LEVEL001
   6
CONTINUOUS
  62
7
  10
 276.000
  20
 886.987
  30
0.0
  11
 275.992
  21
 887.102
  31
0.0
   0
LINE
   8
LEVEL001
   6
CONTINUOUS
  62
7
  10
 275.000
  20
 892.902
  30
0.0
  11
 275.000
  21
 893.821
  31
0.0
   0
LINE
   8
LEVEL001
   6
CONTINUOUS
  62
7
  10
 278.500
  20
 891.954
  30
0.0
  11
 278.500
  21
 891.035
  31
0.0
   0
LINE
   8
LEVEL001
   6
CONTINUOUS
  62
7
  10
 275.000
  20
 893.821
  30
0.0
  11
 278.500
  21
 891.954
  31
0.0
   0
LINE
   8
LEVEL001
   6
CONTINUOUS
  62
7
  10
 271.500
  20
 891.954
  30
0.0
  11
 275.000
  21
 893.821
  31
0.0
   0
LINE
   8
LEVEL001
   6
CONTINUOUS
  62
7
  10
 271.500
  20
 891.035
  30
0.0
  11
 271.500
  21
 891.954
  31
0.0
   0
LINE
   8
LEVEL001
   6
CONTINUOUS
  62
7
  10
 268.000
  20
 898.156
  30
0.0
  11
 268.665
  21
 897.772
  31
0.0
   0
LINE
   8
LEVEL001
   6
CONTINUOUS
  62
7
  10
 281.335
  20
 897.772
  30
0.0
  11
 268.665
  21
 897.772
  31
0.0
   0
LINE
   8
LEVEL001
   6
CONTINUOUS
  62
7
  10
 282.000
  20
 898.156
  30
0.0
  11
 281.335
  21
 897.772
  31
0.0
   0
LINE
   8
LEVEL001
   6
CONTINUOUS
  62
7
  10
 268.000
  20
 898.156
  30
0.0
  11
 282.000
  21
 898.156
  31
0.0
   0
ARC
   8
LEVEL001
   6
CONTINUOUS
  62
7
  10
 275.000
  20
 906.889
  30
0.0
  40
 8.73264
  50
 242.369
  51
 297.631
   0
LINE
   8
LEVEL001
   6
CONTINUOUS
  62
7
  10
 282.000
  20
 902.523
  30
0.0
  11
 268.000
  21
 902.523
  31
0.0
   0
ARC
   8
LEVEL001
   6
CONTINUOUS
  62
7
  10
 266.726
  20
 906.795
  30
0.0
  40
 8.73264
  50
 278.386
  51
 298.924
   0
ARC
   8
LEVEL001
   6
CONTINUOUS
  62
7
  10
 283.274
  20
 906.795
  30
0.0
  40
 8.73264
  50
 241.076
  51
 261.614
   0
LINE
   8
LEVEL001
   6
CONTINUOUS
  62
7
  10
 283.100
  20
 898.791
  30
0.0
  11
 282.000
  21
 898.156
  31
0.0
   0
LINE
   8
LEVEL001
   6
CONTINUOUS
  62
7
  10
 283.100
  20
 901.423
  30
0.0
  11
 283.100
  21
 898.791
  31
0.0
   0
LINE
   8
LEVEL001
   6
CONTINUOUS
  62
7
  10
 282.000
  20
 902.523
  30
0.0
  11
 283.100
  21
 901.423
  31
0.0
   0
LINE
   8
LEVEL001
   6
CONTINUOUS
  62
7
  10
 266.900
  20
 901.423
  30
0.0
  11
 268.000
  21
 902.523
  31
0.0
   0
LINE
   8
LEVEL001
   6
CONTINUOUS
  62
7
  10
 266.900
  20
 898.791
  30
0.0
  11
 266.900
  21
 901.423
  31
0.0
   0
LINE
   8
LEVEL001
   6
CONTINUOUS
  62
7
  10
 268.000
  20
 898.156
  30
0.0
  11
 266.900
  21
 898.791
  31
0.0
   0
LINE
   8
LEVEL001
   6
CONTINUOUS
  62
7
  10
 270.950
  20
 899.152
  30
0.0
  11
 270.950
  21
 901.527
  31
0.0
   0
LINE
   8
LEVEL001
   6
CONTINUOUS
  62
7
  10
 279.050
  20
 899.152
  30
0.0
  11
 279.050
  21
 901.527
  31
0.0
   0
LINE
   8
LEVEL001
   6
CONTINUOUS
  62
7
  10
 336.111
  20
 1077.70
  30
0.0
  11
 333.481
  21
 1149.05
  31
0.0
   0
LINE
   8
LEVEL001
   6
CONTINUOUS
  62
7
  10
 163.889
  20
 1077.70
  30
0.0
  11
 166.519
  21
 1149.05
  31
0.0
   0
ARC
   8
LEVEL001
   6
CONTINUOUS
  62
7
  10
 195.000
  20
 1148.00
  30
0.0
  40
 28.5000
  50
 90.0000
  51
 177.889
   0
ARC
   8
LEVEL001
   6
CONTINUOUS
  62
7
  10
 305.000
  20
 1148.00
  30
0.0
  40
 28.5000
  50
 2.11085
  51
 90.0000
   0
LINE
   8
LEVEL001
   6
CONTINUOUS
  62
7
  10
 250.000
  20
 903.000
  30
0.0
  11
 342.000
  21
 904.496
  31
0.0
   0
ARC
   8
LEVEL001
   6
CONTINUOUS
  62
7
  10
 342.024
  20
 1003.49
  30
0.0
  40
 5.00000
  50
 158.362
  51
 269.727
   0
LINE
   8
LEVEL001
   6
CONTINUOUS
  62
7
  10
 342.250
  20
 903.500
  30
0.0
  11
 353.250
  21
 903.500
  31
0.0
   0
ARC
   8
LEVEL001
   6
CONTINUOUS
  62
7
  10
 353.250
  20
 905.500
  30
0.0
  40
 2.00000
  50
 270.000
  51
 0.651378E-11
   0
ARC
   8
LEVEL001
   6
CONTINUOUS
  62
7
  10
 353.250
  20
 905.500
  30
0.0
  40
 2.00000
  50
 270.000
  51
 0.651378E-11
   0
LINE
   8
LEVEL001
   6
CONTINUOUS
  62
7
  10
 358.500
  20
 936.500
  30
0.0
  11
 355.250
  21
 936.500
  31
0.0
   0
LINE
   8
LEVEL001
   6
CONTINUOUS
  62
7
  10
 358.500
  20
 966.500
  30
0.0
  11
 355.250
  21
 966.500
  31
0.0
   0
LINE
   8
LEVEL001
   6
CONTINUOUS
  62
7
  10
 369.000
  20
 947.500
  30
0.0
  11
 369.000
  21
 951.500
  31
0.0
   0
LINE
   8
LEVEL001
   6
CONTINUOUS
  62
7
  10
 404.000
  20
 937.500
  30
0.0
  11
 404.000
  21
 947.500
  31
0.0
   0
LINE
   8
LEVEL001
   6
CONTINUOUS
  62
7
  10
 363.000
  20
 937.500
  30
0.0
  11
 363.000
  21
 947.500
  31
0.0
   0
LINE
   8
LEVEL001
   6
CONTINUOUS
  62
7
  10
 359.000
  20
 947.500
  30
0.0
  11
 405.000
  21
 947.500
  31
0.0
   0
LINE
   8
LEVEL001
   6
CONTINUOUS
  62
7
  10
 359.000
  20
 951.500
  30
0.0
  11
 359.000
  21
 947.500
  31
0.0
   0
LINE
   8
LEVEL001
   6
CONTINUOUS
  62
7
  10
 363.000
  20
 937.500
  30
0.0
  11
 404.000
  21
 937.500
  31
0.0
   0
LINE
   8
LEVEL001
   6
CONTINUOUS
  62
7
  10
 405.000
  20
 938.500
  30
0.0
  11
 404.000
  21
 937.500
  31
0.0
   0
LINE
   8
LEVEL001
   6
CONTINUOUS
  62
7
  10
 358.500
  20
 936.500
  30
0.0
  11
 363.000
  21
 937.500
  31
0.0
   0
LINE
   8
LEVEL001
   6
CONTINUOUS
  62
7
  10
 369.000
  20
 955.500
  30
0.0
  11
 369.000
  21
 951.500
  31
0.0
   0
LINE
   8
LEVEL001
   6
CONTINUOUS
  62
7
  10
 404.000
  20
 965.500
  30
0.0
  11
 404.000
  21
 955.500
  31
0.0
   0
LINE
   8
LEVEL001
   6
CONTINUOUS
  62
7
  10
 363.000
  20
 965.500
  30
0.0
  11
 363.000
  21
 955.500
  31
0.0
   0
LINE
   8
LEVEL001
   6
CONTINUOUS
  62
7
  10
 359.000
  20
 955.500
  30
0.0
  11
 405.000
  21
 955.500
  31
0.0
   0
LINE
   8
LEVEL001
   6
CONTINUOUS
  62
7
  10
 359.000
  20
 951.500
  30
0.0
  11
 359.000
  21
 955.500
  31
0.0
   0
LINE
   8
LEVEL001
   6
CONTINUOUS
  62
7
  10
 363.000
  20
 965.500
  30
0.0
  11
 404.000
  21
 965.500
  31
0.0
   0
LINE
   8
LEVEL001
   6
CONTINUOUS
  62
7
  10
 405.000
  20
 964.500
  30
0.0
  11
 404.000
  21
 965.500
  31
0.0
   0
LINE
   8
LEVEL001
   6
CONTINUOUS
  62
7
  10
 358.500
  20
 966.500
  30
0.0
  11
 363.000
  21
 965.500
  31
0.0
   0
LINE
   8
LEVEL001
   6
CONTINUOUS
  62
7
  10
 342.250
  20
 999.500
  30
0.0
  11
 353.250
  21
 999.500
  31
0.0
   0
LINE
   8
LEVEL001
   6
CONTINUOUS
  62
7
  10
 355.250
  20
 997.500
  30
0.0
  11
 355.250
  21
 905.500
  31
0.0
   0
ARC
   8
LEVEL001
   6
CONTINUOUS
  62
7
  10
 353.250
  20
 997.500
  30
0.0
  40
 2.00000
  50
0.0
  51
 90.0000
   0
LINE
   8
LEVEL001
   6
CONTINUOUS
  62
7
  10
 342.000
  20
 998.495
  30
0.0
  11
 342.000
  21
 904.496
  31
0.0
   0
LINE
   8
LEVEL001
   6
CONTINUOUS
  62
7
  10
 342.250
  20
 903.500
  30
0.0
  11
 342.250
  21
 999.500
  31
0.0
   0
LINE
   8
LEVEL001
   6
CONTINUOUS
  62
7
  10
 158.000
  20
 998.495
  30
0.0
  11
 158.000
  21
 904.496
  31
0.0
   0
LINE
   8
LEVEL001
   6
CONTINUOUS
  62
7
  10
 157.750
  20
 903.500
  30
0.0
  11
 157.750
  21
 999.500
  31
0.0
   0
LINE
   8
LEVEL001
   6
CONTINUOUS
  62
7
  10
 250.000
  20
 903.000
  30
0.0
  11
 158.000
  21
 904.496
  31
0.0
   0
ARC
   8
LEVEL001
   6
CONTINUOUS
  62
7
  10
 157.976
  20
 1003.49
  30
0.0
  40
 5.00000
  50
 270.273
  51
 21.6377
   0
ARC
   8
LEVEL001
   6
CONTINUOUS
  62
7
  10
 250.000
  20
 1040.00
  30
0.0
  40
 94.0000
  50
 271.929
  51
 338.362
   0
CIRCLE
   8
LEVEL001
   6
CONTINUOUS
  62
7
  10
 250.000
  20
 1040.00
  30
0.0
  40
 44.5500
   0
CIRCLE
   8
LEVEL001
   6
CONTINUOUS
  62
7
  10
 250.000
  20
 1040.00
  30
0.0
  40
 42.5000
   0
ARC
   8
LEVEL001
   6
CONTINUOUS
  62
7
  10
 250.000
  20
 1040.00
  30
0.0
  40
 94.0000
  50
 91.9291
  51
 268.071
   0
ARC
   8
LEVEL001
   6
CONTINUOUS
  62
7
  10
 250.000
  20
 965.000
  30
0.0
  40
 10.0000
  50
 113.578
  51
 246.422
   0
ARC
   8
LEVEL001
   6
CONTINUOUS
  62
7
  10
 250.000
  20
 965.000
  30
0.0
  40
 12.5000
  50
 108.663
  51
 251.337
   0
ARC
   8
LEVEL001
   6
CONTINUOUS
  62
7
  10
 250.000
  20
 948.500
  30
0.0
  40
 4.00000
  50
 180.000
  51
0.0
   0
LINE
   8
LEVEL001
   6
CONTINUOUS
  62
7
  10
 246.000
  20
 948.500
  30
0.0
  11
 246.000
  21
 981.500
  31
0.0
   0
ARC
   8
LEVEL001
   6
CONTINUOUS
  62
7
  10
 250.000
  20
 981.500
  30
0.0
  40
 4.00000
  50
0.0
  51
 180.000
   0
ARC
   8
LEVEL001
   6
CONTINUOUS
  62
7
  10
 250.000
  20
 965.000
  30
0.0
  40
 10.0000
  50
 293.578
  51
 66.4220
   0
LINE
   8
LEVEL001
   6
CONTINUOUS
  62
7
  10
 254.000
  20
 948.500
  30
0.0
  11
 254.000
  21
 981.500
  31
0.0
   0
ARC
   8
LEVEL001
   6
CONTINUOUS
  62
7
  10
 250.000
  20
 965.000
  30
0.0
  40
 12.5000
  50
 288.663
  51
 71.3370
   0
ARC
   8
LEVEL001
   6
CONTINUOUS
  62
7
  10
 250.000
  20
 1131.50
  30
0.0
  40
 4.00000
  50
0.0
  51
 180.000
   0
ARC
   8
LEVEL001
   6
CONTINUOUS
  62
7
  10
 250.000
  20
 1098.50
  30
0.0
  40
 4.00000
  50
 180.000
  51
0.0
   0
ARC
   8
LEVEL001
   6
CONTINUOUS
  62
7
  10
 250.000
  20
 1115.00
  30
0.0
  40
 10.0000
  50
 293.578
  51
 66.4220
   0
ARC
   8
LEVEL001
   6
CONTINUOUS
  62
7
  10
 250.000
  20
 1115.00
  30
0.0
  40
 10.0000
  50
 113.578
  51
 246.422
   0
LINE
   8
LEVEL001
   6
CONTINUOUS
  62
7
  10
 246.000
  20
 1131.50
  30
0.0
  11
 246.000
  21
 1098.50
  31
0.0
   0
LINE
   8
LEVEL001
   6
CONTINUOUS
  62
7
  10
 254.000
  20
 1131.50
  30
0.0
  11
 254.000
  21
 1098.50
  31
0.0
   0
ARC
   8
LEVEL001
   6
CONTINUOUS
  62
7
  10
 250.000
  20
 1115.00
  30
0.0
  40
 12.5000
  50
 288.663
  51
 71.3370
   0
ARC
   8
LEVEL001
   6
CONTINUOUS
  62
7
  10
 250.000
  20
 1115.00
  30
0.0
  40
 12.5000
  50
 108.663
  51
 251.337
   0
ARC
   8
LEVEL001
   6
CONTINUOUS
  62
7
  10
 250.000
  20
 1040.00
  30
0.0
  40
 94.0000
  50
0.0
  51
 88.0710
   0
LINE
   8
LEVEL001
   6
CONTINUOUS
  62
7
  10
 255.884
  20
 861.539
  30
0.0
  11
 258.683
  21
 889.857
  31
0.0
   0
LINE
   8
LEVEL001
   6
CONTINUOUS
  62
7
  10
 244.116
  20
 861.539
  30
0.0
  11
 241.317
  21
 889.857
  31
0.0
   0
ARC
   8
LEVEL001
   6
CONTINUOUS
  62
7
  10
 226.389
  20
 888.382
  30
0.0
  40
 15.0000
  50
 5.64581
  51
 89.0686
   0
ARC
   8
LEVEL001
   6
CONTINUOUS
  62
7
  10
 236.155
  20
 860.752
  30
0.0
  40
 8.00000
  50
 268.963
  51
 5.64593
   0
ARC
   8
LEVEL001
   6
CONTINUOUS
  62
7
  10
 263.845
  20
 860.752
  30
0.0
  40
 8.00000
  50
 174.354
  51
 271.037
   0
LINE
   8
LEVEL001
   6
CONTINUOUS
  62
7
  10
 241.291
  20
 1144.72
  30
0.0
  11
 243.972
  21
 1168.34
  31
0.0
   0
LINE
   8
LEVEL001
   6
CONTINUOUS
  62
7
  10
 258.709
  20
 1144.72
  30
0.0
  11
 256.028
  21
 1168.34
  31
0.0
   0
ARC
   8
LEVEL001
   6
CONTINUOUS
  62
7
  10
 226.387
  20
 1146.41
  30
0.0
  40
 15.0000
  50
 282.511
  51
 353.526
   0
ARC
   8
LEVEL001
   6
CONTINUOUS
  62
7
  10
 273.613
  20
 1146.41
  30
0.0
  40
 15.0000
  50
 186.474
  51
 257.488
   0
ARC
   8
LEVEL001
   6
CONTINUOUS
  62
7
  10
 236.023
  20
 1169.24
  30
0.0
  40
 8.00000
  50
 353.526
  51
 91.0371
   0
ARC
   8
LEVEL001
   6
CONTINUOUS
  62
7
  10
 263.977
  20
 1169.24
  30
0.0
  40
 8.00000
  50
 88.9636
  51
 186.474
   0
CIRCLE
   8
LEVEL001
   6
CONTINUOUS
  62
7
  10
 195.000
  20
 1148.00
  30
0.0
  40
 25.0000
   0
CIRCLE
   8
LEVEL001
   6
CONTINUOUS
  62
7
  10
 305.000
  20
 1148.00
  30
0.0
  40
 25.0000
   0
LINE
   8
LEVEL001
   6
CONTINUOUS
  62
7
  10
 157.750
  20
 999.500
  30
0.0
  11
 146.750
  21
 999.500
  31
0.0
   0
LINE
   8
LEVEL001
   6
CONTINUOUS
  62
7
  10
 334.074
  20
 904.367
  30
0.0
  11
 333.491
  21
 881.280
  31
0.0
   0
LINE
   8
LEVEL001
   6
CONTINUOUS
  62
7
  10
 144.750
  20
 997.500
  30
0.0
  11
 144.750
  21
 905.500
  31
0.0
   0
LINE
   8
LEVEL001
   6
CONTINUOUS
  62
7
  10
 165.926
  20
 904.367
  30
0.0
  11
 166.509
  21
 881.280
  31
0.0
   0
LINE
   8
LEVEL001
   6
CONTINUOUS
  62
7
  10
 141.500
  20
 936.500
  30
0.0
  11
 144.750
  21
 936.500
  31
0.0
   0
LINE
   8
LEVEL001
   6
CONTINUOUS
  62
7
  10
 141.500
  20
 966.500
  30
0.0
  11
 144.750
  21
 966.500
  31
0.0
   0
ARC
   8
LEVEL001
   6
CONTINUOUS
  62
7
  10
 195.000
  20
 882.000
  30
0.0
  40
 25.0000
  50
 117.946
  51
 60.1912
   0
ARC
   8
LEVEL001
   6
CONTINUOUS
  62
7
  10
 195.000
  20
 882.000
  30
0.0
  40
 28.5000
  50
 181.447
  51
 270.000
   0
LINE
   8
LEVEL001
   6
CONTINUOUS
  62
7
  10
 250.000
  20
 852.500
  30
0.0
  11
 194.484
  21
 853.504
  31
0.0
   0
LINE
   8
LEVEL001
   6
CONTINUOUS
  62
7
  10
 250.000
  20
 1177.50
  30
0.0
  11
 194.484
  21
 1176.49
  31
0.0
   0
CIRCLE
   8
LEVEL001
   6
CONTINUOUS
  62
7
  10
 195.000
  20
 882.000
  30
0.0
  40
 13.0000
   0
CIRCLE
   8
LEVEL001
   6
CONTINUOUS
  62
7
  10
 195.000
  20
 1148.00
  30
0.0
  40
 13.0000
   0
LINE
   8
LEVEL001
   6
CONTINUOUS
  62
7
  10
 157.750
  20
 903.500
  30
0.0
  11
 146.750
  21
 903.500
  31
0.0
   0
ARC
   8
LEVEL001
   6
CONTINUOUS
  62
7
  10
 146.750
  20
 905.500
  30
0.0
  40
 2.00000
  50
 180.000
  51
 270.000
   0
LINE
   8
LEVEL001
   6
CONTINUOUS
  62
7
  10
 131.000
  20
 947.500
  30
0.0
  11
 131.000
  21
 951.500
  31
0.0
   0
LINE
   8
LEVEL001
   6
CONTINUOUS
  62
7
  10
 96.0000
  20
 937.500
  30
0.0
  11
 96.0000
  21
 947.500
  31
0.0
   0
LINE
   8
LEVEL001
   6
CONTINUOUS
  62
7
  10
 137.000
  20
 937.500
  30
0.0
  11
 137.000
  21
 947.500
  31
0.0
   0
LINE
   8
LEVEL001
   6
CONTINUOUS
  62
7
  10
 141.000
  20
 947.500
  30
0.0
  11
 95.0000
  21
 947.500
  31
0.0
   0
LINE
   8
LEVEL001
   6
CONTINUOUS
  62
7
  10
 141.000
  20
 951.500
  30
0.0
  11
 141.000
  21
 947.500
  31
0.0
   0
LINE
   8
LEVEL001
   6
CONTINUOUS
  62
7
  10
 137.000
  20
 937.500
  30
0.0
  11
 96.0000
  21
 937.500
  31
0.0
   0
LINE
   8
LEVEL001
   6
CONTINUOUS
  62
7
  10
 95.0000
  20
 938.500
  30
0.0
  11
 96.0000
  21
 937.500
  31
0.0
   0
LINE
   8
LEVEL001
   6
CONTINUOUS
  62
7
  10
 141.500
  20
 936.500
  30
0.0
  11
 137.000
  21
 937.500
  31
0.0
   0
ARC
   8
LEVEL001
   6
CONTINUOUS
  62
7
  10
 146.750
  20
 905.500
  30
0.0
  40
 2.00000
  50
 180.000
  51
 270.000
   0
ARC
   8
LEVEL001
   6
CONTINUOUS
  62
7
  10
 146.750
  20
 997.500
  30
0.0
  40
 2.00000
  50
 90.0000
  51
 180.000
   0
LINE
   8
LEVEL001
   6
CONTINUOUS
  62
7
  10
 131.000
  20
 955.500
  30
0.0
  11
 131.000
  21
 951.500
  31
0.0
   0
LINE
   8
LEVEL001
   6
CONTINUOUS
  62
7
  10
 96.0000
  20
 965.500
  30
0.0
  11
 96.0000
  21
 955.500
  31
0.0
   0
LINE
   8
LEVEL001
   6
CONTINUOUS
  62
7
  10
 137.000
  20
 965.500
  30
0.0
  11
 137.000
  21
 955.500
  31
0.0
   0
LINE
   8
LEVEL001
   6
CONTINUOUS
  62
7
  10
 141.000
  20
 955.500
  30
0.0
  11
 95.0000
  21
 955.500
  31
0.0
   0
LINE
   8
LEVEL001
   6
CONTINUOUS
  62
7
  10
 141.000
  20
 951.500
  30
0.0
  11
 141.000
  21
 955.500
  31
0.0
   0
LINE
   8
LEVEL001
   6
CONTINUOUS
  62
7
  10
 137.000
  20
 965.500
  30
0.0
  11
 96.0000
  21
 965.500
  31
0.0
   0
LINE
   8
LEVEL001
   6
CONTINUOUS
  62
7
  10
 95.0000
  20
 964.500
  30
0.0
  11
 96.0000
  21
 965.500
  31
0.0
   0
LINE
   8
LEVEL001
   6
CONTINUOUS
  62
7
  10
 141.500
  20
 966.500
  30
0.0
  11
 137.000
  21
 965.500
  31
0.0
   0
ARC
   8
LEVEL001
   6
CONTINUOUS
  62
7
  10
 250.000
  20
 1040.00
  30
0.0
  40
 94.0000
  50
 338.362
  51
0.0
   0
LINE
   8
LEVEL001
   6
CONTINUOUS
  62
7
  10
 279.945
  20
 1186.96
  30
0.0
  11
 280.035
  21
 1186.96
  31
0.0
   0
ARC
   8
LEVEL001
   6
CONTINUOUS
  62
7
  10
 305.000
  20
 882.000
  30
0.0
  40
 25.0000
  50
 119.809
  51
 62.0543
   0
ARC
   8
LEVEL001
   6
CONTINUOUS
  62
7
  10
 305.000
  20
 882.000
  30
0.0
  40
 28.5000
  50
 270.000
  51
 358.553
   0
LINE
   8
LEVEL001
   6
CONTINUOUS
  62
7
  10
 250.000
  20
 852.500
  30
0.0
  11
 305.516
  21
 853.504
  31
0.0
   0
LINE
   8
LEVEL001
   6
CONTINUOUS
  62
7
  10
 250.000
  20
 1177.50
  30
0.0
  11
 305.516
  21
 1176.49
  31
0.0
   0
CIRCLE
   8
LEVEL001
   6
CONTINUOUS
  62
7
  10
 305.000
  20
 882.000
  30
0.0
  40
 13.0000
   0
CIRCLE
   8
LEVEL001
   6
CONTINUOUS
  62
7
  10
 305.000
  20
 1148.00
  30
0.0
  40
 13.0000
   0
LINE
   8
LEVEL001
   6
CONTINUOUS
  62
7
  10
 95.0000
  20
 938.500
  30
0.0
  11
 95.0000
  21
 964.500
  31
0.0
   0
LINE
   8
LEVEL001
   6
CONTINUOUS
  62
7
  10
 141.500
  20
 936.500
  30
0.0
  11
 141.500
  21
 966.500
  31
0.0
   0
LINE
   8
LEVEL001
   6
CONTINUOUS
  62
7
  10
 358.500
  20
 936.500
  30
0.0
  11
 358.500
  21
 966.500
  31
0.0
   0
LINE
   8
LEVEL001
   6
CONTINUOUS
  62
7
  10
 405.000
  20
 938.500
  30
0.0
  11
 405.000
  21
 964.500
  31
0.0
   0
ARC
   8
LEVEL001
   6
CONTINUOUS
  62
7
  10
 250.000
  20
 1040.00
  30
0.0
  40
 55.0000
  50
 91.9561
  51
 268.044
   0
ARC
   8
LEVEL001
   6
CONTINUOUS
  62
7
  10
 250.000
  20
 1040.00
  30
0.0
  40
 55.0000
  50
 271.956
  51
 88.0439
   0
ARC
   8
LEVEL001
   6
CONTINUOUS
  62
7
  10
 275.000
  20
 886.987
  30
0.0
  40
 0.999217
  50
 180.000
  51
0.0
   0
LINE
   8
LEVEL001
   6
DASHDOT
  62
1
  10
 172.962
  20
 1040.00
  30
0.0
  11
 331.528
  21
 1040.00
  31
0.0
   0
LINE
   8
LEVEL001
   6
DASHDOT
  62
1
  10
 250.000
  20
 1145.37
  30
0.0
  11
 250.000
  21
 934.757
  31
0.0
   0
LINE
   8
LEVEL001
   6
DASHDOT
  62
1
  10
 305.000
  20
 1183.00
  30
0.0
  11
 305.000
  21
 1113.00
  31
0.0
   0
LINE
   8
LEVEL001
   6
DASHDOT
  62
1
  10
 270.000
  20
 1148.00
  30
0.0
  11
 340.000
  21
 1148.00
  31
0.0
   0
LINE
   8
LEVEL001
   6
DASHDOT
  62
1
  10
 195.000
  20
 1183.00
  30
0.0
  11
 195.000
  21
 1113.00
  31
0.0
   0
LINE
   8
LEVEL001
   6
DASHDOT
  62
1
  10
 160.000
  20
 1148.00
  30
0.0
  11
 230.000
  21
 1148.00
  31
0.0
   0
LINE
   8
LEVEL001
   6
DASHDOT
  62
1
  10
 305.000
  20
 908.882
  30
0.0
  11
 305.000
  21
 847.000
  31
0.0
   0
LINE
   8
LEVEL001
   6
DASHDOT
  62
1
  10
 275.375
  20
 882.000
  30
0.0
  11
 340.000
  21
 882.000
  31
0.0
   0
LINE
   8
LEVEL001
   6
DASHDOT
  62
1
  10
 195.000
  20
 908.000
  30
0.0
  11
 195.000
  21
 847.000
  31
0.0
   0
LINE
   8
LEVEL001
   6
DASHDOT
  62
1
  10
 160.000
  20
 882.000
  30
0.0
  11
 225.454
  21
 882.000
  31
0.0
   0
LINE
   8
LEVEL001
   6
DASHDOT
  62
1
  10
 90.0000
  20
 951.500
  30
0.0
  11
 410.000
  21
 951.500
  31
0.0
   0
TEXT
   8
LEVEL003
  62
7
  10
 1025.07
  20
 60.6598
  30
0.0
  40
 30.0000
   1
ＯＳＡＫＡ ＪＡＣＫ
   7
STANDARD
   0
CIRCLE
   8
LEVEL003
   6
CONTINUOUS
  62
7
  10
 989.160
  20
 81.8119
  30
0.0
  40
 9.00000
   0
LINE
   8
LEVEL003
   6
CONTINUOUS
  62
7
  10
 1006.82
  20
 90.8119
  30
0.0
  11
 995.385
  21
 71.0119
  31
0.0
   0
LINE
   8
LEVEL003
   6
CONTINUOUS
  62
7
  10
 995.385
  20
 71.0119
  30
0.0
  11
 972.525
  21
 71.0119
  31
0.0
   0
LINE
   8
LEVEL003
   6
CONTINUOUS
  62
7
  10
 969.930
  20
 66.5119
  30
0.0
  11
 1010.79
  21
 66.5119
  31
0.0
   0
LINE
   8
LEVEL003
   6
CONTINUOUS
  62
7
  10
 1010.79
  20
 66.5119
  30
0.0
  11
 1024.82
  21
 90.8119
  31
0.0
   0
LINE
   8
LEVEL003
   6
CONTINUOUS
  62
7
  10
 1024.82
  20
 90.8119
  30
0.0
  11
 1006.82
  21
 90.8119
  31
0.0
   0
LINE
   8
LEVEL003
   6
CONTINUOUS
  62
7
  10
 972.525
  20
 71.0119
  30
0.0
  11
 969.930
  21
 66.5119
  31
0.0
   0
TEXT
   8
LEVEL003
  62
7
  10
 1033.80
  20
 111.340
  30
0.0
  40
 18.0000
   1
Model : ＰＲ１５Ｄ
   7
STANDARD
   0
LINE
   8
LEVEL003
   6
CONTINUOUS
  62
3
  10
 730.000
  20
 70.0000
  30
0.0
  11
 792.000
  21
 70.0000
  31
0.0
   0
LINE
   8
LEVEL003
   6
CONTINUOUS
  62
3
  10
 733.000
  20
 130.000
  30
0.0
  11
 792.000
  21
 130.000
  31
0.0
   0
LINE
   8
LEVEL003
   6
CONTINUOUS
  62
3
  10
 790.000
  20
 70.0000
  30
0.0
  11
 790.000
  21
 130.000
  31
0.0
   0
LINE
   8
LEVEL003
   6
CONTINUOUS
  62
3
  10
 790.000
  20
 70.0000
  30
0.0
  11
 790.804
  21
 73.0000
  31
0.0
   0
LINE
   8
LEVEL003
   6
CONTINUOUS
  62
3
  10
 790.000
  20
 70.0000
  30
0.0
  11
 789.196
  21
 73.0000
  31
0.0
   0
LINE
   8
LEVEL003
   6
CONTINUOUS
  62
3
  10
 790.000
  20
 130.000
  30
0.0
  11
 789.196
  21
 127.000
  31
0.0
   0
LINE
   8
LEVEL003
   6
CONTINUOUS
  62
3
  10
 790.000
  20
 130.000
  30
0.0
  11
 790.804
  21
 127.000
  31
0.0
   0
TEXT
   8
LEVEL003
  62
3
  10
 788.286
  20
 98.0000
  30
0.0
  40
 4.00000
   1
60
  50
 90.0000
  41
 0.500000
   7
STANDARD
  72
1
  11
 788.286
  21
 100.000
  31
0.0
   0
LINE
   8
LEVEL003
   6
CONTINUOUS
  62
3
  10
 730.000
  20
 70.0000
  30
0.0
  11
 912.000
  21
 70.0000
  31
0.0
   0
LINE
   8
LEVEL003
   6
CONTINUOUS
  62
3
  10
 838.500
  20
 210.000
  30
0.0
  11
 912.000
  21
 210.000
  31
0.0
   0
LINE
   8
LEVEL003
   6
CONTINUOUS
  62
3
  10
 910.000
  20
 70.0000
  30
0.0
  11
 910.000
  21
 210.000
  31
0.0
   0
LINE
   8
LEVEL003
   6
CONTINUOUS
  62
3
  10
 910.000
  20
 70.0000
  30
0.0
  11
 910.804
  21
 73.0000
  31
0.0
   0
LINE
   8
LEVEL003
   6
CONTINUOUS
  62
3
  10
 910.000
  20
 70.0000
  30
0.0
  11
 909.196
  21
 73.0000
  31
0.0
   0
LINE
   8
LEVEL003
   6
CONTINUOUS
  62
3
  10
 910.000
  20
 210.000
  30
0.0
  11
 909.196
  21
 207.000
  31
0.0
   0
LINE
   8
LEVEL003
   6
CONTINUOUS
  62
3
  10
 910.000
  20
 210.000
  30
0.0
  11
 910.804
  21
 207.000
  31
0.0
   0
TEXT
   8
LEVEL003
  62
3
  10
 908.286
  20
 137.000
  30
0.0
  40
 4.00000
   1
140
  50
 90.0000
  41
 0.500000
   7
STANDARD
  72
1
  11
 908.286
  21
 140.000
  31
0.0
   0
LINE
   8
LEVEL003
   6
CONTINUOUS
  62
3
  10
 642.639
  20
 290.000
  30
0.0
  11
 912.000
  21
 290.000
  31
0.0
   0
LINE
   8
LEVEL003
   6
CONTINUOUS
  62
3
  10
 838.500
  20
 210.000
  30
0.0
  11
 912.000
  21
 210.000
  31
0.0
   0
LINE
   8
LEVEL003
   6
CONTINUOUS
  62
3
  10
 910.000
  20
 290.000
  30
0.0
  11
 910.000
  21
 210.000
  31
0.0
   0
LINE
   8
LEVEL003
   6
CONTINUOUS
  62
3
  10
 910.000
  20
 290.000
  30
0.0
  11
 909.196
  21
 287.000
  31
0.0
   0
LINE
   8
LEVEL003
   6
CONTINUOUS
  62
3
  10
 910.000
  20
 290.000
  30
0.0
  11
 910.804
  21
 287.000
  31
0.0
   0
LINE
   8
LEVEL003
   6
CONTINUOUS
  62
3
  10
 910.000
  20
 210.000
  30
0.0
  11
 910.804
  21
 213.000
  31
0.0
   0
LINE
   8
LEVEL003
   6
CONTINUOUS
  62
3
  10
 910.000
  20
 210.000
  30
0.0
  11
 909.196
  21
 213.000
  31
0.0
   0
TEXT
   8
LEVEL003
  62
3
  10
 908.286
  20
 248.000
  30
0.0
  40
 4.00000
   1
80
  50
 90.0000
  41
 0.500000
   7
STANDARD
  72
1
  11
 908.286
  21
 250.000
  31
0.0
   0
LINE
   8
LEVEL003
   6
CONTINUOUS
  62
3
  10
 838.500
  20
 210.000
  30
0.0
  11
 882.000
  21
 210.000
  31
0.0
   0
LINE
   8
LEVEL003
   6
CONTINUOUS
  62
3
  10
 834.000
  20
 229.000
  30
0.0
  11
 882.000
  21
 229.000
  31
0.0
   0
LINE
   8
LEVEL003
   6
CONTINUOUS
  62
3
  10
 880.000
  20
 210.000
  30
0.0
  11
 880.000
  21
 229.000
  31
0.0
   0
LINE
   8
LEVEL003
   6
CONTINUOUS
  62
3
  10
 880.000
  20
 210.000
  30
0.0
  11
 880.804
  21
 213.000
  31
0.0
   0
LINE
   8
LEVEL003
   6
CONTINUOUS
  62
3
  10
 880.000
  20
 210.000
  30
0.0
  11
 879.196
  21
 213.000
  31
0.0
   0
LINE
   8
LEVEL003
   6
CONTINUOUS
  62
3
  10
 880.000
  20
 229.000
  30
0.0
  11
 879.196
  21
 226.000
  31
0.0
   0
LINE
   8
LEVEL003
   6
CONTINUOUS
  62
3
  10
 880.000
  20
 229.000
  30
0.0
  11
 880.804
  21
 226.000
  31
0.0
   0
TEXT
   8
LEVEL003
  62
3
  10
 878.286
  20
 217.500
  30
0.0
  40
 4.00000
   1
19
  50
 90.0000
  41
 0.500000
   7
STANDARD
  72
1
  11
 878.286
  21
 219.500
  31
0.0
   0
LINE
   8
LEVEL003
   6
CONTINUOUS
  62
3
  10
 670.000
  20
 70.0000
  30
0.0
  11
 670.000
  21
 38.0000
  31
0.0
   0
LINE
   8
LEVEL003
   6
CONTINUOUS
  62
3
  10
 730.000
  20
 70.0000
  30
0.0
  11
 730.000
  21
 38.0000
  31
0.0
   0
LINE
   8
LEVEL003
   6
CONTINUOUS
  62
3
  10
 670.000
  20
 40.0000
  30
0.0
  11
 730.000
  21
 40.0000
  31
0.0
   0
LINE
   8
LEVEL003
   6
CONTINUOUS
  62
3
  10
 670.000
  20
 40.0000
  30
0.0
  11
 673.000
  21
 39.1962
  31
0.0
   0
LINE
   8
LEVEL003
   6
CONTINUOUS
  62
3
  10
 670.000
  20
 40.0000
  30
0.0
  11
 673.000
  21
 40.8038
  31
0.0
   0
LINE
   8
LEVEL003
   6
CONTINUOUS
  62
3
  10
 730.000
  20
 40.0000
  30
0.0
  11
 727.000
  21
 40.8038
  31
0.0
   0
LINE
   8
LEVEL003
   6
CONTINUOUS
  62
3
  10
 730.000
  20
 40.0000
  30
0.0
  11
 727.000
  21
 39.1962
  31
0.0
   0
TEXT
   8
LEVEL003
  62
3
  10
 694.000
  20
 41.7143
  30
0.0
  40
 4.00000
   1
M60×2
   7
STANDARD
  72
1
  11
 700.000
  21
 41.7143
  31
0.0
   0
LINE
   8
LEVEL003
   6
CONTINUOUS
  62
3
  10
 369.000
  20
 308.000
  30
0.0
  11
 369.000
  21
 342.000
  31
0.0
   0
LINE
   8
LEVEL003
   6
CONTINUOUS
  62
3
  10
 405.000
  20
 308.000
  30
0.0
  11
 405.000
  21
 342.000
  31
0.0
   0
LINE
   8
LEVEL003
   6
CONTINUOUS
  62
3
  10
 369.000
  20
 340.000
  30
0.0
  11
 405.000
  21
 340.000
  31
0.0
   0
LINE
   8
LEVEL003
   6
CONTINUOUS
  62
3
  10
 369.000
  20
 340.000
  30
0.0
  11
 372.000
  21
 339.196
  31
0.0
   0
LINE
   8
LEVEL003
   6
CONTINUOUS
  62
3
  10
 369.000
  20
 340.000
  30
0.0
  11
 372.000
  21
 340.804
  31
0.0
   0
LINE
   8
LEVEL003
   6
CONTINUOUS
  62
3
  10
 405.000
  20
 340.000
  30
0.0
  11
 402.000
  21
 340.804
  31
0.0
   0
LINE
   8
LEVEL003
   6
CONTINUOUS
  62
3
  10
 405.000
  20
 340.000
  30
0.0
  11
 402.000
  21
 339.196
  31
0.0
   0
TEXT
   8
LEVEL003
  62
3
  10
 385.000
  20
 341.714
  30
0.0
  40
 4.00000
   1
36
  41
 0.500000
   7
STANDARD
  72
1
  11
 387.000
  21
 341.714
  31
0.0
   0
LINE
   8
LEVEL003
   6
CONTINUOUS
  62
3
  10
 363.000
  20
 304.416
  30
0.0
  11
 363.000
  21
 372.000
  31
0.0
   0
LINE
   8
LEVEL003
   6
CONTINUOUS
  62
3
  10
 405.000
  20
 308.000
  30
0.0
  11
 405.000
  21
 372.000
  31
0.0
   0
LINE
   8
LEVEL003
   6
CONTINUOUS
  62
3
  10
 363.000
  20
 370.000
  30
0.0
  11
 405.000
  21
 370.000
  31
0.0
   0
LINE
   8
LEVEL003
   6
CONTINUOUS
  62
3
  10
 363.000
  20
 370.000
  30
0.0
  11
 366.000
  21
 369.196
  31
0.0
   0
LINE
   8
LEVEL003
   6
CONTINUOUS
  62
3
  10
 363.000
  20
 370.000
  30
0.0
  11
 366.000
  21
 370.804
  31
0.0
   0
LINE
   8
LEVEL003
   6
CONTINUOUS
  62
3
  10
 405.000
  20
 370.000
  30
0.0
  11
 402.000
  21
 370.804
  31
0.0
   0
LINE
   8
LEVEL003
   6
CONTINUOUS
  62
3
  10
 405.000
  20
 370.000
  30
0.0
  11
 402.000
  21
 369.196
  31
0.0
   0
TEXT
   8
LEVEL003
  62
3
  10
 382.000
  20
 371.714
  30
0.0
  40
 4.00000
   1
42
  41
 0.500000
   7
STANDARD
  72
1
  11
 384.000
  21
 371.714
  31
0.0
   0
LINE
   8
LEVEL003
   6
CONTINUOUS
  62
3
  10
 338.500
  20
 210.000
  30
0.0
  11
 462.000
  21
 210.000
  31
0.0
   0
LINE
   8
LEVEL003
   6
CONTINUOUS
  62
3
  10
 293.500
  20
 780.000
  30
0.0
  11
 462.000
  21
 780.000
  31
0.0
   0
LINE
   8
LEVEL003
   6
CONTINUOUS
  62
3
  10
 460.000
  20
 210.000
  30
0.0
  11
 460.000
  21
 780.000
  31
0.0
   0
LINE
   8
LEVEL003
   6
CONTINUOUS
  62
3
  10
 460.000
  20
 210.000
  30
0.0
  11
 460.804
  21
 213.000
  31
0.0
   0
LINE
   8
LEVEL003
   6
CONTINUOUS
  62
3
  10
 460.000
  20
 210.000
  30
0.0
  11
 459.196
  21
 213.000
  31
0.0
   0
LINE
   8
LEVEL003
   6
CONTINUOUS
  62
3
  10
 460.000
  20
 780.000
  30
0.0
  11
 459.196
  21
 777.000
  31
0.0
   0
LINE
   8
LEVEL003
   6
CONTINUOUS
  62
3
  10
 460.000
  20
 780.000
  30
0.0
  11
 460.804
  21
 777.000
  31
0.0
   0
TEXT
   8
LEVEL003
  62
3
  10
 458.286
  20
 481.000
  30
0.0
  40
 4.00000
   1
220+ストローク
  50
 90.0000
   7
STANDARD
  72
1
  11
 458.286
  21
 495.000
  31
0.0
   0
LINE
   8
LEVEL003
   6
CONTINUOUS
  62
3
  10
 195.000
  20
 1184.00
  30
0.0
  11
 195.000
  21
 1212.00
  31
0.0
   0
LINE
   8
LEVEL003
   6
CONTINUOUS
  62
3
  10
 305.000
  20
 1184.00
  30
0.0
  11
 305.000
  21
 1212.00
  31
0.0
   0
LINE
   8
LEVEL003
   6
CONTINUOUS
  62
3
  10
 195.000
  20
 1210.00
  30
0.0
  11
 305.000
  21
 1210.00
  31
0.0
   0
LINE
   8
LEVEL003
   6
CONTINUOUS
  62
3
  10
 195.000
  20
 1210.00
  30
0.0
  11
 198.000
  21
 1209.20
  31
0.0
   0
LINE
   8
LEVEL003
   6
CONTINUOUS
  62
3
  10
 195.000
  20
 1210.00
  30
0.0
  11
 198.000
  21
 1210.80
  31
0.0
   0
LINE
   8
LEVEL003
   6
CONTINUOUS
  62
3
  10
 305.000
  20
 1210.00
  30
0.0
  11
 302.000
  21
 1210.80
  31
0.0
   0
LINE
   8
LEVEL003
   6
CONTINUOUS
  62
3
  10
 305.000
  20
 1210.00
  30
0.0
  11
 302.000
  21
 1209.20
  31
0.0
   0
TEXT
   8
LEVEL003
  62
3
  10
 247.000
  20
 1211.71
  30
0.0
  40
 4.00000
   1
110
  41
 0.500000
   7
STANDARD
  72
1
  11
 250.000
  21
 1211.71
  31
0.0
   0
LINE
   8
LEVEL003
   6
CONTINUOUS
  62
3
  10
 332.528
  20
 1040.00
  30
0.0
  11
 452.000
  21
 1040.00
  31
0.0
   0
LINE
   8
LEVEL003
   6
CONTINUOUS
  62
3
  10
 341.000
  20
 882.000
  30
0.0
  11
 452.000
  21
 882.000
  31
0.0
   0
LINE
   8
LEVEL003
   6
CONTINUOUS
  62
3
  10
 450.000
  20
 1040.00
  30
0.0
  11
 450.000
  21
 882.000
  31
0.0
   0
LINE
   8
LEVEL003
   6
CONTINUOUS
  62
3
  10
 450.000
  20
 1040.00
  30
0.0
  11
 449.196
  21
 1037.00
  31
0.0
   0
LINE
   8
LEVEL003
   6
CONTINUOUS
  62
3
  10
 450.000
  20
 1040.00
  30
0.0
  11
 450.804
  21
 1037.00
  31
0.0
   0
LINE
   8
LEVEL003
   6
CONTINUOUS
  62
3
  10
 450.000
  20
 882.000
  30
0.0
  11
 450.804
  21
 885.000
  31
0.0
   0
LINE
   8
LEVEL003
   6
CONTINUOUS
  62
3
  10
 450.000
  20
 882.000
  30
0.0
  11
 449.196
  21
 885.000
  31
0.0
   0
TEXT
   8
LEVEL003
  62
3
  10
 448.286
  20
 958.000
  30
0.0
  40
 4.00000
   1
158
  50
 90.0000
  41
 0.500000
   7
STANDARD
  72
1
  11
 448.286
  21
 961.000
  31
0.0
   0
LINE
   8
LEVEL003
   6
CONTINUOUS
  62
3
  10
 332.528
  20
 1040.00
  30
0.0
  11
 452.000
  21
 1040.00
  31
0.0
   0
LINE
   8
LEVEL003
   6
CONTINUOUS
  62
3
  10
 341.000
  20
 1148.00
  30
0.0
  11
 452.000
  21
 1148.00
  31
0.0
   0
LINE
   8
LEVEL003
   6
CONTINUOUS
  62
3
  10
 450.000
  20
 1040.00
  30
0.0
  11
 450.000
  21
 1148.00
  31
0.0
   0
LINE
   8
LEVEL003
   6
CONTINUOUS
  62
3
  10
 450.000
  20
 1040.00
  30
0.0
  11
 450.804
  21
 1043.00
  31
0.0
   0
LINE
   8
LEVEL003
   6
CONTINUOUS
  62
3
  10
 450.000
  20
 1040.00
  30
0.0
  11
 449.196
  21
 1043.00
  31
0.0
   0
LINE
   8
LEVEL003
   6
CONTINUOUS
  62
3
  10
 450.000
  20
 1148.00
  30
0.0
  11
 449.196
  21
 1145.00
  31
0.0
   0
LINE
   8
LEVEL003
   6
CONTINUOUS
  62
3
  10
 450.000
  20
 1148.00
  30
0.0
  11
 450.804
  21
 1145.00
  31
0.0
   0
TEXT
   8
LEVEL003
  62
3
  10
 448.286
  20
 1091.00
  30
0.0
  40
 4.00000
   1
108
  50
 90.0000
  41
 0.500000
   7
STANDARD
  72
1
  11
 448.286
  21
 1094.00
  31
0.0
   0
LINE
   8
LEVEL003
   6
CONTINUOUS
  62
3
  10
 95.0000
  20
 937.500
  30
0.0
  11
 95.0000
  21
 818.000
  31
0.0
   0
LINE
   8
LEVEL003
   6
CONTINUOUS
  62
3
  10
 405.000
  20
 937.500
  30
0.0
  11
 405.000
  21
 818.000
  31
0.0
   0
LINE
   8
LEVEL003
   6
CONTINUOUS
  62
3
  10
 95.0000
  20
 820.000
  30
0.0
  11
 405.000
  21
 820.000
  31
0.0
   0
LINE
   8
LEVEL003
   6
CONTINUOUS
  62
3
  10
 95.0000
  20
 820.000
  30
0.0
  11
 98.0000
  21
 819.196
  31
0.0
   0
LINE
   8
LEVEL003
   6
CONTINUOUS
  62
3
  10
 95.0000
  20
 820.000
  30
0.0
  11
 98.0000
  21
 820.804
  31
0.0
   0
LINE
   8
LEVEL003
   6
CONTINUOUS
  62
3
  10
 405.000
  20
 820.000
  30
0.0
  11
 402.000
  21
 820.804
  31
0.0
   0
LINE
   8
LEVEL003
   6
CONTINUOUS
  62
3
  10
 405.000
  20
 820.000
  30
0.0
  11
 402.000
  21
 819.196
  31
0.0
   0
TEXT
   8
LEVEL003
  62
3
  10
 247.000
  20
 821.714
  30
0.0
  40
 4.00000
   1
310
  41
 0.500000
   7
STANDARD
  72
1
  11
 250.000
  21
 821.714
  31
0.0
   0
LINE
   8
LEVEL004
   6
DOT
  62
3
  10
 783.000
  20
 230.000
  30
0.0
  11
 783.000
  21
 229.000
  31
0.0
   0
LINE
   8
LEVEL004
   6
DOT
  62
3
  10
 833.000
  20
 229.000
  30
0.0
  11
 783.000
  21
 229.000
  31
0.0
   0
LINE
   8
LEVEL004
   6
DOT
  62
3
  10
 833.000
  20
 230.000
  30
0.0
  11
 833.000
  21
 229.000
  31
0.0
   0
ENDSEC
   0
EOF
